  0
SECTION
  2
HEADER
  9
$ACADVER
  1
AC1015
  9
$ACADMAINTVER
 70
     6
  9
$DWGCODEPAGE
  3
DOS932
  9
$INSBASE
 10
0.0
 20
0.0
 30
0.0
  9
$EXTMIN
 10
0.0
 20
0.0
 30
0.0
  9
$EXTMAX
 10
2520.0
 20
3564.0
 30
0.0
  9
$LIMMIN
 10
0.0
 20
0.0
  9
$LIMMAX
 10
2520.0
 20
3564.0
  9
$ORTHOMODE
 70
     0
  9
$REGENMODE
 70
     1
  9
$FILLMODE
 70
     1
  9
$QTEXTMODE
 70
     0
  9
$MIRRTEXT
 70
     1
  9
$LTSCALE
 40
12.0
  9
$ATTMODE
 70
     1
  9
$TEXTSIZE
 40
42.0
  9
$TRACEWID
 40
1.0
  9
$TEXTSTYLE
  7
Standard
  9
$CLAYER
  8
0
  9
$CELTYPE
  6
ByLayer
  9
$CECOLOR
 62
   256
  9
$CELTSCALE
 40
1.0
  9
$DISPSILH
 70
     0
  9
$DIMSCALE
 40
1.0
  9
$DIMASZ
 40
39.624
  9
$DIMEXO
 40
12.0
  9
$DIMDLI
 40
3.75
  9
$DIMRND
 40
0.0
  9
$DIMDLE
 40
0.0
  9
$DIMEXE
 40
12.0
  9
$DIMTP
 40
0.0
  9
$DIMTM
 40
0.0
  9
$DIMTXT
 40
42.0
  9
$DIMCEN
 40
2.5
  9
$DIMTSZ
 40
0.0
  9
$DIMTOL
 70
     0
  9
$DIMLIM
 70
     0
  9
$DIMTIH
 70
     1
  9
$DIMTOH
 70
     1
  9
$DIMSE1
 70
     0
  9
$DIMSE2
 70
     0
  9
$DIMTAD
 70
     1
  9
$DIMZIN
 70
     1
  9
$DIMBLK
  1

  9
$DIMASO
 70
     1
  9
$DIMSHO
 70
     1
  9
$DIMPOST
  1

  9
$DIMAPOST
  1

  9
$DIMALT
 70
     0
  9
$DIMALTD
 70
     3
  9
$DIMALTF
 40
0.0393700787
  9
$DIMLFAC
 40
1.0
  9
$DIMTOFL
 70
     1
  9
$DIMTVP
 40
0.0
  9
$DIMTIX
 70
     0
  9
$DIMSOXD
 70
     0
  9
$DIMSAH
 70
     0
  9
$DIMBLK1
  1

  9
$DIMBLK2
  1

  9
$DIMSTYLE
  2
ISO-25
  9
$DIMCLRD
 70
     0
  9
$DIMCLRE
 70
     0
  9
$DIMCLRT
 70
     0
  9
$DIMTFAC
 40
1.0
  9
$DIMGAP
 40
18.288
  9
$DIMJUST
 70
     0
  9
$DIMSD1
 70
     0
  9
$DIMSD2
 70
     0
  9
$DIMTOLJ
 70
     0
  9
$DIMTZIN
 70
     1
  9
$DIMALTZ
 70
     0
  9
$DIMALTTZ
 70
     0
  9
$DIMUPT
 70
     0
  9
$DIMDEC
 70
     2
  9
$DIMTDEC
 70
     2
  9
$DIMALTU
 70
     2
  9
$DIMALTTD
 70
     3
  9
$DIMTXSTY
  7
Standard
  9
$DIMAUNIT
 70
     0
  9
$DIMADEC
 70
     2
  9
$DIMALTRND
 40
0.0
  9
$DIMAZIN
 70
     0
  9
$DIMDSEP
 70
    44
  9
$DIMATFIT
 70
     3
  9
$DIMFRAC
 70
     0
  9
$DIMLDRBLK
  1

  9
$DIMLUNIT
 70
     2
  9
$DIMLWD
 70
    -2
  9
$DIMLWE
 70
    -2
  9
$DIMTMOVE
 70
     0
  9
$LUNITS
 70
     2
  9
$LUPREC
 70
     2
  9
$SKETCHINC
 40
1.0
  9
$FILLETRAD
 40
10.0
  9
$AUNITS
 70
     0
  9
$AUPREC
 70
     2
  9
$MENU
  1
.
  9
$ELEVATION
 40
0.0
  9
$PELEVATION
 40
0.0
  9
$THICKNESS
 40
0.0
  9
$LIMCHECK
 70
     0
  9
$CHAMFERA
 40
0.0
  9
$CHAMFERB
 40
0.0
  9
$CHAMFERC
 40
0.0
  9
$CHAMFERD
 40
0.0
  9
$SKPOLY
 70
     0
  9
$TDCREATE
 40
2459920.596262789
  9
$TDUCREATE
 40
2459920.221262789
  9
$TDUPDATE
 40
2459920.596263113
  9
$TDUUPDATE
 40
2459920.221263113
  9
$TDINDWG
 40
0.0000000116
  9
$TDUSRTIMER
 40
0.0000000116
  9
$USRTIMER
 70
     1
  9
$ANGBASE
 50
0.0
  9
$ANGDIR
 70
     0
  9
$PDMODE
 70
     0
  9
$PDSIZE
 40
-1.0
  9
$PLINEWID
 40
0.0
  9
$SPLFRAME
 70
     0
  9
$SPLINETYPE
 70
     6
  9
$SPLINESEGS
 70
     8
  9
$HANDSEED
  5
109
  9
$SURFTAB1
 70
     6
  9
$SURFTAB2
 70
     6
  9
$SURFTYPE
 70
     6
  9
$SURFU
 70
     6
  9
$SURFV
 70
     6
  9
$UCSBASE
  2

  9
$UCSNAME
  2

  9
$UCSORG
 10
0.0
 20
0.0
 30
0.0
  9
$UCSXDIR
 10
1.0
 20
0.0
 30
0.0
  9
$UCSYDIR
 10
0.0
 20
1.0
 30
0.0
  9
$UCSORTHOREF
  2

  9
$UCSORTHOVIEW
 70
     0
  9
$UCSORGTOP
 10
0.0
 20
0.0
 30
0.0
  9
$UCSORGBOTTOM
 10
0.0
 20
0.0
 30
0.0
  9
$UCSORGLEFT
 10
0.0
 20
0.0
 30
0.0
  9
$UCSORGRIGHT
 10
0.0
 20
0.0
 30
0.0
  9
$UCSORGFRONT
 10
0.0
 20
0.0
 30
0.0
  9
$UCSORGBACK
 10
0.0
 20
0.0
 30
0.0
  9
$PUCSBASE
  2

  9
$PUCSNAME
  2

  9
$PUCSORG
 10
0.0
 20
0.0
 30
0.0
  9
$PUCSXDIR
 10
1.0
 20
0.0
 30
0.0
  9
$PUCSYDIR
 10
0.0
 20
1.0
 30
0.0
  9
$PUCSORTHOREF
  2

  9
$PUCSORTHOVIEW
 70
     0
  9
$PUCSORGTOP
 10
0.0
 20
0.0
 30
0.0
  9
$PUCSORGBOTTOM
 10
0.0
 20
0.0
 30
0.0
  9
$PUCSORGLEFT
 10
0.0
 20
0.0
 30
0.0
  9
$PUCSORGRIGHT
 10
0.0
 20
0.0
 30
0.0
  9
$PUCSORGFRONT
 10
0.0
 20
0.0
 30
0.0
  9
$PUCSORGBACK
 10
0.0
 20
0.0
 30
0.0
  9
$USERI1
 70
     0
  9
$USERI2
 70
     0
  9
$USERI3
 70
     0
  9
$USERI4
 70
     0
  9
$USERI5
 70
     0
  9
$USERR1
 40
0.0
  9
$USERR2
 40
0.0
  9
$USERR3
 40
0.0
  9
$USERR4
 40
0.0
  9
$USERR5
 40
0.0
  9
$WORLDVIEW
 70
     1
  9
$SHADEDGE
 70
     3
  9
$SHADEDIF
 70
    70
  9
$TILEMODE
 70
     1
  9
$MAXACTVP
 70
    64
  9
$PINSBASE
 10
0.0
 20
0.0
 30
0.0
  9
$PLIMCHECK
 70
     0
  9
$PEXTMIN
 10
1.0000000000E+20
 20
1.0000000000E+20
 30
1.0000000000E+20
  9
$PEXTMAX
 10
-1.0000000000E+20
 20
-1.0000000000E+20
 30
-1.0000000000E+20
  9
$PLIMMIN
 10
0.0
 20
0.0
  9
$PLIMMAX
 10
420.0
 20
297.0
  9
$UNITMODE
 70
     0
  9
$VISRETAIN
 70
     1
  9
$PLINEGEN
 70
     0
  9
$PSLTSCALE
 70
     1
  9
$TREEDEPTH
 70
  3020
  9
$CMLSTYLE
  2
Standard
  9
$CMLJUST
 70
     0
  9
$CMLSCALE
 40
20.0
  9
$PROXYGRAPHICS
 70
     1
  9
$MEASUREMENT
 70
     1
  9
$CELWEIGHT
370
    -1
  9
$ENDCAPS
280
     0
  9
$JOINSTYLE
280
     0
  9
$LWDISPLAY
290
     1
  9
$INSUNITS
 70
     4
  9
$HYPERLINKBASE
  1

  9
$STYLESHEET
  1

  9
$XEDIT
290
     1
  9
$CEPSNTYPE
380
     0
  9
$PSTYLEMODE
290
     1
  9
$FINGERPRINTGUID
  2
{fac5f843-bbdc-494a-b583-2c0a24ffde67}
  9
$VERSIONGUID
  2
{FAEB1C32-E019-11D5-929B-00C0DF256EC4}
  9
$EXTNAMES
290
     1
  9
$PSVPSCALE
 40
0.0
  9
$OLESTARTUP
290
     0
  0
ENDSEC
  0
SECTION
  2
CLASSES
  0
CLASS
  1
ACDBDICTIONARYWDFLT
  2
AcDbDictionaryWithDefault
  3
ObjectDBX Classes
 90
        0
280
     0
281
     0
  0
CLASS
  1
VISUALSTYLE
  2
AcDbVisualStyle
  3
ObjectDBX Classes
 90
     4095
280
     0
281
     0
  0
CLASS
  1
MATERIAL
  2
AcDbMaterial
  3
ObjectDBX Classes
 90
     1153
280
     0
281
     0
  0
CLASS
  1
SCALE
  2
AcDbScale
  3
ObjectDBX Classes
 90
     1153
280
     0
281
     0
  0
CLASS
  1
TABLESTYLE
  2
AcDbTableStyle
  3
ObjectDBX Classes
 90
     4095
280
     0
281
     0
  0
CLASS
  1
MLEADERSTYLE
  2
AcDbMLeaderStyle
  3
ACDB_MLEADERSTYLE_CLASS
 90
     4095
280
     0
281
     0
  0
CLASS
  1
SUN
  2
AcDbSun
  3
SCENEOE
 90
     1153
280
     0
281
     0
  0
CLASS
  1
ACDBPLACEHOLDER
  2
AcDbPlaceHolder
  3
ObjectDBX Classes
 90
        0
280
     0
281
     0
  0
CLASS
  1
LAYOUT
  2
AcDbLayout
  3
ObjectDBX Classes
 90
        0
280
     0
281
     0
  0
ENDSEC
  0
SECTION
  2
TABLES
  0
TABLE
  2
VPORT
  5
8
330
0
100
AcDbSymbolTable
 70
     1
  0
VPORT
  5
29
330
8
100
AcDbSymbolTableRecord
100
AcDbViewportTableRecord
  2
*Active
 70
     0
 10
0.0
 20
0.0
 11
1.0
 21
1.0
 12
1260.0
 22
1782.0
 13
0.0
 23
0.0
 14
10.0
 24
10.0
 15
10.0
 25
10.0
 16
0.0
 26
0.0
 36
1.0
 17
0.0
 27
0.0
 37
0.0
 40
3564.0
 41
0.7070707071
 42
50.0
 43
0.0
 44
0.0
 50
0.0
 51
0.0
 71
     0
 72
  2000
 73
     1
 74
     3
 75
     0
 76
     0
 77
     0
 78
     0
281
     0
 65
     1
110
0.0
120
0.0
130
0.0
111
1.0
121
0.0
131
0.0
112
0.0
122
1.0
132
0.0
 79
     0
146
0.0
  0
ENDTAB
  0
TABLE
  2
LTYPE
  5
5
330
0
100
AcDbSymbolTable
 70
     6
  0
LTYPE
  5
14
330
5
100
AcDbSymbolTableRecord
100
AcDbLinetypeTableRecord
  2
ByBlock
 70
     0
  3

 72
    65
 73
     0
 40
0.0
  0
LTYPE
  5
15
330
5
100
AcDbSymbolTableRecord
100
AcDbLinetypeTableRecord
  2
ByLayer
 70
     0
  3

 72
    65
 73
     0
 40
0.0
  0
LTYPE
  5
16
330
5
100
AcDbSymbolTableRecord
100
AcDbLinetypeTableRecord
  2
Continuous
 70
     0
  3
Solid line
 72
    65
 73
     0
 40
0.0
  0
LTYPE
  5
6E
330
5
100
AcDbSymbolTableRecord
100
AcDbLinetypeTableRecord
  2
HIDDEN
 70
     0
  3
Hidden __ __ __ __ __ __ __ __ __ __ __ __ __ __
 72
    65
 73
     2
 40
1.905
 49
1.27
 74
     0
 49
-0.635
 74
     0
  0
LTYPE
  5
6F
330
5
100
AcDbSymbolTableRecord
100
AcDbLinetypeTableRecord
  2
PHANTOM
 70
     0
  3
Phantom ______  __  __  ______  __  __  ______
 72
    65
 73
     6
 40
12.7
 49
6.35
 74
     0
 49
-1.27
 74
     0
 49
1.27
 74
     0
 49
-1.27
 74
     0
 49
1.27
 74
     0
 49
-1.27
 74
     0
  0
LTYPE
  5
70
330
5
100
AcDbSymbolTableRecord
100
AcDbLinetypeTableRecord
  2
CENTER
 70
     0
  3
Center ____ _ ____ _ ____ _ ____ _ ____ _ ____
 72
    65
 73
     4
 40
10.16
 49
6.35
 74
     0
 49
-1.27
 74
     0
 49
1.27
 74
     0
 49
-1.27
 74
     0
  0
LTYPE
  5
71
330
5
100
AcDbSymbolTableRecord
100
AcDbLinetypeTableRecord
  2
CENTERX2
 70
     0
  3
Center (2x) ________  __  ________  __  _____
 72
    65
 73
     4
 40
20.32
 49
12.7
 74
     0
 49
-2.54
 74
     0
 49
2.54
 74
     0
 49
-2.54
 74
     0
  0
LTYPE
  5
72
330
5
100
AcDbSymbolTableRecord
100
AcDbLinetypeTableRecord
  2
DOT2
 70
     0
  3
Dot (.5x) ........................................
 72
    65
 73
     2
 40
0.635
 49
0.0
 74
     0
 49
-0.635
 74
     0
  0
ENDTAB
  0
TABLE
  2
LAYER
  5
2
330
0
100
AcDbSymbolTable
 70
     1
  0
LAYER
  5
10
330
2
100
AcDbSymbolTableRecord
100
AcDbLayerTableRecord
  2
0
 70
     0
 62
     7
  6
Continuous
370
    -3
390
F
  0
ENDTAB
  0
TABLE
  2
STYLE
  5
3
330
0
100
AcDbSymbolTable
 70
     2
  0
STYLE
  5
11
330
3
100
AcDbSymbolTableRecord
100
AcDbTextStyleTableRecord
  2
Standard
 70
     0
 40
0.0
 41
1.0
 50
0.0
 71
     0
 42
42.0
  3
txt
  4
bigfont
  0
STYLE
  5
76
330
3
100
AcDbSymbolTableRecord
100
AcDbTextStyleTableRecord
  2
SLDTEXTSTYLE0
 70
     0
 40
0.0
 41
0.7
 50
0.0
 71
     0
 42
42.0
  3
TXT
  4
bigfont
  0
ENDTAB
  0
TABLE
  2
VIEW
  5
6
330
0
100
AcDbSymbolTable
 70
     0
  0
ENDTAB
  0
TABLE
  2
UCS
  5
7
330
0
100
AcDbSymbolTable
 70
     0
  0
ENDTAB
  0
TABLE
  2
APPID
  5
9
330
0
100
AcDbSymbolTable
 70
     1
  0
APPID
  5
12
330
9
100
AcDbSymbolTableRecord
100
AcDbRegAppTableRecord
  2
ACAD
 70
     0
  0
ENDTAB
  0
TABLE
  2
DIMSTYLE
  5
A
330
0
100
AcDbSymbolTable
 70
     1
100
AcDbDimStyleTable
  0
DIMSTYLE
105
27
330
A
100
AcDbSymbolTableRecord
100
AcDbDimStyleTableRecord
  2
ISO-25
 70
     0
 41
2.5
 42
0.625
 43
3.75
 44
1.25
 73
     0
 74
     0
 77
     1
 78
     8
140
2.5
141
2.5
143
0.0393700787
147
0.625
171
     3
172
     1
178
     0
271
     2
272
     2
274
     3
278
    44
283
     0
284
     8
340
11
  0
ENDTAB
  0
TABLE
  2
BLOCK_RECORD
  5
1
330
0
100
AcDbSymbolTable
 70
     2
  0
BLOCK_RECORD
  5
1F
330
1
100
AcDbSymbolTableRecord
100
AcDbBlockTableRecord
  2
*Model_Space
340
22
  0
BLOCK_RECORD
  5
1B
330
1
100
AcDbSymbolTableRecord
100
AcDbBlockTableRecord
  2
*Paper_Space
340
1E
  0
BLOCK_RECORD
  5
23
330
1
100
AcDbSymbolTableRecord
100
AcDbBlockTableRecord
  2
*Paper_Space0
340
26
  0
BLOCK_RECORD
  5
73
330
1
100
AcDbSymbolTableRecord
100
AcDbBlockTableRecord
  2
SW_NOTE_0
340
0
102
{BLKREFS
331
7A
102
}
  0
ENDTAB
  0
ENDSEC
  0
SECTION
  2
BLOCKS
  0
BLOCK
  5
20
330
1F
100
AcDbEntity
  8
0
100
AcDbBlockBegin
  2
*Model_Space
 70
     0
 10
0.0
 20
0.0
 30
0.0
  3
*Model_Space
  1

  0
ENDBLK
  5
21
330
1F
100
AcDbEntity
  8
0
100
AcDbBlockEnd
  0
BLOCK
  5
1C
330
1B
100
AcDbEntity
 67
     1
  8
0
100
AcDbBlockBegin
  2
*Paper_Space
 70
     0
 10
0.0
 20
0.0
 30
0.0
  3
*Paper_Space
  1

  0
ENDBLK
  5
1D
330
1B
100
AcDbEntity
 67
     1
  8
0
100
AcDbBlockEnd
  0
BLOCK
  5
24
330
23
100
AcDbEntity
  8
0
100
AcDbBlockBegin
  2
*Paper_Space0
 70
     0
 10
0.0
 20
0.0
 30
0.0
  3
*Paper_Space0
  1

  0
ENDBLK
  5
25
330
23
100
AcDbEntity
  8
0
100
AcDbBlockEnd
  0
BLOCK
  5
74
330
73
100
AcDbEntity
  8
0
100
AcDbBlockBegin
  2
SW_NOTE_0
 70
     0
 10
0.0
 20
0.0
 30
0.0
  3
SW_NOTE_0
  1

  0
MTEXT
  5
77
330
73
100
AcDbEntity
  8
0
  6
Continuous
 62
     0
370
     0
100
AcDbMText
 10
0.0
 20
81.8558014755
 30
0.0
 40
63.5
 41
0.0
 71
     1
 72
     1
  1
HOA-D05K
  7
SLDTEXTSTYLE0
 73
     1
 44
1.0
  0
MTEXT
  5
78
330
73
100
AcDbEntity
  8
0
  6
Continuous
 62
     0
370
     0
100
AcDbMText
 10
0.0
 20
-14.8108661349
 30
0.0
 40
63.5
 41
0.0
 71
     1
 72
     1
  1
HOA-D05O
  7
SLDTEXTSTYLE0
 73
     1
 44
1.0
  0
MTEXT
  5
79
330
73
100
AcDbEntity
  8
0
  6
Continuous
 62
     0
370
     0
100
AcDbMText
 10
0.0
 20
-111.4775337453
 30
0.0
 40
63.5
 41
0.0
 71
     1
 72
     1
  1
HOA-D05W
  7
SLDTEXTSTYLE0
 73
     1
 44
1.0
  0
ENDBLK
  5
75
330
73
100
AcDbEntity
  8
0
100
AcDbBlockEnd
  0
ENDSEC
  0
SECTION
  2
ENTITIES
  0
INSERT
  5
7A
330
1F
100
AcDbEntity
  8
0
  6
Continuous
 62
     7
370
     0
100
AcDbBlockReference
  2
SW_NOTE_0
 10
1862.2595551936
 20
469.083282233
 30
0.0
  0
LINE
  5
7B
330
1F
100
AcDbEntity
  8
0
  6
Continuous
 62
     7
370
    25
100
AcDbLine
 10
1353.710724057
 20
1700.1785258779
 30
0.0
 11
1347.4398602302
 21
1613.8373415122
 31
0.0
  0
LINE
  5
7C
330
1F
100
AcDbEntity
  8
0
  6
Continuous
 62
     7
370
    25
100
AcDbLine
 10
1387.3347766866
 20
1610.9398182698
 30
0.0
 11
1393.6056405133
 21
1697.2810026355
 31
0.0
  0
LINE
  5
7D
330
1F
100
AcDbEntity
  8
0
  6
Continuous
 62
     7
370
    25
100
AcDbLine
 10
1396.81538759
 20
1677.3128561628
 30
0.0
 11
1392.4913343226
 21
1681.9385364445
 31
0.0
  0
LINE
  5
7E
330
1F
100
AcDbEntity
  8
0
  6
Continuous
 62
     7
370
    25
100
AcDbLine
 10
1179.5324754536
 20
1231.8400855502
 30
0.0
 11
1164.5212004617
 21
1204.887999902
 31
0.0
  0
LINE
  5
7F
330
1F
100
AcDbEntity
  8
0
  6
Continuous
 62
     7
370
    25
100
AcDbLine
 10
1190.7302600161
 20
1190.2905618639
 30
0.0
 11
1194.9235538811
 21
1197.8194370233
 31
0.0
  0
LINE
  5
80
330
1F
100
AcDbEntity
  8
0
  6
Continuous
 62
     7
370
    25
100
AcDbLine
 10
1181.6162010428
 20
1194.1393999909
 30
0.0
 11
1183.0371547409
 21
1165.6570467629
 31
0.0
  0
LINE
  5
81
330
1F
100
AcDbEntity
  8
0
  6
Continuous
 62
     7
370
    25
100
AcDbLine
 10
1178.6577919136
 20
1253.4393292743
 30
0.0
 11
1179.7211080227
 21
1232.1256544834
 31
0.0
  0
LINE
  5
82
330
1F
100
AcDbEntity
  8
0
  6
Continuous
 62
     7
370
    25
100
AcDbLine
 10
1222.9874693915
 20
1167.6501246132
 30
0.0
 11
1218.6081065642
 21
1255.4324071246
 31
0.0
  0
SPLINE
  5
83
330
1F
100
AcDbEntity
  8
0
  6
Continuous
 62
     7
370
    25
100
AcDbSpline
210
0.0
220
0.0
230
1.0
 70
     8
 71
     3
 72
     9
 73
     5
 74
     0
 42
0.00000001
 43
0.00000001
 40
0.0
 40
0.0
 40
0.0
 40
0.0
 40
0.5578954864721014
 40
1.0
 40
1.0
 40
1.0
 40
1.0
 10
1179.707610736608
 20
1232.222402527943
 30
0.0
 10
1179.706944162954
 20
1232.184795277557
 30
0.0
 10
1179.705749362727
 20
1232.117386145742
 30
0.0
 10
1179.579373484805
 20
1231.910173761795
 30
0.0
 10
1179.523502138775
 20
1231.818564231593
 30
0.0
  0
LINE
  5
84
330
1F
100
AcDbEntity
  8
0
  6
Continuous
 62
     7
370
    25
100
AcDbLine
 10
1250.670675043
 20
2536.226015131
 30
0.0
 11
1250.7994563421
 21
2446.8855675018
 31
0.0
  0
LINE
  5
85
330
1F
100
AcDbEntity
  8
0
  6
Continuous
 62
     7
370
    25
100
AcDbLine
 10
1290.7994147856
 20
2446.9432261184
 30
0.0
 11
1290.6706334866
 21
2536.2836737476
 31
0.0
  0
LINE
  5
86
330
1F
100
AcDbEntity
  8
0
  6
Continuous
 62
     7
370
    25
100
AcDbLine
 10
1145.2503630372
 20
1963.0017701894
 30
0.0
 11
1140.6475310926
 21
1935.4904577949
 31
0.0
  0
LINE
  5
87
330
1F
100
AcDbEntity
  8
0
  6
Continuous
 62
     7
370
    25
100
AcDbLine
 10
1170.2362711946
 20
1930.5400578944
 30
0.0
 11
1173.3946216666
 21
1949.417646199
 31
0.0
  0
LINE
  5
88
330
1F
100
AcDbEntity
  8
0
  6
Continuous
 62
     7
370
    25
100
AcDbLine
 10
1141.7835569077
 20
1992.5661480201
 30
0.0
 11
1143.7160156953
 21
1953.8309141697
 31
0.0
  0
LINE
  5
89
330
1F
100
AcDbEntity
  8
0
  6
Continuous
 62
     7
370
    25
100
AcDbLine
 10
1144.8073326383
 20
1931.9559757402
 30
0.0
 11
1146.162919735
 21
1904.7838655087
 31
0.0
  0
LINE
  5
8A
330
1F
100
AcDbEntity
  8
0
  6
Continuous
 62
     7
370
    25
100
AcDbLine
 10
1186.1132343856
 20
1906.776943359
 30
0.0
 11
1181.7338715583
 21
1994.5592258704
 31
0.0
  0
LINE
  5
8B
330
1F
100
AcDbEntity
  8
0
  6
Continuous
 62
     7
370
    25
100
AcDbLine
 10
1131.496624283
 20
2198.762908015
 30
0.0
 11
1133.6379420489
 21
2155.8411934913
 31
0.0
  0
LINE
  5
8C
330
1F
100
AcDbEntity
  8
0
  6
Continuous
 62
     7
370
    25
100
AcDbLine
 10
1129.2585792216
 20
2243.6234760026
 30
0.0
 11
1130.2718934722
 21
2223.3120651135
 31
0.0
  0
LINE
  5
8D
330
1F
100
AcDbEntity
  8
0
  6
Continuous
 62
     7
370
    25
100
AcDbLine
 10
1173.5882566995
 20
2157.8342713415
 30
0.0
 11
1169.2088938722
 21
2245.6165538529
 31
0.0
  0
LINE
  5
8E
330
1F
100
AcDbEntity
  8
0
  6
Continuous
 62
     7
370
    25
100
AcDbLine
 10
1129.9444560972
 20
2229.8753943672
 30
0.0
 11
1116.6629475508
 21
2218.9209623275
 31
0.0
  0
SPLINE
  5
8F
330
1F
100
AcDbEntity
  8
0
  6
Continuous
 62
     7
370
    25
100
AcDbSpline
210
0.0
220
0.0
230
1.0
 70
     8
 71
     3
 72
     9
 73
     5
 74
     0
 42
0.00000001
 43
0.00000001
 40
0.0
 40
0.0
 40
0.0
 40
0.0
 40
0.112697909350558
 40
1.0
 40
1.0
 40
1.0
 40
1.0
 10
1131.392292791424
 20
2193.938671448036
 30
0.0
 10
1131.401667951743
 20
2193.940916387776
 30
0.0
 10
1131.484856365562
 20
2193.960836364585
 30
0.0
 10
1131.668411151164
 20
2193.938954227746
 30
0.0
 10
1131.831279696177
 20
2193.91953816198
 30
0.0
  0
LINE
  5
90
330
1F
100
AcDbEntity
  8
0
  6
Continuous
 62
     7
370
    25
100
AcDbLine
 10
1270.381119693
 20
1597.8786143223
 30
0.0
 11
1275.615317907
 21
1585.7133303909
 31
0.0
  0
LINE
  5
91
330
1F
100
AcDbEntity
  8
0
  6
Continuous
 62
     7
370
    25
100
AcDbLine
 10
1303.17282302
 20
1597.5701390653
 30
0.0
 11
1291.4155608864
 21
1624.8962788607
 31
0.0
  0
LINE
  5
92
330
1F
100
AcDbEntity
  8
0
  6
Continuous
 62
     7
370
    25
100
AcDbLine
 10
1251.9481855298
 20
1649.9687746492
 30
0.0
 11
1252.0769668289
 21
1560.62832702
 31
0.0
  0
LINE
  5
93
330
1F
100
AcDbEntity
  8
0
  6
Continuous
 62
     7
370
    25
100
AcDbLine
 10
1292.0769252724
 20
1560.6859856366
 30
0.0
 11
1292.0356360272
 21
1589.3298933718
 31
0.0
  0
LINE
  5
94
330
1F
100
AcDbEntity
  8
0
  6
Continuous
 62
     7
370
    25
100
AcDbLine
 10
1291.9862803102
 20
1623.5698170892
 30
0.0
 11
1291.9481439734
 21
1650.0264332658
 31
0.0
  0
LINE
  5
95
330
1F
100
AcDbEntity
  8
0
  6
Continuous
 62
     7
370
    25
100
AcDbLine
 10
1254.3752408134
 20
1442.9654657517
 30
0.0
 11
1248.7995444927
 21
1415.9938862925
 31
0.0
  0
LINE
  5
96
330
1F
100
AcDbEntity
  8
0
  6
Continuous
 62
     7
370
    25
100
AcDbLine
 10
1278.1783573755
 20
1409.9205549496
 30
0.0
 11
1282.0541870331
 21
1428.6692890214
 31
0.0
  0
LINE
  5
97
330
1F
100
AcDbEntity
  8
0
  6
Continuous
 62
     7
370
    25
100
AcDbLine
 10
1252.203172502
 20
1473.0746883434
 30
0.0
 11
1252.261314099
 21
1432.7396680991
 31
0.0
  0
LINE
  5
98
330
1F
100
AcDbEntity
  8
0
  6
Continuous
 62
     7
370
    25
100
AcDbLine
 10
1252.290923813
 20
1412.1982919646
 30
0.0
 11
1252.3319538011
 21
1383.7342407142
 31
0.0
  0
LINE
  5
99
330
1F
100
AcDbEntity
  8
0
  6
Continuous
 62
     7
370
    25
100
AcDbLine
 10
1292.3319122446
 20
1383.7918993307
 30
0.0
 11
1292.2031309455
 21
1473.1323469599
 31
0.0
  0
LINE
  5
9A
330
1F
100
AcDbEntity
  8
0
  6
Continuous
 62
     7
370
    25
100
AcDbLine
 10
1082.3993969694
 20
3182.8938988744
 30
0.0
 11
1086.7787597967
 21
3095.111616363
 31
0.0
  0
LINE
  5
9B
330
1F
100
AcDbEntity
  8
0
  6
Continuous
 62
     7
370
    25
100
AcDbLine
 10
1123.3949846225
 20
3163.9349675808
 30
0.0
 11
1122.3497116201
 21
3184.8869767246
 31
0.0
  0
LINE
  5
9C
330
1F
100
AcDbEntity
  8
0
  6
Continuous
 62
     7
370
    25
100
AcDbLine
 10
1126.7290744474
 20
3097.1046942133
 30
0.0
 11
1124.5253160769
 21
3141.2780014935
 31
0.0
  0
LINE
  5
9D
330
1F
100
AcDbEntity
  8
0
  6
Continuous
 62
     7
370
    25
100
AcDbLine
 10
1136.7561384192
 20
3161.8544704731
 30
0.0
 11
1123.0378909802
 21
3171.0927428606
 31
0.0
  0
LINE
  5
9E
330
1F
100
AcDbEntity
  8
0
  6
Continuous
 62
     7
370
    25
100
AcDbLine
 10
1319.9735912031
 20
1235.1517967858
 30
0.0
 11
1303.8426871507
 21
1209.2849190994
 31
0.0
  0
LINE
  5
9F
330
1F
100
AcDbEntity
  8
0
  6
Continuous
 62
     7
370
    25
100
AcDbLine
 10
1329.298499581
 20
1193.4103604122
 30
0.0
 11
1335.2748156796
 21
1202.9937437759
 31
0.0
  0
LINE
  5
A0
330
1F
100
AcDbEntity
  8
0
  6
Continuous
 62
     7
370
    25
100
AcDbLine
 10
1317.3097885483
 20
1198.9876260797
 30
0.0
 11
1315.3330374373
 21
1171.7704775597
 31
0.0
  0
LINE
  5
A1
330
1F
100
AcDbEntity
  8
0
  6
Continuous
 62
     7
370
    25
100
AcDbLine
 10
1321.603901264
 20
1258.1116619255
 30
0.0
 11
1319.9314431246
 21
1235.0842097996
 31
0.0
  0
LINE
  5
A2
330
1F
100
AcDbEntity
  8
0
  6
Continuous
 62
     7
370
    25
100
AcDbLine
 10
1355.2279538936
 20
1168.8729543173
 30
0.0
 11
1361.4988177204
 21
1255.214138683
 31
0.0
  0
SPLINE
  5
A3
330
1F
100
AcDbEntity
  8
0
  6
Continuous
 62
     7
370
    25
100
AcDbSpline
210
0.0
220
0.0
230
1.0
 70
     8
 71
     3
 72
     9
 73
     5
 74
     0
 42
0.00000001
 43
0.00000001
 40
0.0
 40
0.0
 40
0.0
 40
0.0
 40
0.7111011764619913
 40
1.0
 40
1.0
 40
1.0
 40
1.0
 10
1320.047973128282
 20
1235.266377675571
 30
0.0
 10
1320.053560264506
 20
1235.266396141943
 30
0.0
 10
1320.061417284587
 20
1235.266422110642
 30
0.0
 10
1319.999891660585
 20
1235.196135374669
 30
0.0
 10
1319.982116980193
 20
1235.175829619337
 30
0.0
  0
LINE
  5
A4
330
1F
100
AcDbEntity
  8
0
  6
Continuous
 62
     7
370
    25
100
AcDbLine
 10
1234.1927614815
 20
943.0452780508
 30
0.0
 11
1124.5254978455
 21
3141.279103832
 31
0.0
  0
LINE
  5
A5
330
1F
100
AcDbEntity
  8
0
  6
Continuous
 62
     7
370
    25
100
AcDbLine
 10
1123.4063611375
 20
3163.8576426292
 30
0.0
 11
1115.9120482639
 21
3313.9269320164
 31
0.0
  0
LINE
  5
A6
330
1F
100
AcDbEntity
  8
0
  6
Continuous
 62
     7
370
    25
100
AcDbLine
 10
1075.9617336133
 20
3311.9338541661
 30
0.0
 11
1130.2728825554
 21
2223.2236637006
 31
0.0
  0
LINE
  5
A7
330
1F
100
AcDbEntity
  8
0
  6
Continuous
 62
     7
370
    25
100
AcDbLine
 10
1131.51062459
 20
2198.4822784002
 30
0.0
 11
1143.7160156953
 21
1953.8309141697
 31
0.0
  0
LINE
  5
A8
330
1F
100
AcDbEntity
  8
0
  6
Continuous
 62
     7
370
    25
100
AcDbLine
 10
1144.8073326383
 20
1931.9559757402
 30
0.0
 11
1179.7104203972
 21
1232.3398829465
 31
0.0
  0
LINE
  5
A9
330
1F
100
AcDbEntity
  8
0
  6
Continuous
 62
     7
370
    25
100
AcDbLine
 10
1181.6162010428
 20
1194.1393999909
 30
0.0
 11
1194.1629297003
 21
942.6460839459
 31
0.0
  0
LINE
  5
AA
330
1F
100
AcDbEntity
  8
0
  6
Continuous
 62
     7
370
    25
100
AcDbLine
 10
1292.9268818463
 20
971.0390312837
 30
0.0
 11
1292.0356360272
 21
1589.3298933718
 31
0.0
  0
LINE
  5
AB
330
1F
100
AcDbEntity
  8
0
  6
Continuous
 62
     7
370
    25
100
AcDbLine
 10
1291.9862803102
 20
1623.5698170892
 30
0.0
 11
1290.4156465144
 21
2713.1777600534
 31
0.0
  0
LINE
  5
AC
330
1F
100
AcDbEntity
  8
0
  6
Continuous
 62
     7
370
    25
100
AcDbLine
 10
1250.4156880709
 20
2713.1201014369
 30
0.0
 11
1252.261314099
 21
1432.7396680991
 31
0.0
  0
LINE
  5
AD
330
1F
100
AcDbEntity
  8
0
  6
Continuous
 62
     7
370
    25
100
AcDbLine
 10
1252.290923813
 20
1412.1982919646
 30
0.0
 11
1252.9269234028
 21
970.9813726672
 31
0.0
  0
LINE
  5
AE
330
1F
100
AcDbEntity
  8
0
  6
Continuous
 62
     7
370
    25
100
AcDbLine
 10
1338.5548526424
 20
939.3072439381
 30
0.0
 11
1394.2757906578
 21
1706.5080499409
 31
0.0
  0
LINE
  5
AF
330
1F
100
AcDbEntity
  8
0
  6
Continuous
 62
     7
370
    25
100
AcDbLine
 10
1354.3808742014
 20
1709.4055731833
 30
0.0
 11
1319.9314431246
 21
1235.0842097996
 31
0.0
  0
LINE
  5
B0
330
1F
100
AcDbEntity
  8
0
  6
Continuous
 62
     7
370
    25
100
AcDbLine
 10
1317.3097885483
 20
1198.9876260797
 30
0.0
 11
1297.8600061627
 21
931.1908291433
 31
0.0
  0
LINE
  5
B1
330
1F
100
AcDbEntity
  8
0
  6
Continuous
 62
     7
370
    25
100
AcDbLine
 10
1370.0055565862
 20
745.4178820526
 30
0.0
 11
1369.6836033386
 21
968.7690011256
 31
0.0
  0
LINE
  5
B2
330
1F
100
AcDbEntity
  8
0
  6
Continuous
 62
     7
370
    25
100
AcDbLine
 10
1169.6838111209
 20
968.4807080429
 30
0.0
 11
1170.0057643686
 21
745.1295889699
 31
0.0
  0
ARC
  5
B3
330
1F
100
AcDbEntity
  8
0
  6
Continuous
 62
     7
370
    25
100
AcDbCircle
 10
1387.2863529394
 20
1697.9934716406
 30
0.0
 40
6.359324455162649
100
AcDbArc
 50
306.9447403103
 51
353.5673433178
  0
LWPOLYLINE
  5
B4
330
1F
100
AcDbEntity
  8
0
  6
Continuous
 62
     7
370
    25
100
AcDbPolyline
 90
       21
 70
   128
 43
0.0
 10
1353.710724057
 20
1700.1785258779
 10
1353.7868982651
 20
1698.8617922388
 10
1354.2156543452
 20
1697.515864667
 10
1354.9913627971
 20
1696.1915991622
 10
1356.1001810849
 20
1694.9126272736
 10
1357.5223223201
 20
1693.701772285
 10
1359.2324083586
 20
1692.5806419321
 10
1361.1999226747
 20
1691.5692428129
 10
1363.3897549286
 20
1690.6856233684
 10
1365.7628275119
 20
1689.9455518086
 10
1368.2767928883
 20
1689.3622347281
 10
1370.8867892859
 20
1688.946081434
 10
1373.5462412572
 20
1688.7045181916
 10
1376.2076908188
 20
1688.6418557027
 10
1378.8236443402
 20
1688.759212181
 10
1381.3474200689
 20
1689.0544933972
 10
1383.7339811672
 20
1689.5224300512
 10
1385.9407393958
 20
1690.1546718022
 10
1387.9283151017
 20
1690.9399362812
 10
1389.6612399494
 20
1691.8642104249
 10
1391.108589854
 20
1692.9110005395
  0
ARC
  5
B5
330
1F
100
AcDbEntity
  8
0
  6
Continuous
 62
     7
370
    25
100
AcDbCircle
 10
1381.0154891126
 20
1611.6522872749
 30
0.0
 40
6.359324455163127
100
AcDbArc
 50
306.9447403103
 51
353.5673433178
  0
LWPOLYLINE
  5
B6
330
1F
100
AcDbEntity
  8
0
  6
Continuous
 62
     7
370
    25
100
AcDbPolyline
 90
       21
 70
   128
 43
0.0
 10
1347.4398602302
 20
1613.8373415122
 10
1347.5160344383
 20
1612.5206078731
 10
1347.9447905185
 20
1611.1746803013
 10
1348.7204989703
 20
1609.8504147965
 10
1349.8293172581
 20
1608.5714429079
 10
1351.2514584933
 20
1607.3605879192
 10
1352.9615445319
 20
1606.2394575664
 10
1354.9290588479
 20
1605.2280584471
 10
1357.1188911018
 20
1604.3444390027
 10
1359.4919636852
 20
1603.6043674429
 10
1362.0059290615
 20
1603.0210503624
 10
1364.6159254591
 20
1602.6048970683
 10
1367.2753774304
 20
1602.3633338259
 10
1369.936826992
 20
1602.300671337
 10
1372.5527805135
 20
1602.4180278153
 10
1375.0765562422
 20
1602.7133090315
 10
1377.4631173405
 20
1603.1812456855
 10
1379.669875569
 20
1603.8134874365
 10
1381.6574512749
 20
1604.5987519155
 10
1383.3903761227
 20
1605.5230260592
 10
1384.8377260273
 20
1606.5698161737
  0
LWPOLYLINE
  5
B7
330
1F
100
AcDbEntity
  8
0
  6
Continuous
 62
     7
370
    25
100
AcDbPolyline
 90
       14
 70
   128
 43
0.0
 10
1390.4745464169
 20
1654.1701362356
 10
1392.2903005926
 20
1655.1118744852
 10
1394.1963771489
 20
1656.449062623
 10
1395.9006141779
 20
1658.0433167762
 10
1397.3617610364
 20
1659.8560484103
 10
1398.5444510197
 20
1661.8433807968
 10
1399.4200574044
 20
1663.9572110382
 10
1399.9673863506
 20
1666.1463743871
 10
1400.1731898941
 20
1668.3578826767
 10
1400.0324866103
 20
1670.5382068864
 10
1399.5486821879
 20
1672.6345727984
 10
1398.7334869954
 20
1674.5962383854
 10
1397.6066326343
 20
1676.3757220084
 10
1396.81538759
 20
1677.3128561628
  0
LINE
  5
B8
330
1F
100
AcDbEntity
  8
0
  6
Continuous
 62
     7
370
    25
100
AcDbLine
 10
1194.7990372915
 20
1197.6738034436
 30
0.0
 11
1194.8907160119
 21
1197.8377360143
 31
0.0
  0
LWPOLYLINE
  5
B9
330
1F
100
AcDbEntity
  8
0
  6
Continuous
 62
     7
370
    25
100
AcDbPolyline
 90
       36
 70
   128
 43
0.0
 10
1180.994951125
 20
1194.4647006018
 10
1178.9880048281
 20
1195.5372551366
 10
1176.9480850058
 20
1196.6594784559
 10
1174.9245674218
 20
1197.804207417
 10
1172.9664308272
 20
1198.9437341335
 10
1171.1210714427
 20
1200.0504766383
 10
1169.4331557435
 20
1201.097646498
 10
1167.9435393191
 20
1202.0598972205
 10
1166.6882779729
 20
1202.913937761
 10
1165.6977550008
 20
1203.6390962758
 10
1164.9959457706
 20
1204.2178204792
 10
1164.5998374042
 20
1204.6361024925
 10
1164.5190176084
 20
1204.8838179013
 10
1164.7554426066
 20
1204.9549708143
 10
1165.3033897892
 20
1204.8478389925
 10
1166.1495962278
 20
1204.5650155356
 10
1167.2735797012
 20
1204.1133461166
 10
1168.6481344627
 20
1203.5037632842
 10
1170.2399897482
 20
1202.7510218426
 10
1172.0106150874
 20
1201.8733417154
 10
1173.9171529242
 20
1200.8919669369
 10
1175.9134559737
 20
1199.8306514451
 10
1177.9512042057
 20
1198.7150841235
 10
1179.9810744194
 20
1197.5722670081
 10
1181.9539340996
 20
1196.4298617093
 10
1183.8220306572
 20
1195.3155198699
 10
1185.540147269
 20
1194.2562138633
 10
1187.0666973399
 20
1193.2775839339
 10
1188.3647310965
 20
1192.4033175813
 10
1189.4028299471
 20
1191.6545762101
 10
1190.1558669613
 20
1191.0494829233
 10
1190.6056150612
 20
1190.6026838568
 10
1190.7411882034
 20
1190.3249936735
 10
1190.5593048728
 20
1190.2231337967
 10
1190.0643675113
 20
1190.29956972
 10
1189.2683559574
 20
1190.5524513305
  0
LWPOLYLINE
  5
BA
330
1F
100
AcDbEntity
  8
0
  6
Continuous
 62
     7
370
    25
100
AcDbPolyline
 90
       25
 70
   128
 43
0.0
 10
1178.6577919136
 20
1253.4393292743
 10
1178.7877013941
 20
1252.5610652968
 10
1179.2744726443
 20
1251.3256337772
 10
1180.1066963679
 20
1250.1457044646
 10
1181.2695215129
 20
1249.0423332255
 10
1182.742197437
 20
1248.0352097457
 10
1184.4984442035
 20
1247.1423061677
 10
1186.5069215472
 20
1246.3795563769
 10
1188.7317881423
 20
1245.7605716615
 10
1191.1333411918
 20
1245.2963978183
 10
1193.6687249245
 20
1244.9953180406
 10
1196.2926953577
 20
1244.8627051041
 10
1198.9584276769
 20
1244.9009254898
 10
1201.6183518256
 20
1245.1092971541
 10
1204.2250013945
 20
1245.4841016996
 10
1206.7318606602
 20
1246.0186507304
 10
1209.0941946596
 20
1246.7034052063
 10
1211.2698474867
 20
1247.5261456676
 10
1213.2199945652
 20
1248.4721902911
 10
1214.9098354743
 20
1249.5246568881
 10
1216.3092149629
 20
1250.6647641674
 10
1217.3931610709
 20
1251.8721668875
 10
1218.1423307544
 20
1253.1253189182
 10
1218.5433550624
 20
1254.4018577318
 10
1218.6081065642
 20
1255.4324071246
  0
LWPOLYLINE
  5
BB
330
1F
100
AcDbEntity
  8
0
  6
Continuous
 62
     7
370
    25
100
AcDbPolyline
 90
       25
 70
   128
 43
0.0
 10
1183.0371547409
 20
1165.6570467629
 10
1183.1670642214
 20
1164.7787827854
 10
1183.6538354716
 20
1163.5433512659
 10
1184.4860591952
 20
1162.3634219532
 10
1185.6488843402
 20
1161.2600507141
 10
1187.1215602643
 20
1160.2529272343
 10
1188.8778070308
 20
1159.3600236563
 10
1190.8862843745
 20
1158.5972738656
 10
1193.1111509696
 20
1157.9782891501
 10
1195.5127040191
 20
1157.5141153069
 10
1198.0480877518
 20
1157.2130355292
 10
1200.672058185
 20
1157.0804225927
 10
1203.3377905042
 20
1157.1186429784
 10
1205.997714653
 20
1157.3270146427
 10
1208.6043642218
 20
1157.7018191882
 10
1211.1112234875
 20
1158.236368219
 10
1213.4735574869
 20
1158.921122695
 10
1215.649210314
 20
1159.7438631562
 10
1217.5993573925
 20
1160.6899077797
 10
1219.2891983016
 20
1161.7423743768
 10
1220.6885777902
 20
1162.882481656
 10
1221.7725238982
 20
1164.0898843761
 10
1222.5216935817
 20
1165.3430364068
 10
1222.9227178897
 20
1166.6195752205
 10
1222.9874693915
 20
1167.6501246132
  0
LINE
  5
BC
330
1F
100
AcDbEntity
  8
0
  6
Continuous
 62
     7
370
    25
100
AcDbLine
 10
1179.7404759316
 20
1232.1271663172
 30
0.0
 11
1179.7828438024
 21
1232.5500365372
 31
0.0
  0
LWPOLYLINE
  5
BD
330
1F
100
AcDbEntity
  8
0
  6
Continuous
 62
     7
370
    25
100
AcDbPolyline
 90
       39
 70
   128
 43
0.0
 10
1184.7380609703
 20
1192.7749959161
 10
1183.1815016854
 20
1193.5308376695
 10
1181.4733954382
 20
1194.3973831742
 10
1179.6603349145
 20
1195.3509953277
 10
1177.791775679
 20
1196.3656620764
 10
1175.9186871568
 20
1197.4137059565
 10
1174.09216232
 20
1198.4665390628
 10
1172.3620240046
 20
1199.4954428528
 10
1170.7754658739
 20
1200.4723515133
 10
1169.3757650977
 20
1201.3706175226
 10
1168.2011018645
 20
1202.1657385255
 10
1167.2835179253
 20
1202.8360256939
 10
1166.6480425777
 20
1203.3631953411
 10
1166.3120099329
 20
1203.7328676534
 10
1166.2845860854
 20
1203.9349589337
 10
1166.5665190862
 20
1203.9639566587
 10
1167.1501185381
 20
1203.8190698461
 10
1168.0194653693
 20
1203.5042506304
 10
1169.1508460644
 20
1203.0280864592
 10
1170.5133995075
 20
1202.4035658498
 10
1172.0699587924
 20
1201.6477240964
 10
1173.7780650396
 20
1200.7811785917
 10
1175.5911255633
 20
1199.8275664381
 10
1177.4596847988
 20
1198.8128996894
 10
1179.332773321
 20
1197.7648558094
 10
1181.1592981578
 20
1196.7120227031
 10
1182.8894364732
 20
1195.6831189131
 10
1184.4759946039
 20
1194.7062102526
 10
1185.8756953801
 20
1193.8079442433
 10
1187.0503586133
 20
1193.0128232403
 10
1187.9679425525
 20
1192.3425360719
 10
1188.6034179
 20
1191.8153664247
 10
1188.9394505449
 20
1191.4456941125
 10
1188.9668743924
 20
1191.2436028322
 10
1188.6849413916
 20
1191.2146051071
 10
1188.1013419397
 20
1191.3594919198
 10
1187.2319951085
 20
1191.6743111354
 10
1186.1006144134
 20
1192.1504753066
 10
1184.7380609703
 20
1192.7749959161
  0
ARC
  5
BE
330
1F
100
AcDbEntity
  8
0
  6
Continuous
 62
     7
370
    25
100
AcDbCircle
 10
1218.5213894472
 20
1263.1193124598
 30
0.0
 40
78.24122508317473
100
AcDbArc
 50
241.3390946873
 51
248.0447318224
  0
LWPOLYLINE
  5
BF
330
1F
100
AcDbEntity
  8
0
  6
Continuous
 62
     7
370
    25
100
AcDbPolyline
 90
        3
 70
   128
 43
0.0
 10
1290.4414988036
 20
2534.921397562
 10
1290.6674574282
 20
2536.1176253938
 10
1290.6706334866
 20
2536.2836737476
  0
LWPOLYLINE
  5
C0
330
1F
100
AcDbEntity
  8
0
  6
Continuous
 62
     7
370
    25
100
AcDbPolyline
 90
       24
 70
   128
 43
0.0
 10
1250.670675043
 20
2536.226015131
 10
1250.6946847376
 20
2535.7916909524
 10
1251.0035130823
 20
2534.599823726
 10
1251.6633020273
 20
2533.4374903835
 10
1252.6622776233
 20
2532.3254327909
 10
1253.9826131271
 20
2531.2834956422
 10
1255.6007471203
 20
2530.3302723306
 10
1257.4878039635
 20
2529.4827731486
 10
1259.6101090827
 20
2528.7561217392
 10
1261.9297898927
 20
2528.1632852141
 10
1264.4054516344
 20
2527.714842755
 10
1266.9929160656
 20
2527.4187968283
 10
1269.646009822
 20
2527.2804303806
 10
1272.3173883828
 20
2527.3022125643
 10
1274.9593809342
 20
2527.4837546759
 10
1277.5248410566
 20
2527.8218170922
 10
1279.9679880533
 20
2528.3103670812
 10
1282.2452239084
 20
2528.9406864569
 10
1284.3159112939
 20
2529.7015271551
 10
1286.1430987445
 20
2530.5793119555
 10
1287.6941800568
 20
2531.5583767675
 10
1288.941476148
 20
2532.6212501563
 10
1289.8627289899
 20
2533.7489651213
 10
1290.4414988036
 20
2534.921397562
  0
LWPOLYLINE
  5
C1
330
1F
100
AcDbEntity
  8
0
  6
Continuous
 62
     7
370
    25
100
AcDbPolyline
 90
        3
 70
   128
 43
0.0
 10
1290.5702801027
 20
2445.5809499328
 10
1290.7962387273
 20
2446.7771777646
 10
1290.7994147856
 20
2446.9432261184
  0
LWPOLYLINE
  5
C2
330
1F
100
AcDbEntity
  8
0
  6
Continuous
 62
     7
370
    25
100
AcDbPolyline
 90
       24
 70
   128
 43
0.0
 10
1250.7994563421
 20
2446.8855675018
 10
1250.8234660367
 20
2446.4512433232
 10
1251.1322943814
 20
2445.2593760968
 10
1251.7920833264
 20
2444.0970427543
 10
1252.7910589224
 20
2442.9849851617
 10
1254.1113944261
 20
2441.943048013
 10
1255.7295284194
 20
2440.9898247014
 10
1257.6165852626
 20
2440.1423255194
 10
1259.7388903818
 20
2439.41567411
 10
1262.0585711917
 20
2438.8228375849
 10
1264.5342329335
 20
2438.3743951258
 10
1267.1216973646
 20
2438.0783491991
 10
1269.7747911211
 20
2437.9399827513
 10
1272.4461696818
 20
2437.9617649351
 10
1275.0881622333
 20
2438.1433070467
 10
1277.6536223557
 20
2438.481369463
 10
1280.0967693524
 20
2438.969919452
 10
1282.3740052074
 20
2439.6002388277
 10
1284.444692593
 20
2440.3610795259
 10
1286.2718800435
 20
2441.2388643263
 10
1287.8229613558
 20
2442.2179291383
 10
1289.0702574471
 20
2443.2808025271
 10
1289.991510289
 20
2444.408517492
 10
1290.5702801027
 20
2445.5809499328
  0
LWPOLYLINE
  5
C3
330
1F
100
AcDbEntity
  8
0
  6
Continuous
 62
     7
370
    25
100
AcDbPolyline
 90
       36
 70
   128
 43
0.0
 10
1152.6450594336
 20
1929.6160530607
 10
1150.4234109093
 20
1930.1233875106
 10
1148.3232337216
 20
1930.7007189792
 10
1146.3953621489
 20
1931.3340732985
 10
1144.686459854
 20
1932.0081202813
 10
1143.2378904018
 20
1932.706544784
 10
1142.0847160638
 20
1933.4124416113
 10
1141.2548491446
 20
1934.1087247021
 10
1140.7683763713
 20
1934.7785406933
 10
1140.6370726992
 20
1935.4056768516
 10
1140.8641163018
 20
1935.9749534989
 10
1141.4440116437
 20
1936.472591432
 10
1142.3627224993
 20
1936.8865454459
 10
1143.5980116954
 20
1937.2067958842
 10
1145.1199793574
 20
1937.4255911629
 10
1146.8917866278
 20
1937.5376353954
 10
1148.8705473422
 20
1937.5402165783
 10
1151.0083660784
 20
1937.4332722347
 10
1153.2534974534
 20
1937.2193909264
 10
1155.551598608
 20
1936.9037495986
 10
1157.847044562
 20
1936.4939882729
 10
1160.0842746041
 20
1936.0000251225
 10
1162.2091371248
 20
1935.4338164056
 10
1164.1702003431
 20
1934.8090670664
 10
1165.9199972005
 20
1934.1408990109
 10
1167.4161742891
 20
1933.4454850846
 10
1168.6225170063
 20
1932.7396576124
 10
1169.5098261196
 20
1932.040500977
 10
1170.0566245277
 20
1931.3649380946
 10
1170.2496771078
 20
1930.7293208007
 10
1170.0843110694
 20
1930.1490340574
 10
1169.5645290571
 20
1929.6381235644
 10
1168.7029122681
 20
1929.2089557859
 10
1167.5203159276
 20
1928.8719186237
 10
1166.0453644926
 20
1928.6351699805
 10
1164.313758804
 20
1928.5044402995
  0
LWPOLYLINE
  5
C4
330
1F
100
AcDbEntity
  8
0
  6
Continuous
 62
     7
370
    25
100
AcDbPolyline
 90
       25
 70
   128
 43
0.0
 10
1141.7835569077
 20
1992.5661480201
 10
1141.9416238753
 20
1991.5795159385
 10
1142.4586706485
 20
1990.3480206864
 10
1143.3201271567
 20
1989.17389123
 10
1144.5106206881
 20
1988.078079937
 10
1146.0089068574
 20
1987.0801415861
 10
1147.7882487124
 20
1986.1978844106
 10
1149.8168938556
 20
1985.4470523109
 10
1152.0586410664
 20
1984.8410439034
 10
1154.4734863126
 20
1984.3906734227
 10
1157.0183366237
 20
1984.1039777405
 10
1159.6477790855
 20
1983.9860729483
 10
1162.314891235
 20
1984.0390630596
 10
1164.9720783927
 20
1984.2620024648
 10
1167.5719229909
 20
1984.6509128049
 10
1170.0680307411
 20
1985.1988539657
 10
1172.4158585413
 20
1985.8960479241
 10
1174.5735093489
 20
1986.7300532375
 10
1176.502479834
 20
1987.6859870612
 10
1178.1683474727
 20
1988.7467907337
 10
1179.5413848175
 20
1989.8935341881
 10
1180.5970899845
 20
1991.1057537603
 10
1181.3166238898
 20
1992.3618173635
 10
1181.687146434
 20
1993.6393105128
 10
1181.7338715583
 20
1994.5592258704
  0
LWPOLYLINE
  5
C5
330
1F
100
AcDbEntity
  8
0
  6
Continuous
 62
     7
370
    25
100
AcDbPolyline
 90
       25
 70
   128
 43
0.0
 10
1146.162919735
 20
1904.7838655087
 10
1146.3209867026
 20
1903.7972334271
 10
1146.8380334758
 20
1902.5657381751
 10
1147.699489984
 20
1901.3916087186
 10
1148.8899835154
 20
1900.2957974256
 10
1150.3882696847
 20
1899.2978590747
 10
1152.1676115397
 20
1898.4156018992
 10
1154.1962566829
 20
1897.6647697995
 10
1156.4380038937
 20
1897.058761392
 10
1158.8528491399
 20
1896.6083909113
 10
1161.397699451
 20
1896.3216952292
 10
1164.0271419128
 20
1896.2037904369
 10
1166.6942540623
 20
1896.2567805482
 10
1169.35144122
 20
1896.4797199534
 10
1171.9512858182
 20
1896.8686302935
 10
1174.4473935684
 20
1897.4165714543
 10
1176.7952213686
 20
1898.1137654127
 10
1178.9528721762
 20
1898.9477707261
 10
1180.8818426613
 20
1899.9037045499
 10
1182.5477103
 20
1900.9645082223
 10
1183.9207476448
 20
1902.1112516767
 10
1184.9764528118
 20
1903.323471249
 10
1185.6959867171
 20
1904.5795348521
 10
1186.0665092613
 20
1905.8570280014
 10
1186.1132343856
 20
1906.776943359
  0
LWPOLYLINE
  5
C6
330
1F
100
AcDbEntity
  8
0
  6
Continuous
 62
     7
370
    25
100
AcDbPolyline
 90
       39
 70
   128
 43
0.0
 10
1158.3201295039
 20
1929.2676379562
 10
1156.2223354725
 20
1929.5148562626
 10
1154.1032532271
 20
1929.8575563992
 10
1152.0206858072
 20
1930.2863903998
 10
1150.0314402233
 20
1930.7896607906
 10
1148.1897779092
 20
1931.3536396674
 10
1146.5459346122
 20
1931.9629431565
 10
1145.144750092
 20
1932.6009510472
 10
1144.0244450099
 20
1933.2502601472
 10
1143.215578368
 20
1933.8931589971
 10
1142.7402139398
 20
1934.512110992
 10
1142.6113184276
 20
1935.0902327351
 10
1142.8324077652
 20
1935.6117545722
 10
1143.3974512116
 20
1936.0624507471
 10
1144.2910358546
 20
1936.4300274432
 10
1145.4887870346
 20
1936.7044581262
 10
1146.9580332216
 20
1936.8782570425
 10
1148.6586972097
 20
1936.9466834108
 10
1150.5443893187
 20
1936.9078707382
 10
1152.5636727834
 20
1936.762877733
 10
1154.6614668148
 20
1936.5156594267
 10
1156.7805490602
 20
1936.17295929
 10
1158.8631164801
 20
1935.7441252895
 10
1160.852362064
 20
1935.2408548986
 10
1162.694024378
 20
1934.6768760219
 10
1164.3378676751
 20
1934.0675725327
 10
1165.7390521953
 20
1933.4295646421
 10
1166.8593572774
 20
1932.780255542
 10
1167.6682239193
 20
1932.1373566922
 10
1168.1435883475
 20
1931.5184046973
 10
1168.2724838596
 20
1930.9402829542
 10
1168.0513945221
 20
1930.4187611171
 10
1167.4863510757
 20
1929.9680649421
 10
1166.5927664327
 20
1929.6004882461
 10
1165.3950152527
 20
1929.3260575631
 10
1163.9257690657
 20
1929.1522586468
 10
1162.2251050775
 20
1929.0838322784
 10
1160.3394129686
 20
1929.1226449511
 10
1158.3201295039
 20
1929.2676379562
  0
ARC
  5
C7
330
1F
100
AcDbEntity
  8
0
  6
Continuous
 62
     7
370
    25
100
AcDbCircle
 10
1163.2001415587
 20
1978.6142006962
 30
0.0
 40
50.12213313879555
100
AcDbArc
 50
257.8432312607
 51
271.2731066067
  0
LWPOLYLINE
  5
C8
330
1F
100
AcDbEntity
  8
0
  6
Continuous
 62
     7
370
    25
100
AcDbPolyline
 90
       26
 70
   128
 43
0.0
 10
1129.2585792216
 20
2243.6234760026
 10
1129.276334493
 20
2243.3892263072
 10
1129.5832835902
 20
2242.1339399062
 10
1130.2408954859
 20
2240.9230175728
 10
1131.2374350802
 20
2239.7780682448
 10
1132.5551191006
 20
2238.7195235701
 10
1134.1704334445
 20
2237.7662733034
 10
1136.0545527891
 20
2236.9353282184
 10
1138.17385498
 20
2236.2415165498
 10
1140.4905210195
 20
2235.6972193832
 10
1142.9632099473
 20
2235.3121497145
 10
1145.5477965707
 20
2235.0931791211
 10
1148.1981588804
 20
2235.0442151383
 10
1150.867001098
 20
2235.1661315296
 10
1153.5066976711
 20
2235.4567526941
 10
1156.0701431516
 20
2235.9108924902
 10
1158.5115927944
 20
2236.5204467826
 10
1160.7874788726
 20
2237.2745380604
 10
1162.8571881452
 20
2238.1597095469
 10
1164.6837866014
 20
2239.160165336
 10
1166.2346785483
 20
2240.2580522704
 10
1167.4821882825
 20
2241.4337785318
 10
1168.4040539631
 20
2242.6663632571
 10
1168.9838248753
 20
2243.9338109428
 10
1169.2111549933
 20
2245.2135039548
 10
1169.2088938722
 20
2245.6165538529
  0
LWPOLYLINE
  5
C9
330
1F
100
AcDbEntity
  8
0
  6
Continuous
 62
     7
370
    25
100
AcDbPolyline
 90
       26
 70
   128
 43
0.0
 10
1133.6379420489
 20
2155.8411934913
 10
1133.6556973203
 20
2155.6069437958
 10
1133.9626464175
 20
2154.3516573948
 10
1134.6202583132
 20
2153.1407350614
 10
1135.6167979075
 20
2151.9957857334
 10
1136.9344819279
 20
2150.9372410587
 10
1138.5497962718
 20
2149.9839907921
 10
1140.4339156164
 20
2149.1530457071
 10
1142.5532178073
 20
2148.4592340384
 10
1144.8698838468
 20
2147.9149368719
 10
1147.3425727746
 20
2147.5298672031
 10
1149.927159398
 20
2147.3108966097
 10
1152.5775217077
 20
2147.2619326269
 10
1155.2463639253
 20
2147.3838490182
 10
1157.8860604984
 20
2147.6744701827
 10
1160.4495059789
 20
2148.1286099788
 10
1162.8909556217
 20
2148.7381642712
 10
1165.1668416999
 20
2149.492255549
 10
1167.2365509726
 20
2150.3774270355
 10
1169.0631494287
 20
2151.3778828246
 10
1170.6140413756
 20
2152.475769759
 10
1171.8615511098
 20
2153.6514960204
 10
1172.7834167904
 20
2154.8840807457
 10
1173.3631877026
 20
2156.1515284314
 10
1173.5905178207
 20
2157.4312214434
 10
1173.5882566995
 20
2157.8342713415
  0
SPLINE
  5
CA
330
1F
100
AcDbEntity
  8
0
  6
Continuous
 62
     7
370
    25
100
AcDbSpline
210
0.0
220
0.0
230
1.0
 70
     8
 71
     3
 72
    16
 73
    12
 74
     0
 42
0.00000001
 43
0.00000001
 40
0.0
 40
0.0
 40
0.0
 40
0.0
 40
0.0202402685920854
 40
0.0914846929245626
 40
0.1627260504945827
 40
0.2355452176152435
 40
0.3084398197036214
 40
0.4240206678095678
 40
0.5398616548872036
 40
0.7841847218886885
 40
0.9999999999999999
 40
0.9999999999999999
 40
0.9999999999999999
 40
0.9999999999999999
 10
1130.289617015509
 20
2223.312706885842
 30
0.0
 10
1130.293490626239
 20
2223.125135554689
 30
0.0
 10
1130.310999093904
 20
2222.277325380932
 30
0.0
 10
1130.480771358265
 20
2220.670813343
 30
0.0
 10
1130.702125243117
 20
2218.553501251372
 30
0.0
 10
1130.927389363537
 20
2216.437666620209
 30
0.0
 10
1131.149480326736
 20
2213.977215392254
 30
0.0
 10
1131.307757202319
 20
2211.268676869441
 30
0.0
 10
1131.416827663587
 20
2207.364972167858
 30
0.0
 10
1131.377149931134
 20
2203.034808124082
 30
0.0
 10
1131.469706332509
 20
2200.127639228372
 30
0.0
 10
1131.513117375548
 20
2198.764111345055
 30
0.0
  0
LWPOLYLINE
  5
CB
330
1F
100
AcDbEntity
  8
0
  6
Continuous
 62
     7
370
    25
100
AcDbPolyline
 90
       19
 70
   128
 43
0.0
 10
1116.6629475508
 20
2218.9209623275
 10
1116.647398217
 20
2218.9081041116
 10
1115.4614700761
 20
2217.689066182
 10
1114.5356405331
 20
2216.2197533442
 10
1113.8923190671
 20
2214.5357299584
 10
1113.5470771177
 20
2212.6777574013
 10
1113.5082711825
 20
2210.6908074473
 10
1113.7768405497
 20
2208.6229737371
 10
1114.3462845631
 20
2206.5243076831
 10
1115.2028199686
 20
2204.4456069872
 10
1116.325714535
 20
2202.4371860944
 10
1117.6877888722
 20
2200.5476583445
 10
1119.2560743018
 20
2198.8227592975
 10
1120.9926108561
 20
2197.3042397155
 10
1122.8553660899
 20
2196.0288549961
 10
1124.7992524654
 20
2195.0274755164
 10
1126.7772186852
 20
2194.3243394235
 10
1128.7413885578
 20
2193.9364659554
 10
1130.6442198286
 20
2193.8732434954
  0
LINE
  5
CC
330
1F
100
AcDbEntity
  8
0
  6
Continuous
 62
     7
370
    25
100
AcDbLine
 10
1130.6442198286
 20
2193.8732434954
 30
0.0
 11
1131.4126946055
 21
2193.9439792717
 31
0.0
  0
LWPOLYLINE
  5
CD
330
1F
100
AcDbEntity
  8
0
  6
Continuous
 62
     7
370
    25
100
AcDbPolyline
 90
       36
 70
   128
 43
0.0
 10
1279.0353218353
 20
1585.1325567963
 10
1277.7379732883
 20
1585.0324437122
 10
1276.7227577408
 20
1585.0923069109
 10
1276.0142482384
 20
1585.3106974183
 10
1275.6295940813
 20
1585.6823291453
 10
1275.5781057301
 20
1586.1982068361
 10
1275.8610294478
 20
1586.8458437967
 10
1276.4715171344
 20
1587.6095641317
 10
1277.3947920839
 20
1588.4708821762
 10
1278.6085066506
 20
1589.4089499361
 10
1280.0832831682
 20
1590.4010617093
 10
1281.7834250297
 20
1591.4232036714
 10
1283.6677807143
 20
1592.4506351246
 10
1285.6907398508
 20
1593.4584873403
 10
1287.8033372047
 20
1594.4223655005
 10
1289.9544378706
 20
1595.3189391686
 10
1292.0919749795
 20
1596.1265069969
 10
1294.1642099653
 20
1596.8255220023
 10
1296.1209848837
 20
1597.3990646964
 10
1297.9149364734
 20
1597.8332526179
 10
1299.5026425719
 20
1598.1175763534
 10
1300.8456731392
 20
1598.2451539162
 10
1301.9115204467
 20
1598.2128973223
 10
1302.6743859193
 20
1598.0215873347
 10
1303.1158045836
 20
1597.6758545652
 10
1303.2250920082
 20
1597.1840673914
 10
1302.9996029175
 20
1596.5581294024
 10
1302.4447952202
 20
1595.8131912751
 10
1301.5740979017
 20
1594.9672840558
 10
1300.408585979
 20
1594.0408827232
 10
1298.976470385
 20
1593.0564105964
 10
1297.3124151296
 20
1592.037696584
 10
1295.4566982659
 20
1591.0093984111
 10
1293.4542369696
 20
1589.9964057851
 10
1291.3535003296
 20
1589.0232379464
 10
1289.205336166
 20
1588.1134501858
  0
LWPOLYLINE
  5
CE
330
1F
100
AcDbEntity
  8
0
  6
Continuous
 62
     7
370
    25
100
AcDbPolyline
 90
       21
 70
   128
 43
0.0
 10
1255.1783121148
 20
1645.0822576027
 10
1256.780532987
 20
1644.123616633
 10
1258.6534206074
 20
1643.2697971061
 10
1260.763553252
 20
1642.536035452
 10
1263.0732755537
 20
1641.9354256646
 10
1265.5413704635
 20
1641.4786856398
 10
1268.1237947691
 20
1641.1739659142
 10
1270.7744650477
 20
1641.0267042185
 10
1273.4460800252
 20
1641.0395284412
 10
1276.0909646693
 20
1641.2122097337
 10
1278.6619209506
 20
1641.5416665943
 10
1281.1130700935
 20
1642.0220198574
 10
1283.4006712835
 20
1642.6446976077
 10
1285.4839022231
 20
1643.3985881461
 10
1287.3255876069
 20
1644.2702382779
 10
1288.8928625155
 20
1645.244093386
 10
1290.1577588911
 20
1646.3027750028
 10
1291.0977046278
 20
1647.4273909299
 10
1291.6959263719
 20
1648.5978723693
 10
1291.9417488419
 20
1649.7933320521
 10
1291.9481439734
 20
1650.0264332658
  0
ARC
  5
CF
330
1F
100
AcDbEntity
  8
0
  6
Continuous
 62
     7
370
    25
100
AcDbCircle
 10
1258.1815834812
 20
1650.5783665341
 30
0.0
 40
6.263134381894701
100
AcDbArc
 50
185.5854499396
 51
241.346222571
  0
LWPOLYLINE
  5
D0
330
1F
100
AcDbEntity
  8
0
  6
Continuous
 62
     7
370
    25
100
AcDbPolyline
 90
       21
 70
   128
 43
0.0
 10
1255.3070934138
 20
1555.7418099735
 10
1256.9093142861
 20
1554.7831690037
 10
1258.7822019064
 20
1553.9293494769
 10
1260.892334551
 20
1553.1955878228
 10
1263.2020568528
 20
1552.5949780353
 10
1265.6701517626
 20
1552.1382380106
 10
1268.2525760682
 20
1551.833518285
 10
1270.9032463467
 20
1551.6862565893
 10
1273.5748613243
 20
1551.699080812
 10
1276.2197459683
 20
1551.8717621045
 10
1278.7907022497
 20
1552.2012189651
 10
1281.2418513926
 20
1552.6815722282
 10
1283.5294525826
 20
1553.3042499785
 10
1285.6126835222
 20
1554.0581405169
 10
1287.454368906
 20
1554.9297906487
 10
1289.0216438146
 20
1555.9036457568
 10
1290.2865401901
 20
1556.9623273736
 10
1291.2264859269
 20
1558.0869433007
 10
1291.8247076709
 20
1559.2574247401
 10
1292.070530141
 20
1560.4528844229
 10
1292.0769252724
 20
1560.6859856366
  0
ARC
  5
D1
330
1F
100
AcDbEntity
  8
0
  6
Continuous
 62
     7
370
    25
100
AcDbCircle
 10
1258.3103647802
 20
1561.2379189049
 30
0.0
 40
6.263134381896666
100
AcDbArc
 50
185.5854499396
 51
241.346222571
  0
LWPOLYLINE
  5
D2
330
1F
100
AcDbEntity
  8
0
  6
Continuous
 62
     7
370
    25
100
AcDbPolyline
 90
       39
 70
   128
 43
0.0
 10
1284.3968713229
 20
1586.8861736902
 10
1282.6708790403
 20
1586.4251577218
 10
1281.1282778937
 20
1586.1064363755
 10
1279.8111460211
 20
1585.9387035388
 10
1278.7554113465
 20
1585.9265345263
 10
1277.9898715596
 20
1586.0702612768
 10
1277.5354085903
 20
1586.3659632994
 10
1277.4044190038
 20
1586.8055746136
 10
1277.6004758543
 20
1587.3771037688
 10
1278.1182312222
 20
1588.0649609395
 10
1278.9435620906
 20
1588.8503831753
 10
1280.053955585
 20
1589.7119462048
 10
1281.4191230655
 20
1590.6261488347
 10
1283.0018263218
 20
1591.5680540004
 10
1284.758893335
 20
1592.5119689842
 10
1286.6423958972
 20
1593.432146246
 10
1288.6009569686
 20
1594.3034857489
 10
1290.5811521085
 20
1595.1022196226
 10
1292.5289667557
 20
1595.8065604892
 10
1294.3912696041
 20
1596.3972957659
 10
1296.1172618867
 20
1596.8583117344
 10
1297.6598630333
 20
1597.1770330807
 10
1298.9769949059
 20
1597.3447659174
 10
1300.0327295805
 20
1597.3569349299
 10
1300.7982693674
 20
1597.2132081793
 10
1301.2527323367
 20
1596.9175061568
 10
1301.3837219232
 20
1596.4778948426
 10
1301.1876650727
 20
1595.9063656874
 10
1300.6699097048
 20
1595.2185085166
 10
1299.8445788364
 20
1594.4330862809
 10
1298.734185342
 20
1593.5715232513
 10
1297.3690178615
 20
1592.6573206214
 10
1295.7863146052
 20
1591.7154154558
 10
1294.029247592
 20
1590.771500472
 10
1292.1457450298
 20
1589.8513232101
 10
1290.1871839584
 20
1588.9799837073
 10
1288.2069888185
 20
1588.1812498335
 10
1286.2591741713
 20
1587.476908967
 10
1284.3968713229
 20
1586.8861736902
  0
ARC
  5
D3
330
1F
100
AcDbEntity
  8
0
  6
Continuous
 62
     7
370
    25
100
AcDbCircle
 10
1271.6952850678
 20
1629.013944174
 30
0.0
 40
44.49103615265133
100
AcDbArc
 50
279.4959494025
 51
293.1764177804
  0
LWPOLYLINE
  5
D4
330
1F
100
AcDbEntity
  8
0
  6
Continuous
 62
     7
370
    25
100
AcDbPolyline
 90
       36
 70
   128
 43
0.0
 10
1260.3423163505
 20
1409.2264939785
 10
1258.1506773198
 20
1409.839260613
 10
1256.0882499047
 20
1410.5274967117
 10
1254.2049546594
 20
1411.2745436872
 10
1252.5463762878
 20
1412.062319449
 10
1251.1526602762
 20
1412.8717560761
 10
1250.0575411821
 20
1413.6832613518
 10
1249.287526097
 20
1414.4771929881
 10
1248.8612530488
 20
1415.2343340626
 10
1248.7890398731
 20
1415.9363581596
 10
1249.0726344723
 20
1416.5662729565
 10
1249.705172508
 20
1417.1088315186
 10
1250.6713435508
 20
1417.550901348
 10
1251.9477616654
 20
1417.8817822516
 10
1253.5035314615
 20
1418.0934653378
 10
1255.3009959094
 20
1418.1808268688
 10
1257.2966478187
 20
1418.14175228
 10
1259.4421829201
 20
1417.9771873624
 10
1261.6856690579
 20
1417.6911153697
 10
1263.9728031952
 20
1417.290460605
 10
1266.2482258062
 20
1416.7849208196
 10
1268.4568608394
 20
1416.1867324811
 10
1270.5452488207
 20
1415.5103745929
 10
1272.4628408264
 20
1414.7722182332
 10
1274.1632220081
 20
1413.9901302974
 10
1275.6052350525
 20
1413.1830410339
 10
1276.7539763843
 20
1412.3704858422
 10
1277.5816409988
 20
1411.5721324233
 10
1278.068195475
 20
1410.8073047275
 10
1278.2018628801
 20
1410.0945152235
 10
1277.9794078271
 20
1409.451016808
 10
1277.4062147864
 20
1408.8923852036
 10
1276.4961577563
 20
1408.4321419527
 10
1275.2712644462
 20
1408.0814271313
 10
1273.7611831007
 20
1407.8487297065
 10
1272.0024648721
 20
1407.7396820627
  0
LWPOLYLINE
  5
D5
330
1F
100
AcDbEntity
  8
0
  6
Continuous
 62
     7
370
    25
100
AcDbPolyline
 90
       25
 70
   128
 43
0.0
 10
1252.203172502
 20
1473.0746883434
 10
1252.3521330529
 20
1471.9860882276
 10
1252.8540038969
 20
1470.8077641598
 10
1253.7011607423
 20
1469.6704078674
 10
1254.878486055
 20
1468.5943155005
 10
1256.364970437
 20
1467.5986899528
 10
1258.1340875393
 20
1466.7012981858
 10
1260.1542674253
 20
1465.9181541768
 10
1262.389459937
 20
1465.2632331492
 10
1264.7997780112
 20
1464.7482221844
 10
1267.3422094646
 20
1464.3823116651
 10
1269.9713845478
 20
1464.1720312732
 10
1272.6403855692
 20
1464.1211334673
 10
1275.3015841422
 20
1464.2305265201
 10
1277.9074911153
 20
1464.4982583097
 10
1280.4116040168
 20
1464.9195511562
 10
1282.7692368927
 20
1465.4868870787
 10
1284.9383177284
 20
1466.1901419542
 10
1286.8801392251
 20
1467.0167661827
 10
1288.5600495321
 20
1467.9520086355
 10
1289.9480706102
 20
1468.9791798887
 10
1291.0194331904
 20
1470.079950047
 10
1291.7550187821
 20
1471.2346758408
 10
1292.1417008429
 20
1472.422751161
 10
1292.2031309455
 20
1473.1323469599
  0
LWPOLYLINE
  5
D6
330
1F
100
AcDbEntity
  8
0
  6
Continuous
 62
     7
370
    25
100
AcDbPolyline
 90
       25
 70
   128
 43
0.0
 10
1252.3319538011
 20
1383.7342407142
 10
1252.480914352
 20
1382.6456405984
 10
1252.982785196
 20
1381.4673165306
 10
1253.8299420414
 20
1380.3299602382
 10
1255.0072673541
 20
1379.2538678713
 10
1256.4937517361
 20
1378.2582423236
 10
1258.2628688384
 20
1377.3608505566
 10
1260.2830487244
 20
1376.5777065476
 10
1262.5182412361
 20
1375.92278552
 10
1264.9285593103
 20
1375.4077745552
 10
1267.4709907637
 20
1375.0418640358
 10
1270.1001658469
 20
1374.831583644
 10
1272.7691668682
 20
1374.7806858381
 10
1275.4303654413
 20
1374.8900788908
 10
1278.0362724144
 20
1375.1578106805
 10
1280.5403853159
 20
1375.579103527
 10
1282.8980181918
 20
1376.1464394494
 10
1285.0670990275
 20
1376.8496943249
 10
1287.0089205242
 20
1377.6763185535
 10
1288.6888308312
 20
1378.6115610063
 10
1290.0768519093
 20
1379.6387322595
 10
1291.1482144895
 20
1380.7395024177
 10
1291.8838000812
 20
1381.8942282115
 10
1292.270482142
 20
1383.0823035317
 10
1292.3319122446
 20
1383.7918993307
  0
LWPOLYLINE
  5
D7
330
1F
100
AcDbEntity
  8
0
  6
Continuous
 62
     7
370
    25
100
AcDbPolyline
 90
       39
 70
   128
 43
0.0
 10
1266.0316774866
 20
1408.7177007767
 10
1263.9399677644
 20
1409.0378188817
 10
1261.8359554787
 20
1409.4648480491
 10
1259.7770326
 20
1409.9871400363
 10
1257.8193611773
 20
1410.5904480794
 10
1256.0163413835
 20
1411.2583155077
 10
1254.4171548987
 20
1411.9725246388
 10
1253.0654233613
 20
1412.7135937095
 10
1251.998018484
 20
1413.4613082871
 10
1251.2440562893
 20
1414.1952726673
 10
1250.8241029005
 20
1414.8954662151
 10
1250.7496135512
 20
1415.5427894756
 10
1251.0226201167
 20
1416.1195851579
 10
1251.6356756897
 20
1416.6101197793
 10
1252.5720577121
 20
1417.001012834
 10
1253.8062241234
 20
1417.2816017786
 10
1255.3045100812
 20
1417.444232878
 10
1257.0260462501
 20
1417.4844699798
 10
1258.9238736113
 20
1417.4012155208
 10
1260.9462243816
 20
1417.1967404655
 10
1263.0379341038
 20
1416.8766223605
 10
1265.1419463895
 20
1416.4495931931
 10
1267.2008692681
 20
1415.9273012059
 10
1269.1585406909
 20
1415.3239931628
 10
1270.9615604846
 20
1414.6561257344
 10
1272.5607469695
 20
1413.9419166033
 10
1273.9124785068
 20
1413.2008475327
 10
1274.9798833842
 20
1412.453132955
 10
1275.7338455788
 20
1411.7191685748
 10
1276.1537989677
 20
1411.0189750271
 10
1276.228288317
 20
1410.3716517665
 10
1275.9552817514
 20
1409.7948560843
 10
1275.3422261785
 20
1409.3043214629
 10
1274.4058441561
 20
1408.9134284081
 10
1273.1716777447
 20
1408.6328394636
 10
1271.673391787
 20
1408.4702083642
 10
1269.9518556181
 20
1408.4299712623
 10
1268.0540282569
 20
1408.5132257214
 10
1266.0316774866
 20
1408.7177007767
  0
ARC
  5
D8
330
1F
100
AcDbEntity
  8
0
  6
Continuous
 62
     7
370
    25
100
AcDbCircle
 10
1271.8070114128
 20
1452.6719425152
 30
0.0
 40
44.93268555766759
100
AcDbArc
 50
255.2173677587
 51
270.2492326797
  0
LWPOLYLINE
  5
D9
330
1F
100
AcDbEntity
  8
0
  6
Continuous
 62
     7
370
    25
100
AcDbPolyline
 90
        3
 70
   128
 43
0.0
 10
1260.8973223564
 20
1416.6155004147
 10
1259.1757729304
 20
1417.151882791
 10
1258.3634247471
 20
1417.4377137469
  0
LWPOLYLINE
  5
DA
330
1F
100
AcDbEntity
  8
0
  6
Continuous
 62
     7
370
    25
100
AcDbPolyline
 90
        8
 70
   128
 43
0.0
 10
1115.7082709711
 20
3177.2924330709
 10
1117.5727469805
 20
3178.2770215129
 10
1119.1660108814
 20
3179.3617815014
 10
1120.4596308417
 20
3180.5273554689
 10
1121.4305221826
 20
3181.7529437202
 10
1122.0613593251
 20
3183.016675604
 10
1122.3408849655
 20
3184.2959997949
 10
1122.3497116201
 20
3184.8869767246
  0
LWPOLYLINE
  5
DB
330
1F
100
AcDbEntity
  8
0
  6
Continuous
 62
     7
370
    25
100
AcDbPolyline
 90
       19
 70
   128
 43
0.0
 10
1082.3993969694
 20
3182.8938988744
 10
1082.4020095091
 20
3182.846501103
 10
1082.6568173343
 20
3181.5865694375
 10
1083.2634886428
 20
3180.3677503576
 10
1084.2111973705
 20
3179.2117937185
 10
1085.4830316329
 20
3178.1393275939
 10
1087.0562955173
 20
3177.1694901672
 10
1088.9029140925
 20
3176.3195882101
 10
1090.9899344063
 20
3175.6047882434
 10
1093.2801135316
 20
3175.0378458893
 10
1095.7325831679
 20
3174.6288782475
 10
1098.3035789363
 20
3174.3851833554
 10
1100.9472213563
 20
3174.311109954
 10
1103.6163345665
 20
3174.4079798849
 10
1106.2632881783
 20
3174.6740645019
 10
1108.8408472418
 20
3175.1046155188
 10
1111.3030151545
 20
3175.6919497425
 10
1113.6058544717
 20
3176.4255861797
 10
1115.7082709711
 20
3177.2924330709
  0
LWPOLYLINE
  5
DC
330
1F
100
AcDbEntity
  8
0
  6
Continuous
 62
     7
370
    25
100
AcDbPolyline
 90
        8
 70
   128
 43
0.0
 10
1120.0876337984
 20
3089.5101505596
 10
1121.9521098078
 20
3090.4947390015
 10
1123.5453737087
 20
3091.57949899
 10
1124.838993669
 20
3092.7450729575
 10
1125.8098850099
 20
3093.9706612089
 10
1126.4407221524
 20
3095.2343930927
 10
1126.7202477928
 20
3096.5137172836
 10
1126.7290744474
 20
3097.1046942133
  0
LWPOLYLINE
  5
DD
330
1F
100
AcDbEntity
  8
0
  6
Continuous
 62
     7
370
    25
100
AcDbPolyline
 90
       19
 70
   128
 43
0.0
 10
1086.7787597967
 20
3095.111616363
 10
1086.7813723364
 20
3095.0642185916
 10
1087.0361801616
 20
3093.8042869261
 10
1087.6428514701
 20
3092.5854678462
 10
1088.5905601978
 20
3091.4295112071
 10
1089.8623944602
 20
3090.3570450825
 10
1091.4356583446
 20
3089.3872076558
 10
1093.2822769198
 20
3088.5373056988
 10
1095.3692972336
 20
3087.822505732
 10
1097.659476359
 20
3087.2555633779
 10
1100.1119459952
 20
3086.8465957361
 10
1102.6829417636
 20
3086.602900844
 10
1105.3265841836
 20
3086.5288274426
 10
1107.9956973938
 20
3086.6256973735
 10
1110.6426510056
 20
3086.8917819906
 10
1113.2202100691
 20
3087.3223330075
 10
1115.6823779818
 20
3087.9096672311
 10
1117.985217299
 20
3088.6433036683
 10
1120.0876337984
 20
3089.5101505596
  0
SPLINE
  5
DE
330
1F
100
AcDbEntity
  8
0
  6
Continuous
 62
     7
370
    25
100
AcDbSpline
210
0.0
220
0.0
230
1.0
 70
     8
 71
     3
 72
    16
 73
    12
 74
     0
 42
0.00000001
 43
0.00000001
 40
0.0
 40
0.0
 40
0.0
 40
0.0
 40
0.1480475025284666
 40
0.3500366568249255
 40
0.4633909845244188
 40
0.5766531697916916
 40
0.6916071168303272
 40
0.8062317428846786
 40
0.8847327822496468
 40
0.9632058360628405
 40
1.0
 40
1.0
 40
1.0
 40
1.0
 10
1124.511316378701
 20
3141.277449794389
 30
0.0
 10
1124.463960642186
 20
3142.14425755912
 30
0.0
 10
1124.351994932478
 20
3144.19369768404
 30
0.0
 10
1124.050943828674
 20
3147.281156925191
 30
0.0
 10
1123.799568983187
 20
3150.315947863311
 30
0.0
 10
1123.623323242799
 20
3152.908125275755
 30
0.0
 10
1123.511008259066
 20
3155.698884469628
 30
0.0
 10
1123.474233399162
 20
3158.395537736041
 30
0.0
 10
1123.458486672042
 20
3160.843971319192
 30
0.0
 10
1123.471520731702
 20
3162.629530408211
 30
0.0
 10
1123.383517128583
 20
3163.617053031216
 30
0.0
 10
1123.355425715747
 20
3163.932277689115
 30
0.0
  0
LWPOLYLINE
  5
DF
330
1F
100
AcDbEntity
  8
0
  6
Continuous
 62
     7
370
    25
100
AcDbPolyline
 90
       18
 70
   128
 43
0.0
 10
1125.627304246
 20
3135.5273325337
 10
1127.5450488184
 20
3135.8082051858
 10
1129.4829420456
 20
3136.4183710039
 10
1131.3940776929
 20
3137.3430610728
 10
1133.2321971865
 20
3138.5598934939
 10
1134.9528092906
 20
3140.0394151344
 10
1136.5142670076
 20
3141.7458145323
 10
1137.8787756327
 20
3143.637788705
 10
1139.0133075663
 20
3145.6695428774
 10
1139.8904017387
 20
3147.7918989336
 10
1140.4888282985
 20
3149.9534857609
 10
1140.7941024764
 20
3152.1019826755
 10
1140.7988351851
 20
3154.1853858317
 10
1140.5029118704
 20
3156.1532669625
 10
1139.9134952843
 20
3157.9579939832
 10
1139.0448521121
 20
3159.555883915
 10
1137.9180076505
 20
3160.9082602203
 10
1136.7561384192
 20
3161.8544704731
  0
LINE
  5
E0
330
1F
100
AcDbEntity
  8
0
  6
Continuous
 62
     7
370
    25
100
AcDbLine
 10
1124.8386397258
 20
3135.5094863136
 30
0.0
 11
1125.627304246
 21
3135.5273325337
 31
0.0
  0
LWPOLYLINE
  5
E1
330
1F
100
AcDbEntity
  8
0
  6
Continuous
 62
     7
370
    25
100
AcDbPolyline
 90
       36
 70
   128
 43
0.0
 10
1318.1475683888
 20
1198.485083622
 10
1316.1649728018
 20
1199.6877321693
 10
1314.1921951619
 20
1200.9305583763
 10
1312.2769860726
 20
1202.1834799367
 10
1310.4657027044
 20
1203.4161701887
 10
1308.802186731
 20
1204.5987921642
 10
1307.3267031524
 20
1205.7027207858
 10
1306.0749656899
 20
1206.7012357294
 10
1305.0772723448
 20
1207.5701681835
 10
1304.3577720418
 20
1208.2884858492
 10
1303.933880111
 20
1208.8388020219
 10
1303.8158567537
 20
1209.2077964325
 10
1304.0065586963
 20
1209.3865376609
 10
1304.5013700449
 20
1209.3706993191
 10
1305.2883140109
 20
1209.1606647703
 10
1306.3483428068
 20
1208.7615178498
 10
1307.6557986934
 20
1208.1829198117
 10
1309.1790350185
 20
1207.438875481
 10
1310.8811822172
 20
1206.5473942698
 10
1312.7210402301
 20
1205.5300542642
 10
1314.6540757411
 20
1204.4114799319
 10
1316.6335000954
 20
1203.2187460927
 10
1318.6114018077
 20
1201.9807225793
 10
1320.5399062476
 20
1200.72737545
 10
1322.3723344338
 20
1199.4890416675
 10
1324.0643328874
 20
1198.2956948
 10
1325.5749471969
 20
1197.1762195186
 10
1326.8676133103
 20
1196.1577124502
 10
1327.9110425582
 20
1195.264826311
 10
1328.6799789894
 20
1194.519173193
 10
1329.1558106844
 20
1193.9388014487
 10
1329.3270202526
 20
1193.5377588352
 10
1329.1894636081
 20
1193.3257524914
 10
1328.7464702759
 20
1193.3079139793
 10
1328.0087628022
 20
1193.4846750759
 10
1326.9941972169
 20
1193.8517573217
  0
LWPOLYLINE
  5
E2
330
1F
100
AcDbEntity
  8
0
  6
Continuous
 62
     7
370
    25
100
AcDbPolyline
 90
       25
 70
   128
 43
0.0
 10
1321.603901264
 20
1258.1116619255
 10
1321.6165091138
 20
1257.2367547577
 10
1321.9295701292
 20
1255.888946663
 10
1322.5927824407
 20
1254.5549497893
 10
1323.5943110088
 20
1253.2585693426
 10
1324.9162835325
 20
1252.0229392625
 10
1326.5351093808
 20
1250.8701093971
 10
1328.421900568
 20
1249.8206520227
 10
1330.5429872608
 20
1248.893294731
 10
1332.8605186169
 20
1248.1045862348
 10
1335.3331382343
 20
1247.4686010559
 10
1337.9167221573
 20
1246.9966883649
 10
1340.5651662697
 20
1246.697269455
 10
1343.2312090235
 20
1246.5756874636
 10
1345.8672748226
 20
1246.6341120244
 10
1348.4263230104
 20
1246.8715005496
 10
1350.8626873114
 20
1247.2836168354
 10
1353.1328907468
 20
1247.8631066569
 10
1355.1964214826
 20
1248.5996290045
 10
1357.0164557639
 20
1249.4800406195
 10
1358.5605150359
 20
1250.4886305357
 10
1359.8010455243
 20
1251.6074004422
 10
1360.7159099331
 20
1252.8163858636
 10
1361.2887824852
 20
1254.0940124262
 10
1361.4988177204
 20
1255.214138683
  0
LWPOLYLINE
  5
E3
330
1F
100
AcDbEntity
  8
0
  6
Continuous
 62
     7
370
    25
100
AcDbPolyline
 90
       25
 70
   128
 43
0.0
 10
1315.3330374373
 20
1171.7704775597
 10
1315.345645287
 20
1170.8955703919
 10
1315.6587063025
 20
1169.5477622972
 10
1316.3219186139
 20
1168.2137654236
 10
1317.323447182
 20
1166.9173849769
 10
1318.6454197057
 20
1165.6817548968
 10
1320.264245554
 20
1164.5289250314
 10
1322.1510367413
 20
1163.479467657
 10
1324.2721234341
 20
1162.5521103653
 10
1326.5896547901
 20
1161.763401869
 10
1329.0622744075
 20
1161.1274166902
 10
1331.6458583305
 20
1160.6555039992
 10
1334.2943024429
 20
1160.3560850893
 10
1336.9603451967
 20
1160.2345030979
 10
1339.5964109959
 20
1160.2929276587
 10
1342.1554591837
 20
1160.5303161839
 10
1344.5918234846
 20
1160.9424324697
 10
1346.86202692
 20
1161.5219222912
 10
1348.9255576558
 20
1162.2584446388
 10
1350.7455919372
 20
1163.1388562538
 10
1352.2896512092
 20
1164.14744617
 10
1353.5301816975
 20
1165.2662160765
 10
1354.4450461063
 20
1166.4752014978
 10
1355.0179186585
 20
1167.7528280605
 10
1355.2279538936
 20
1168.8729543173
  0
LWPOLYLINE
  5
E4
330
1F
100
AcDbEntity
  8
0
  6
Continuous
 62
     7
370
    25
100
AcDbPolyline
 90
       39
 70
   128
 43
0.0
 10
1322.2562420517
 20
1196.4400062783
 10
1320.6180152862
 20
1197.324330306
 10
1318.8693854016
 20
1198.3183997274
 10
1317.0580504627
 20
1199.3950989202
 10
1315.2334189649
 20
1200.5250583371
 10
1313.445262099
 20
1201.6774556308
 10
1311.7423561229
 20
1202.8208564072
 10
1310.1711518726
 20
1203.9240716737
 10
1308.7745077041
 20
1204.9570085938
 10
1307.5905204296
 20
1205.8914913409
 10
1306.6514861354
 20
1206.7020296617
 10
1305.9830192294
 20
1207.3665141837
 10
1305.603353746
 20
1207.8668195013
 10
1305.52284597
 20
1208.1892985897
 10
1305.7436919436
 20
1208.32515506
 10
1306.2598675644
 20
1208.2706831018
 10
1307.057292907
 20
1208.0273685682
 10
1308.1142162868
 20
1207.6018484453
 10
1309.4018075892
 20
1207.0057298129
 10
1310.88494468
 20
1206.2552732332
 10
1312.5231714455
 20
1205.3709492056
 10
1314.2718013301
 20
1204.3768797841
 10
1316.083136269
 20
1203.3001805913
 10
1317.9077677668
 20
1202.1702211744
 10
1319.6959246327
 20
1201.0178238807
 10
1321.3988306088
 20
1199.8744231043
 10
1322.9700348591
 20
1198.7712078378
 10
1324.3666790276
 20
1197.7382709177
 10
1325.5506663021
 20
1196.8037881707
 10
1326.4897005963
 20
1195.9932498499
 10
1327.1581675023
 20
1195.3287653279
 10
1327.5378329857
 20
1194.8284600103
 10
1327.6183407617
 20
1194.5059809218
 10
1327.3974947881
 20
1194.3701244515
 10
1326.8813191673
 20
1194.4245964097
 10
1326.0838938247
 20
1194.6679109434
 10
1325.0269704449
 20
1195.0934310662
 10
1323.7393791425
 20
1195.6895496987
 10
1322.2562420517
 20
1196.4400062783
  0
ARC
  5
E5
330
1F
100
AcDbEntity
  8
0
  6
Continuous
 62
     7
370
    25
100
AcDbCircle
 10
1356.0311417721
 20
1260.0556739057
 30
0.0
 40
72.29178874643179
100
AcDbArc
 50
238.3965616398
 51
246.3178113605
  0
LWPOLYLINE
  5
E6
330
1F
100
AcDbEntity
  8
0
  6
Continuous
 62
     7
370
    25
100
AcDbPolyline
 90
       48
 70
   128
 43
0.0
 10
1098.3508158978
 20
3322.5021752627
 10
1100.9729524425
 20
3322.3648366832
 10
1103.5052203502
 20
3322.0591402342
 10
1105.9024312403
 20
3321.5905410763
 10
1108.1218068277
 20
3320.9674013723
 10
1110.1237423023
 20
3320.2008410652
 10
1111.8725130783
 20
3319.3045394418
 10
1113.3369122996
 20
3318.2944910257
 10
1114.4908077276
 20
3317.1887201549
 10
1115.3136080709
 20
3316.0069593367
 10
1115.7906304379
 20
3314.7702971211
 10
1115.9133623532
 20
3313.5008017744
 10
1115.6796136629
 20
3312.2211274713
 10
1115.0935556179
 20
3310.9541100299
 10
1114.1656464378
 20
3309.7223594066
 10
1112.912444684
 20
3308.5478562204
 10
1111.3563137714
 20
3307.4515595085
 10
1109.5250228931
 20
3306.4530327117
 10
1107.4512514782
 20
3305.5700945643
 10
1105.1720060267
 20
3304.8185011184
 10
1102.7279597276
 20
3304.2116645771
 10
1100.1627266451
 20
3303.7604139525
 10
1097.5220834243
 20
3303.472801823
 10
1094.853152406
 20
3303.3539606337
 10
1092.2035607276
 20
3303.4060111085
 10
1089.6205904152
 20
3303.6280244054
 10
1087.1503346352
 20
3304.0160386918
 10
1084.8368751607
 20
3304.5631298437
 10
1082.7214957307
 20
3305.2595350065
 10
1080.8419453412
 20
3306.0928268135
 10
1079.2317646136
 20
3307.0481351528
 10
1077.9196872609
 20
3308.1084125243
 10
1076.9291273348
 20
3309.2547382532
 10
1076.2777614004
 20
3310.4666561299
 10
1075.9772130984
 20
3311.7225394509
 10
1076.0328457203
 20
3312.9999769488
 10
1076.4436665006
 20
3314.2761727211
 10
1077.2023443329
 20
3315.528353024
 10
1078.2953405931
 20
3316.7341726704
 10
1079.7031507372
 20
3317.8721137801
 10
1081.4006523598
 20
3318.921869767
 10
1083.3575535042
 20
3319.8647077107
 10
1085.5389332232
 20
3320.6838026457
 10
1087.9058647438
 20
3321.3645378035
 10
1090.4161101172
 20
3321.8947654492
 10
1093.0248739552
 20
3322.2650236577
 10
1095.6856028052
 20
3322.4687051627
 10
1098.3508158978
 20
3322.5021752627
  0
LWPOLYLINE
  5
E7
330
1F
100
AcDbEntity
  8
0
  6
Continuous
 62
     7
370
    25
100
AcDbPolyline
 90
       48
 70
   128
 43
0.0
 10
1272.8465935873
 20
2722.0701449439
 10
1275.4708760728
 20
2721.8480270835
 10
1278.0049482379
 20
2721.4706736429
 10
1280.4035895047
 20
2720.9448185032
 10
1282.623996063
 20
2720.2798455617
 10
1284.6265447052
 20
2719.4876212763
 10
1286.3754999033
 20
2718.5822829083
 10
1287.8396515104
 20
2717.5799862422
 10
1288.9928717063
 20
2716.4986172858
 10
1289.8145812494
 20
2715.3574730937
 10
1290.2901167133
 20
2714.1769174111
 10
1290.4109921565
 20
2712.9780172821
 10
1290.1750505538
 20
2711.7821671079
 10
1289.5865022887
 20
2710.6107068631
 10
1288.6558500189
 20
2709.4845412837
 10
1287.3997012562
 20
2708.423766821
 10
1285.8404720052
 20
2707.4473130205
 10
1284.0059867485
 20
2706.5726047234
 10
1281.9289819193
 20
2705.8152511199
 10
1279.6465217178
 20
2705.188767203
 10
1277.1993367003
 20
2704.7043325932
 10
1274.6310969416
 20
2704.3705920374
 10
1271.987632741
 20
2704.1935011438
 10
1269.3161167796
 20
2704.1762201037
 10
1266.6642223233
 20
2704.3190572974
 10
1264.0792724912
 20
2704.6194637921
 10
1261.6073957745
 20
2705.0720788266
 10
1259.2927028718
 20
2705.6688254749
 10
1257.1764995326
 20
2706.399054779
 10
1255.2965494557
 20
2707.2497357796
 10
1253.6864003949
 20
2708.2056880541
 10
1252.3747854981
 20
2709.2498526115
 10
1251.3851105644
 20
2710.3635963107
 10
1250.7350363663
 20
2711.5270443687
 10
1250.4361634933
 20
2712.7194350276
 10
1250.493825339
 20
2713.9194900478
 10
1250.9069929263
 20
2715.1057944189
 10
1251.6682932698
 20
2716.2571785114
 10
1252.7641409469
 20
2717.3530958489
 10
1254.1749805298
 20
2718.3739897605
 10
1255.8756355527
 20
2719.3016423702
 10
1257.8357577865
 20
2720.1194996952
 10
1260.0203688035
 20
2720.8129670522
 10
1262.3904841682
 20
2721.3696694997
 10
1264.9038091159
 20
2721.7796726693
 10
1267.5154933034
 20
2722.0356600449
 10
1270.1789311644
 20
2722.1330635255
 10
1272.8465935873
 20
2722.0701449439
  0
LWPOLYLINE
  5
E8
330
1F
100
AcDbEntity
  8
0
  6
Continuous
 62
     7
370
    25
100
AcDbPolyline
 90
       48
 70
   128
 43
0.0
 10
1376.7763868431
 20
1717.7795003993
 10
1379.3949518399
 20
1717.3843490171
 10
1381.9231028933
 20
1716.8209630056
 10
1384.3157250878
 20
1716.0993960017
 10
1386.5301220237
 20
1715.2325243855
 10
1388.5267777353
 20
1714.2358175016
 10
1390.270061854
 20
1713.127061608
 10
1391.7288654335
 20
1711.9260424798
 10
1392.8771560893
 20
1710.6541923319
 10
1393.6944425474
 20
1709.3342073602
 10
1394.1661403117
 20
1707.9896427279
 10
1394.2838319244
 20
1706.6444922226
 10
1394.0454171759
 20
1705.3227600871
 10
1393.4551505829
 20
1704.0480326625
 10
1392.5235654669
 20
1702.84305749
 10
1391.2672859863
 20
1701.72933738
 10
1389.7087304781
 20
1700.7267466944
 10
1387.8757114024
 20
1699.8531766876
 10
1385.800939028
 20
1699.1242162371
 10
1383.5214377171
 20
1698.5528736594
 10
1381.0778852245
 20
1698.1493445764
 10
1378.5138868024
 20
1697.9208299741
 10
1375.8751970634
 20
1697.871407701
 10
1373.2089034883
 20
1698.0019596988
 10
1370.5625861492
 20
1698.3101562638
 10
1367.9834686417
 20
1698.7904976212
 10
1365.5175753788
 20
1699.434412068
 10
1363.2089102842
 20
1700.2304089357
 10
1361.0986715412
 20
1701.1642836413
 10
1359.2245164101
 20
1702.2193711686
 10
1357.6198892338
 20
1703.3768434556
 10
1356.3134246221
 20
1704.616045382
 10
1355.3284364671
 20
1705.91486336
 10
1354.6825019055
 20
1707.250119952
 10
1354.3871476552
 20
1708.5979874726
 10
1354.4476443195
 20
1709.9344131938
 10
1354.8629123341
 20
1711.2355485671
 10
1355.6255412315
 20
1712.4781748009
 10
1356.7219218809
 20
1713.6401172005
 10
1358.1324893436
 20
1714.7006408764
 10
1359.8320720099
 20
1715.6408207584
 10
1361.7903407868
 20
1716.4438793143
 10
1363.9723503216
 20
1717.095485945
 10
1366.3391626025
 20
1717.5840127149
 10
1368.8485418082
 20
1717.9007418522
 10
1371.4557080073
 20
1718.0400213178
 10
1374.1141362573
 20
1717.9993656665
 10
1376.7763868431
 20
1717.7795003993
  0
ARC
  5
E9
330
1F
100
AcDbEntity
  8
0
  6
Continuous
 62
     7
370
    25
100
AcDbCircle
 10
1271.6542471373
 20
811.6627119932
 30
0.0
 40
201.8079987441601
100
AcDbArc
 50
80.8773710656
 51
83.966197874
  0
LWPOLYLINE
  5
EA
330
1F
100
AcDbEntity
  8
0
  6
Continuous
 62
     7
370
    25
100
AcDbPolyline
 90
       79
 70
   128
 43
0.0
 10
1342.9122781298
 20
999.3030097148
 10
1343.6891165891
 20
998.9242765663
 10
1347.5433486679
 20
996.9060683998
 10
1351.1240959165
 20
994.7885214383
 10
1354.4187808296
 20
992.5790736428
 10
1357.4158307062
 20
990.2854857792
 10
1360.1047182995
 20
987.9158141585
 10
1362.4759987935
 20
985.4783823388
 10
1364.5213429792
 20
982.9817518881
 10
1366.2335665105
 20
980.4346923121
 10
1367.6066551397
 20
977.8461502503
 10
1368.635785843
 20
975.2252180512
 10
1369.3173437613
 20
972.5811018346
 10
1369.6489348975
 20
969.9230891554
 10
1369.6293945256
 20
967.2605163798
 10
1369.258791282
 20
964.6027358919
 10
1368.538426924
 20
961.9590832427
 10
1367.4708317576
 20
959.3388443583
 10
1366.05975575
 20
956.7512229236
 10
1364.310155357
 20
954.2053080532
 10
1362.2281761137
 20
951.7100423658
 10
1359.8211310483
 20
949.2741905732
 10
1357.0974749943
 20
946.9063086937
 10
1354.0667748929
 20
944.6147139988
 10
1350.7396761888
 20
942.4074557984
 10
1347.1278654375
 20
940.2922871674
 10
1343.244029256
 20
938.2766377127
 10
1339.1018097605
 20
936.3675874767
 10
1334.7157566481
 20
934.5718420678
 10
1330.1012760903
 20
932.8957091074
 10
1325.2745766184
 20
931.3450760736
 10
1320.2526121903
 20
929.9253896214
 10
1315.0530226392
 20
928.6416364513
 10
1309.6940717131
 20
927.4983257931
 10
1304.1945829225
 20
926.4994735673
 10
1298.5738734223
 20
925.6485882786
 10
1292.8516861597
 20
924.9486586928
 10
1287.0481205262
 20
924.402143338
 10
1281.1835617576
 20
924.0109618692
 10
1275.2786093307
 20
923.7764883258
 10
1269.354004606
 20
923.6995463045
 10
1263.4305579738
 20
923.7804060671
 10
1257.5290757564
 20
924.0187835906
 10
1251.6702871254
 20
924.4138415653
 10
1245.8747712895
 20
924.9641923357
 10
1240.1628852094
 20
925.6679027746
 10
1234.5546920934
 20
926.5225010734
 10
1229.0698909241
 20
927.5249854244
 10
1223.727747266
 20
928.6718345649
 10
1218.5470255932
 20
929.9590201453
 10
1213.5459233797
 20
931.3820208794
 10
1208.7420071795
 20
932.9358384251
 10
1204.1521509232
 20
934.6150149418
 10
1199.7924766486
 20
936.4136522605
 10
1195.6782978703
 20
938.3254326022
 10
1191.8240657916
 20
940.3436407687
 10
1188.243318543
 20
942.4611877302
 10
1184.9486336299
 20
944.6706355257
 10
1181.9515837533
 20
946.9642233893
 10
1179.26269616
 20
949.33389501
 10
1176.891415666
 20
951.7713268297
 10
1174.8460714803
 20
954.2679572804
 10
1173.133847949
 20
956.8150168564
 10
1171.7607593198
 20
959.4035589182
 10
1170.7316286165
 20
962.0244911174
 10
1170.0500706982
 20
964.6686073339
 10
1169.718479562
 20
967.3266200132
 10
1169.7380199339
 20
969.9891927887
 10
1170.1086231775
 20
972.6469732766
 10
1170.8289875355
 20
975.2906259259
 10
1171.8965827018
 20
977.9108648102
 10
1173.3076587095
 20
980.4984862449
 10
1175.0572591025
 20
983.0444011154
 10
1177.1392383458
 20
985.5396668028
 10
1179.5462834112
 20
987.9755185953
 10
1182.2699394652
 20
990.3434004748
 10
1185.3006395666
 20
992.6349951697
 10
1188.6277382707
 20
994.8422533701
 10
1191.4746875655
 20
996.5306420063
  0
ARC
  5
EB
330
1F
100
AcDbEntity
  8
0
  6
Continuous
 62
     7
370
    25
100
AcDbCircle
 10
1268.3938019928
 20
810.7642504221
 30
0.0
 40
202.7221115159397
100
AcDbArc
 50
94.3928130897
 51
100.6717041305
  0
LWPOLYLINE
  5
EC
330
1F
100
AcDbEntity
  8
0
  6
Continuous
 62
     7
370
    25
100
AcDbPolyline
 90
        3
 70
   128
 43
0.0
 10
1292.8706636762
 20
1010.0396976513
 10
1298.1982233669
 20
1009.3686964507
 10
1303.4785800618
 20
1008.5508768663
  0
LWPOLYLINE
  5
ED
330
1F
100
AcDbEntity
  8
0
  6
Continuous
 62
     7
370
    25
100
AcDbPolyline
 90
       75
 70
   128
 43
0.0
 10
1342.6742746582
 20
996.0260287144
 10
1344.9696221234
 20
994.7410341128
 10
1348.3618259297
 20
992.6345759779
 10
1351.4613419668
 20
990.4388001024
 10
1354.2566398315
 20
988.1618749168
 10
1356.7373208322
 20
985.8122707324
 10
1358.8941566725
 20
983.3987282311
 10
1360.7191237816
 20
980.9302259495
 10
1362.2054331619
 20
978.4159468781
 10
1363.3475556449
 20
975.8652443004
 10
1364.1412424599
 20
973.2876069973
 10
1364.5835410398
 20
970.6926239491
 10
1364.672806005
 20
968.0899486629
 10
1364.4087052838
 20
965.489263262
 10
1363.7922213482
 20
962.9002424667
 10
1362.8256475591
 20
960.3325176044
 10
1361.5125796344
 20
957.7956407804
 10
1359.857902273
 20
955.299049343
 10
1357.8677709834
 20
952.8520307763
 10
1355.5495891846
 20
950.4636881502
 10
1352.9119806653
 20
948.142906256
 10
1349.9647575024
 20
945.8983185549
 10
1346.7188835596
 20
943.7382750605
 10
1343.1864337011
 20
941.6708112764
 10
1339.3805488725
 20
939.7036183039
 10
1335.3153872153
 20
937.8440142298
 10
1331.0060713978
 20
936.0989169035
 10
1326.468632358
 20
934.4748182018
 10
1321.719949667
 20
932.9777598783
 10
1316.7776887365
 20
931.6133110885
 10
1311.6602351015
 20
930.3865476714
 10
1306.3866260259
 20
929.3020332675
 10
1300.9764796817
 20
928.3638023416
 10
1295.4499221686
 20
927.5753451744
 10
1289.8275126437
 20
926.9395948784
 10
1284.1301668395
 20
926.4589164864
 10
1278.3790792568
 20
926.1350981536
 10
1272.595644319
 20
925.9693445054
 10
1266.801376784
 20
925.9622721564
 10
1261.0178317075
 20
926.113907416
 10
1255.2665242572
 20
926.4236861913
 10
1249.5688496744
 20
926.8904560848
 10
1243.9460036829
 20
927.5124806818
 10
1238.4189036391
 20
928.28744601
 10
1233.0081107181
 20
929.2124691474
 10
1227.733753425
 20
930.2841089474
 10
1222.6154527153
 20
931.4983788393
 10
1217.6722490038
 20
932.8507616594
 10
1212.9225313331
 20
934.3362264549
 10
1208.3839689648
 20
935.9492471991
 10
1204.073445649
 20
937.6838233489
 10
1200.0069968156
 20
939.5335021671
 10
1196.1997499214
 20
941.4914027271
 10
1192.6658681747
 20
943.55024151
 10
1189.4184978479
 20
945.7023595006
 10
1186.4697193718
 20
947.9397506784
 10
1183.8305023961
 20
950.2540918013
 10
1181.5106649812
 20
952.6367733683
 10
1179.5188370747
 20
955.0789316476
 10
1177.8624284072
 20
957.57148165
 10
1176.5476009278
 20
960.1051509256
 10
1175.579245881
 20
962.6705140584
 10
1174.9609656113
 20
965.258027729
 10
1174.6950601617
 20
967.8580662167
 10
1174.7825187182
 20
970.4609572075
 10
1175.223015929
 20
973.0570177759
 10
1176.0149131157
 20
975.6365904061
 10
1177.1552643686
 20
978.1900789186
 10
1178.6398275063
 20
980.7079841683
 10
1180.4630798564
 20
983.1809393823
 10
1182.6182388003
 20
985.5997450048
 10
1185.0972870052
 20
987.95540292
 10
1187.891002249
 20
990.2391499258
 10
1190.9889917276
 20
992.4424903333
 10
1191.6567649196
 20
992.8809864808
  0
ARC
  5
EE
330
1F
100
AcDbEntity
  8
0
  6
Continuous
 62
     7
370
    25
100
AcDbCircle
 10
1268.238394567
 20
820.4778556714
 30
0.0
 40
190.7529087469334
100
AcDbArc
 50
94.6212196807
 51
101.2652929652
  0
LWPOLYLINE
  5
EF
330
1F
100
AcDbEntity
  8
0
  6
Continuous
 62
     7
370
    25
100
AcDbPolyline
 90
       55
 70
   128
 43
0.0
 10
1370.0055565862
 20
745.4178820526
 10
1369.9513477733
 20
743.9093973068
 10
1369.5807445297
 20
741.2516168189
 10
1368.8603801716
 20
738.6079641696
 10
1367.7927850053
 20
735.9877252853
 10
1366.3817089977
 20
733.4001038506
 10
1364.6321086046
 20
730.8541889801
 10
1362.5501293614
 20
728.3589232927
 10
1360.143084296
 20
725.9230715002
 10
1357.419428242
 20
723.5551896207
 10
1354.3887281406
 20
721.2635949258
 10
1351.0616294365
 20
719.0563367253
 10
1347.4498186852
 20
716.9411680943
 10
1343.5659825036
 20
714.9255186397
 10
1339.4237630082
 20
713.0164684037
 10
1335.0377098958
 20
711.2207229948
 10
1330.423229338
 20
709.5445900344
 10
1325.5965298661
 20
707.9939570005
 10
1320.574565438
 20
706.5742705483
 10
1315.3749758869
 20
705.2905173782
 10
1310.0160249608
 20
704.1472067201
 10
1304.5165361701
 20
703.1483544943
 10
1298.89582667
 20
702.2974692056
 10
1293.1736394074
 20
701.5975396198
 10
1287.3700737739
 20
701.0510242649
 10
1281.5055150053
 20
700.6598427962
 10
1275.6005625783
 20
700.4253692528
 10
1269.6759578537
 20
700.3484272315
 10
1263.7525112215
 20
700.429286994
 10
1257.8510290041
 20
700.6676645175
 10
1251.9922403731
 20
701.0627224923
 10
1246.1967245372
 20
701.6130732626
 10
1240.4848384571
 20
702.3167837015
 10
1234.876645341
 20
703.1713820003
 10
1229.3918441718
 20
704.1738663514
 10
1224.0497005136
 20
705.3207154918
 10
1218.8689788409
 20
706.6079010723
 10
1213.8678766274
 20
708.0309018063
 10
1209.0639604271
 20
709.5847193521
 10
1204.4741041709
 20
711.2638958687
 10
1200.1144298962
 20
713.0625331875
 10
1196.000251118
 20
714.9743135292
 10
1192.1460190392
 20
716.9925216957
 10
1188.5652717907
 20
719.1100686572
 10
1185.2705868776
 20
721.3195164527
 10
1182.2735370009
 20
723.6131043163
 10
1179.5846494077
 20
725.982775937
 10
1177.2133689136
 20
728.4202077567
 10
1175.168024728
 20
730.9168382074
 10
1173.4558011967
 20
733.4638977834
 10
1172.0827125675
 20
736.0524398452
 10
1171.0535818641
 20
738.6733720443
 10
1170.3720239459
 20
741.3174882608
 10
1170.0404328097
 20
743.9755009401
 10
1170.0057643686
 20
745.1295889699
  0
LWPOLYLINE
  5
F0
330
1F
100
AcDbEntity
  8
0
  6
Continuous
 62
     7
370
    25
100
AcDbPolyline
 90
        3
 70
   128
 43
0.0
 10
1292.902859001
 20
987.704585744
 10
1298.2304186917
 20
987.0335845434
 10
1301.8760139464
 20
986.4857419418
  0
LWPOLYLINE
  5
F1
330
1F
100
AcDbEntity
  8
0
  6
Continuous
 62
     7
370
    25
100
AcDbPolyline
 90
       10
 70
   128
 43
0.0
 10
1341.1127742437
 20
974.5263121032
 10
1341.3295450937
 20
974.4152264372
 10
1345.0018174482
 20
972.4059222055
 10
1348.3940212544
 20
970.2994640705
 10
1351.4935372915
 20
968.1036881951
 10
1354.2888351563
 20
965.8267630095
 10
1356.7695161569
 20
963.4771588251
 10
1358.9263519973
 20
961.0636163238
 10
1360.7513191064
 20
958.5951140422
 10
1361.3897924331
 20
957.5894667137
  0
ARC
  5
F2
330
1F
100
AcDbEntity
  8
0
  6
Continuous
 62
     7
370
    25
100
AcDbCircle
 10
1215.4385843852
 20
932.3824621869
 30
0.0
 40
44.97832040699396
100
AcDbArc
 50
120.3117544937
 51
146.3203651631
  0
ARC
  5
F3
330
1F
100
AcDbEntity
  8
0
  6
Continuous
 62
     7
370
    25
100
AcDbCircle
 10
1268.3323652454
 20
797.5436123735
 30
0.0
 40
191.3550700102199
100
AcDbArc
 50
94.6252030806
 51
100.9213164519
  0
SPLINE
  5
F4
330
1F
100
AcDbEntity
  8
0
  6
Continuous
 62
     8
370
    25
100
AcDbSpline
210
0.0
220
0.0
230
1.0
 70
     8
 71
     3
 72
    28
 73
    24
 74
     0
 42
0.00000001
 43
0.00000001
 40
0.0
 40
0.0
 40
0.0
 40
0.0
 40
0.0332218207957231
 40
0.1537819327791263
 40
0.2151368083039288
 40
0.2764580699528942
 40
0.3319027229396286
 40
0.3883788814992742
 40
0.4223770003982893
 40
0.4572164989980086
 40
0.4902657137348553
 40
0.5243915584528475
 40
0.5671498450376249
 40
0.6115635150533815
 40
0.6545185370125195
 40
0.6987361972426375
 40
0.7416998733756022
 40
0.7859138571347013
 40
0.8331298042069878
 40
0.8744948960264177
 40
0.9169643576127311
 40
0.9895494819663262
 40
1.0
 40
1.0
 40
1.0
 40
1.0
 10
1194.890716011945
 20
1197.837736014301
 30
0.0
 10
1195.172633871656
 20
1198.330459856985
 30
0.0
 10
1196.477615727345
 20
1200.611250705875
 30
0.0
 10
1197.909387262272
 20
1204.121046470607
 30
0.0
 10
1199.203201262991
 20
1208.187022516108
 30
0.0
 10
1199.88280564329
 20
1211.240977606331
 30
0.0
 10
1200.223809586196
 20
1214.24855202255
 30
0.0
 10
1200.116944159793
 20
1216.787436049457
 30
0.0
 10
1199.612740646666
 20
1218.902598435799
 30
0.0
 10
1198.894192731018
 20
1220.541165059696
 30
0.0
 10
1197.853752781608
 20
1222.051557411035
 30
0.0
 10
1196.430698448898
 20
1223.510794148877
 30
0.0
 10
1194.579964299334
 20
1224.91429412037
 30
0.0
 10
1192.416910050689
 20
1226.220202753557
 30
0.0
 10
1190.18361085287
 20
1227.395933530471
 30
0.0
 10
1188.02790598296
 20
1228.449575034576
 30
0.0
 10
1185.990898863416
 20
1229.41539432728
 30
0.0
 10
1184.11957216742
 20
1230.299412725242
 30
0.0
 10
1182.552417714483
 20
1231.040288042596
 30
0.0
 10
1181.310491082585
 20
1231.6259252088
 30
0.0
 10
1180.225607194746
 20
1232.037499483246
 30
0.0
 10
1179.647428081754
 20
1232.287695968177
 30
0.0
 10
1179.594860185104
 20
1231.862960412414
 30
0.0
 10
1179.588244209889
 20
1231.809504974996
 30
0.0
  0
LWPOLYLINE
  5
F5
330
1F
100
AcDbEntity
  8
0
  6
Continuous
 62
     8
370
    25
100
AcDbPolyline
 90
       26
 70
   128
 43
0.0
 10
1179.7828438024
 20
1232.5500365372
 10
1179.8442218487
 20
1233.1626457497
 10
1180.1677793206
 20
1233.3587243673
 10
1180.7138658192
 20
1233.3128177903
 10
1181.6273796992
 20
1233.0143186782
 10
1182.8485917097
 20
1232.4991616495
 10
1184.5648651835
 20
1231.7104153345
 10
1186.431716903
 20
1230.8178526953
 10
1188.503121233
 20
1229.7906349752
 10
1190.7278829333
 20
1228.6289646999
 10
1192.991508138
 20
1227.3372697899
 10
1195.2351340967
 20
1225.8629273226
 10
1197.2777376043
 20
1224.1996439531
 10
1198.6479176272
 20
1222.7368673604
 10
1199.7525389698
 20
1221.1413842758
 10
1200.5715458161
 20
1219.3914208533
 10
1201.0960234858
 20
1217.5590202648
 10
1201.4174627307
 20
1214.5660116159
 10
1201.2693384353
 20
1211.5441646581
 10
1199.9948222134
 20
1205.2727618764
 10
1197.7838271555
 20
1199.3198377332
 10
1196.2197908394
 20
1196.1990755648
 10
1194.394528464
 20
1193.3406509498
 10
1193.1526183437
 20
1191.8049342707
 10
1191.7812820016
 20
1190.4884953908
 10
1191.7812820016
 20
1190.4884953908
  0
SPLINE
  5
F6
330
1F
100
AcDbEntity
  8
0
  6
Continuous
 62
     8
370
    25
100
AcDbSpline
210
0.0
220
0.0
230
1.0
 70
     8
 71
     3
 72
    13
 73
     9
 74
     0
 42
0.00000001
 43
0.00000001
 40
0.0
 40
0.0
 40
0.0
 40
0.0
 40
0.0806960478146308
 40
0.23111832869215
 40
0.379134594708747
 40
0.6167493578167204
 40
0.8542653671806616
 40
1.0
 40
1.0
 40
1.0
 40
1.0
 10
1191.781282001629
 20
1190.488495390799
 30
0.0
 10
1191.591269320624
 20
1190.364861891899
 30
0.0
 10
1191.047061587366
 20
1190.010768123866
 30
0.0
 10
1189.932526251981
 20
1189.898416745051
 30
0.0
 10
1188.39023324184
 20
1190.181166311206
 30
0.0
 10
1186.735530432648
 20
1190.835327128148
 30
0.0
 10
1185.261234688669
 20
1191.625028060654
 30
0.0
 10
1184.545319919113
 20
1192.47597881928
 30
0.0
 10
1184.273086647756
 20
1192.799560785507
 30
0.0
  0
LWPOLYLINE
  5
F7
330
1F
100
AcDbEntity
  8
0
  6
Continuous
 62
     8
370
    25
100
AcDbPolyline
 90
        3
 70
   128
 43
0.0
 10
1191.7812820016
 20
1190.4884953908
 10
1191.4297300739
 20
1190.8612543507
 10
1191.1639889391
 20
1191.0693031159
  0
SPLINE
  5
F8
330
1F
100
AcDbEntity
  8
0
  6
Continuous
 62
     8
370
    25
100
AcDbSpline
210
0.0
220
0.0
230
1.0
 70
     8
 71
     3
 72
    27
 73
    23
 74
     0
 42
0.00000001
 43
0.00000001
 40
0.0
 40
0.0
 40
0.0
 40
0.0
 40
0.0573298240161462
 40
0.119094596369995
 40
0.1820084553076788
 40
0.2198820095845706
 40
0.2586928521819405
 40
0.2955093369957779
 40
0.3335251765194527
 40
0.3811574673695947
 40
0.4306338383115923
 40
0.4784852903424207
 40
0.5277433084020946
 40
0.5756044010934284
 40
0.6248583236022552
 40
0.677456402322105
 40
0.7235366885533909
 40
0.7708472313301054
 40
0.851706312241804
 40
0.9254904637671443
 40
0.9625705631162459
 40
1.0
 40
1.0
 40
1.0
 40
1.0
 10
1173.378795656039
 20
1949.420105485413
 30
0.0
 10
1173.525670793096
 20
1950.354714623632
 30
0.0
 10
1173.830783105314
 20
1952.296232847174
 30
0.0
 10
1173.982690984
 20
1955.229091477816
 30
0.0
 10
1173.821459234708
 20
1957.762441864385
 30
0.0
 10
1173.343156442242
 20
1959.775259829035
 30
0.0
 10
1172.696071999438
 20
1961.255673711222
 30
0.0
 10
1171.762695613216
 20
1962.526204677284
 30
0.0
 10
1170.462907635474
 20
1963.644937790478
 30
0.0
 10
1168.710616014821
 20
1964.587540558274
 30
0.0
 10
1166.547348775849
 20
1965.328983427794
 30
0.0
 10
1164.16705190141
 20
1965.89250270171
 30
0.0
 10
1161.700737608644
 20
1966.32287737548
 30
0.0
 10
1159.17609842993
 20
1966.663727385245
 30
0.0
 10
1156.633934672413
 20
1966.931460323485
 30
0.0
 10
1154.240691821534
 20
1967.110925402962
 30
0.0
 10
1152.066108224348
 20
1967.188267100373
 30
0.0
 10
1149.742053160216
 20
1967.129311223595
 30
0.0
 10
1147.550372666005
 20
1966.740218352681
 30
0.0
 10
1146.187703948026
 20
1965.672250452514
 30
0.0
 10
1145.526605439572
 20
1964.334029594241
 30
0.0
 10
1145.344258694437
 20
1963.446964265247
 30
0.0
 10
1145.252657856034
 20
1963.001352100389
 30
0.0
  0
SPLINE
  5
F9
330
1F
100
AcDbEntity
  8
0
  6
Continuous
 62
     8
370
    25
100
AcDbSpline
210
0.0
220
0.0
230
1.0
 70
     8
 71
     3
 72
    31
 73
    27
 74
     0
 42
0.00000001
 43
0.00000001
 40
0.0
 40
0.0
 40
0.0
 40
0.0
 40
0.0065081468266833
 40
0.0516020229711687
 40
0.0824847073313169
 40
0.1133563820415478
 40
0.1730462948406962
 40
0.2051731392677208
 40
0.2373060757809081
 40
0.2737669535172898
 40
0.3102255278862684
 40
0.3510624217073926
 40
0.3887821008698606
 40
0.4265040892204272
 40
0.4645836368295606
 40
0.5026629962646022
 40
0.5415706781502521
 40
0.5804511994950656
 40
0.6110377091603408
 40
0.641622902209466
 40
0.6728854772084513
 40
0.7041804377925618
 40
0.7538013696877423
 40
0.8035339839110022
 40
0.9084262603285393
 40
1.0
 40
1.0
 40
1.0
 40
1.0
 10
1144.918810019433
 20
1961.020064413972
 30
0.0
 10
1144.914548547649
 20
1961.148963760795
 30
0.0
 10
1144.880760040615
 20
1962.170985425771
 30
0.0
 10
1145.002339144921
 20
1963.605023012455
 30
0.0
 10
1145.329780075188
 20
1965.214300898768
 30
0.0
 10
1145.970447070043
 20
1966.705004073212
 30
0.0
 10
1147.064877765957
 20
1967.689939975218
 30
0.0
 10
1148.634005710795
 20
1968.258611872546
 30
0.0
 10
1150.153444364511
 20
1968.532419337636
 30
0.0
 10
1151.997135761801
 20
1968.648608418879
 30
0.0
 10
1154.234685738242
 20
1968.619911325598
 30
0.0
 10
1156.70531831464
 20
1968.455646697635
 30
0.0
 10
1159.327310229386
 20
1968.169588131879
 30
0.0
 10
1161.923436270711
 20
1967.778738291068
 30
0.0
 10
1164.480003347808
 20
1967.266805972865
 30
0.0
 10
1166.932704693864
 20
1966.598312912474
 30
0.0
 10
1169.174870064582
 20
1965.724949167906
 30
0.0
 10
1170.987668951476
 20
1964.662036514164
 30
0.0
 10
1172.341740953267
 20
1963.420906938435
 30
0.0
 10
1173.322870885542
 20
1962.065739081515
 30
0.0
 10
1174.018595302401
 20
1960.492792799854
 30
0.0
 10
1174.548963845823
 20
1958.418373995792
 30
0.0
 10
1174.784407615747
 20
1955.803977857668
 30
0.0
 10
1174.613132542209
 20
1951.556108926648
 30
0.0
 10
1173.831439401047
 20
1946.291558537295
 30
0.0
 10
1172.493057361277
 20
1942.205061261515
 30
0.0
 10
1171.869231160031
 20
1940.300325546149
 30
0.0
  0
SPLINE
  5
FA
330
1F
100
AcDbEntity
  8
0
  6
Continuous
 62
     8
370
    25
100
AcDbSpline
210
0.0
220
0.0
230
1.0
 70
     8
 71
     3
 72
    14
 73
    10
 74
     0
 42
0.00000001
 43
0.00000001
 40
0.0
 40
0.0
 40
0.0
 40
0.0
 40
0.0345579252660536
 40
0.1737322160430814
 40
0.3106804043443613
 40
0.5305272644024728
 40
0.7502827551354629
 40
0.9441979018050605
 40
1.0
 40
1.0
 40
1.0
 40
1.0
 10
1165.042577779434
 20
1928.576598664737
 30
0.0
 10
1164.939846425375
 20
1928.494403737768
 30
0.0
 10
1164.423387591104
 20
1928.081187183248
 30
0.0
 10
1163.227274562535
 20
1927.703912687423
 30
0.0
 10
1161.303628141193
 20
1927.498331263827
 30
0.0
 10
1159.048520228419
 20
1927.581851057313
 30
0.0
 10
1156.695446088518
 20
1927.999781809025
 30
0.0
 10
1154.961384838094
 20
1928.549860687099
 30
0.0
 10
1154.231744582032
 20
1929.215350695668
 30
0.0
 10
1154.068698344525
 20
1929.364061846258
 30
0.0
  0
SPLINE
  5
FB
330
1F
100
AcDbEntity
  8
0
  6
Continuous
 62
     8
370
    25
100
AcDbSpline
210
0.0
220
0.0
230
1.0
 70
     8
 71
     3
 72
    21
 73
    17
 74
     0
 42
0.00000001
 43
0.00000001
 40
0.0
 40
0.0
 40
0.0
 40
0.0
 40
0.104263147330128
 40
0.1906823320212063
 40
0.2779823252360953
 40
0.4298577890199076
 40
0.5071495235946906
 40
0.5843989131276585
 40
0.6542452515903523
 40
0.7253910280238957
 40
0.7682201195917234
 40
0.812109138279398
 40
0.8537428489094953
 40
0.8967328429323356
 40
0.9505975457667021
 40
1.0
 40
1.0
 40
1.0
 40
1.0
 10
1130.644219828592
 20
2193.873243495352
 30
0.0
 10
1130.37879980883
 20
2194.406160655226
 30
0.0
 10
1129.893384687289
 20
2195.380789653305
 30
0.0
 10
1129.744244453086
 20
2197.494550813323
 30
0.0
 10
1129.759506299157
 20
2200.236018300147
 30
0.0
 10
1129.995526003447
 20
2203.278908342538
 30
0.0
 10
1130.26487386309
 20
2206.52646568922
 30
0.0
 10
1130.441744420556
 20
2209.094028622668
 30
0.0
 10
1130.547589743931
 20
2211.794989308396
 30
0.0
 10
1130.53378422116
 20
2214.285773219359
 30
0.0
 10
1130.422672152508
 20
2216.580233233251
 30
0.0
 10
1130.276439198392
 20
2218.524250009581
 30
0.0
 10
1130.103724370479
 20
2220.498039757061
 30
0.0
 10
1129.952291414015
 20
2222.58329721095
 30
0.0
 10
1129.880738122861
 20
2224.694184927201
 30
0.0
 10
1130.032403610095
 20
2226.022647788191
 30
0.0
 10
1130.104959565974
 20
2226.658177297808
 30
0.0
  0
ARC
  5
FC
330
1F
100
AcDbEntity
  8
0
  6
Continuous
 62
     8
370
    25
100
AcDbCircle
 10
1131.369397601
 20
2192.0891842092
 30
0.0
 40
1.925811605027875
100
AcDbArc
 50
79.0490275949
 51
112.120575489
  0
SPLINE
  5
FD
330
1F
100
AcDbEntity
  8
0
  6
Continuous
 62
     8
370
    25
100
AcDbSpline
210
0.0
220
0.0
230
1.0
 70
     8
 71
     3
 72
    27
 73
    23
 74
     0
 42
0.00000001
 43
0.00000001
 40
0.0
 40
0.0
 40
0.0
 40
0.0
 40
0.0182379675736185
 40
0.0631129937785847
 40
0.1097253528090185
 40
0.1548068537300004
 40
0.201213499553252
 40
0.2463040830710417
 40
0.2927068704203815
 40
0.3422602326197808
 40
0.3856730942574274
 40
0.4302449972455868
 40
0.5064234322958346
 40
0.5759364805686544
 40
0.6108701442718931
 40
0.6469636190802167
 40
0.6985577597475527
 40
0.7522482286115252
 40
0.8052849753794946
 40
0.8588477571192861
 40
0.9308696827050768
 40
1.0
 40
1.0
 40
1.0
 40
1.0
 10
1291.387567723969
 20
1624.884226328485
 30
0.0
 10
1291.330395842567
 20
1625.030978185639
 30
0.0
 10
1291.132550957673
 20
1625.538817066817
 30
0.0
 10
1290.576014900528
 20
1625.98897764681
 30
0.0
 10
1289.631766603091
 20
1626.242418084857
 30
0.0
 10
1288.361857071134
 20
1626.182472120114
 30
0.0
 10
1286.813468752408
 20
1625.908491287134
 30
0.0
 10
1284.977155698233
 20
1625.459781694985
 30
0.0
 10
1282.862464836232
 20
1624.862606061253
 30
0.0
 10
1280.587546967979
 20
1624.152844788637
 30
0.0
 10
1278.242947644488
 20
1623.348579750876
 30
0.0
 10
1275.418846636492
 20
1622.262451948455
 30
0.0
 10
1272.240027136195
 20
1620.761071754463
 30
0.0
 10
1269.733895763194
 20
1618.853787230471
 30
0.0
 10
1268.334313670996
 20
1617.013839363089
 30
0.0
 10
1267.477605896641
 20
1615.214402203155
 30
0.0
 10
1266.998905081705
 20
1612.936679268412
 30
0.0
 10
1266.986275378955
 20
1610.275606135933
 30
0.0
 10
1267.332810148723
 20
1607.555130892732
 30
0.0
 10
1268.005886876848
 20
1604.538551409804
 30
0.0
 10
1268.989677449297
 20
1601.284306773013
 30
0.0
 10
1269.926910918856
 20
1598.999573758145
 30
0.0
 10
1270.385927692573
 20
1597.880609475122
 30
0.0
  0
SPLINE
  5
FE
330
1F
100
AcDbEntity
  8
0
  6
Continuous
 62
     8
370
    25
100
AcDbSpline
210
0.0
220
0.0
230
1.0
 70
     8
 71
     3
 72
    32
 73
    28
 74
     0
 42
0.00000001
 43
0.00000001
 40
0.0
 40
0.0
 40
0.0
 40
0.0
 40
0.0124406266269098
 40
0.0646882406970574
 40
0.138559553923326
 40
0.212654686670008
 40
0.2865626390108617
 40
0.328039055298773
 40
0.3694817566156377
 40
0.4115434745762734
 40
0.4534846937918312
 40
0.4822082710368595
 40
0.5109216083517639
 40
0.5664384086739466
 40
0.5963191627812349
 40
0.626205583057484
 40
0.6601173643608579
 40
0.6940270033326008
 40
0.7320088594575077
 40
0.7670914353581607
 40
0.8021761590041957
 40
0.8375934437988461
 40
0.8730105535752561
 40
0.9091980751337633
 40
0.9453603350316038
 40
0.9738084441007765
 40
1.0
 40
1.0
 40
1.0
 40
1.0
 10
1274.863011372049
 20
1587.461835553735
 30
0.0
 10
1274.672641112905
 20
1587.660090925617
 30
0.0
 10
1273.682761944085
 20
1588.690970767962
 30
0.0
 10
1272.011597605553
 20
1591.381835959997
 30
0.0
 10
1269.822374038931
 20
1595.384979825797
 30
0.0
 10
1267.952022391527
 20
1600.146724111273
 30
0.0
 10
1266.784247125656
 20
1604.334731721356
 30
0.0
 10
1266.140299339563
 20
1607.837225007867
 30
0.0
 10
1265.896711903988
 20
1610.631305252757
 30
0.0
 10
1266.012860169317
 20
1613.391427629532
 30
0.0
 10
1266.571347425459
 20
1615.771968726669
 30
0.0
 10
1267.506428203238
 20
1617.693610390202
 30
0.0
 10
1268.968034251469
 20
1619.682429696793
 30
0.0
 10
1271.025831320266
 20
1621.360935376212
 30
0.0
 10
1273.434541356017
 20
1622.765782711998
 30
0.0
 10
1275.517555728589
 20
1623.778038209679
 30
0.0
 10
1277.757236776175
 20
1624.710926088304
 30
0.0
 10
1280.173454105688
 20
1625.591490139426
 30
0.0
 10
1282.521062058934
 20
1626.345498006011
 30
0.0
 10
1284.701375070428
 20
1626.951147084346
 30
0.0
 10
1286.597063677686
 20
1627.372795324076
 30
0.0
 10
1288.201402149191
 20
1627.590447711298
 30
0.0
 10
1289.511660829918
 20
1627.558059729705
 30
0.0
 10
1290.487589536479
 20
1627.204761919697
 30
0.0
 10
1291.111795749081
 20
1626.503827753843
 30
0.0
 10
1291.472510506775
 20
1625.543189028387
 30
0.0
 10
1291.591443762116
 20
1624.739998951245
 30
0.0
 10
1291.648454488799
 20
1624.354989310074
 30
0.0
  0
SPLINE
  5
FF
330
1F
100
AcDbEntity
  8
0
  6
Continuous
 62
     8
370
    25
100
AcDbSpline
210
0.0
220
0.0
230
1.0
 70
     8
 71
     3
 72
    14
 73
    10
 74
     0
 42
0.00000001
 43
0.00000001
 40
0.0
 40
0.0
 40
0.0
 40
0.0
 40
0.115307102971402
 40
0.2491092340681345
 40
0.4639056381358289
 40
0.6786127718701958
 40
0.8680731816658104
 40
0.9820789371392213
 40
1.0
 40
1.0
 40
1.0
 40
1.0
 10
1287.011753779853
 20
1587.311612520254
 30
0.0
 10
1286.724585424146
 20
1586.991320333895
 30
0.0
 10
1286.10418748425
 20
1586.29936173667
 30
0.0
 10
1284.697268774265
 20
1585.551022474392
 30
0.0
 10
1282.852881443691
 20
1584.857384231788
 30
0.0
 10
1280.64266752602
 20
1584.386158484408
 30
0.0
 10
1278.684562534683
 20
1584.36458295369
 30
0.0
 10
1277.569512113513
 20
1584.807890764996
 30
0.0
 10
1277.193825144073
 20
1585.093868581756
 30
0.0
 10
1277.142791473434
 20
1585.132716076872
 30
0.0
  0
SPLINE
  5
100
330
1F
100
AcDbEntity
  8
0
  6
Continuous
 62
     8
370
    25
100
AcDbSpline
210
0.0
220
0.0
230
1.0
 70
     8
 71
     3
 72
    28
 73
    24
 74
     0
 42
0.00000001
 43
0.00000001
 40
0.0
 40
0.0
 40
0.0
 40
0.0
 40
0.0528790106866637
 40
0.114736086057411
 40
0.1777439652393782
 40
0.2156741188234057
 40
0.2545429614379955
 40
0.2914144658445657
 40
0.3294871173104569
 40
0.3771905911987568
 40
0.4267409010241866
 40
0.4746638636138203
 40
0.5239954942442235
 40
0.5719281119016375
 40
0.6212556408606869
 40
0.6739323236320699
 40
0.7200814735420628
 40
0.7674627185275463
 40
0.8484426375291062
 40
0.9223370541703964
 40
0.9594725670652204
 40
0.9978409933073052
 40
1.0
 40
1.0
 40
1.0
 40
1.0
 10
1282.033258955347
 20
1428.67338540241
 30
0.0
 10
1282.206674412301
 20
1429.536333018172
 30
0.0
 10
1282.58294867565
 20
1431.408743840905
 30
0.0
 10
1282.860284632075
 20
1434.294589848158
 30
0.0
 10
1282.820717957072
 20
1436.870632898709
 30
0.0
 10
1282.442781633452
 20
1438.940114829509
 30
0.0
 10
1281.873001056238
 20
1440.480671631678
 30
0.0
 10
1281.009592046736
 20
1441.825077396373
 30
0.0
 10
1279.775083815143
 20
1443.035010554033
 30
0.0
 10
1278.081348782668
 20
1444.087325158395
 30
0.0
 10
1275.966057541366
 20
1444.949464339126
 30
0.0
 10
1273.621594703796
 20
1445.631922033953
 30
0.0
 10
1271.179832629017
 20
1446.172377635257
 30
0.0
 10
1268.669966539193
 20
1446.612816943438
 30
0.0
 10
1266.133153143593
 20
1446.967340482691
 30
0.0
 10
1263.735075247204
 20
1447.214329890763
 30
0.0
 10
1261.546016157464
 20
1447.338551731038
 30
0.0
 10
1259.191686456786
 20
1447.314256202577
 30
0.0
 10
1256.949499893561
 20
1446.920800713176
 30
0.0
 10
1255.486326932603
 20
1445.840670330322
 30
0.0
 10
1254.766147031642
 20
1444.412401966126
 30
0.0
 10
1254.461041714038
 20
1443.560518632258
 30
0.0
 10
1254.385626730376
 20
1442.994439416818
 30
0.0
 10
1254.381609168871
 20
1442.964282835801
 30
0.0
  0
SPLINE
  5
101
330
1F
100
AcDbEntity
  8
0
  6
Continuous
 62
     8
370
    25
100
AcDbSpline
210
0.0
220
0.0
230
1.0
 70
     8
 71
     3
 72
    31
 73
    27
 74
     0
 42
0.00000001
 43
0.00000001
 40
0.0
 40
0.0
 40
0.0
 40
0.0
 40
0.0091977683089191
 40
0.0545095110600929
 40
0.0855414020580876
 40
0.1165622302141278
 40
0.1765405289287701
 40
0.2088225910300618
 40
0.2411107746508311
 40
0.2777478095151525
 40
0.314382529883578
 40
0.3554167231219442
 40
0.3933186411870548
 40
0.4312228795968781
 40
0.4694864047774948
 40
0.5077497408748747
 40
0.5468454013809332
 40
0.5859137701226845
 40
0.6166480554870339
 40
0.647381017874133
 40
0.6787946349150441
 40
0.7102407940088388
 40
0.7601014645332315
 40
0.8100743569678326
 40
0.915473410054062
 40
1.0
 40
1.0
 40
1.0
 40
1.0
 10
1253.941380869938
 20
1440.866734532028
 30
0.0
 10
1253.94403200388
 20
1441.051698180281
 30
0.0
 10
1253.959743642844
 20
1442.147863868691
 30
0.0
 10
1254.160693785319
 20
1443.666677952891
 30
0.0
 10
1254.581114474172
 20
1445.316928336033
 30
0.0
 10
1255.315342721178
 20
1446.851861195483
 30
0.0
 10
1256.485634805455
 20
1447.868329304553
 30
0.0
 10
1258.111115057814
 20
1448.445355247098
 30
0.0
 10
1259.66635886269
 20
1448.711626872336
 30
0.0
 10
1261.536757847773
 20
1448.802190015567
 30
0.0
 10
1263.791881535167
 20
1448.725896956364
 30
0.0
 10
1266.268436880698
 20
1448.492260538399
 30
0.0
 10
1268.884432288502
 20
1448.116486017531
 30
0.0
 10
1271.463608663504
 20
1447.623008406933
 30
0.0
 10
1273.991558915293
 20
1446.995965119834
 30
0.0
 10
1276.403238332452
 20
1446.203850854376
 30
0.0
 10
1278.590422065225
 20
1445.203359142544
 30
0.0
 10
1280.338137887103
 20
1444.02502856177
 30
0.0
 10
1281.619923846071
 20
1442.686403854555
 30
0.0
 10
1282.525662415382
 20
1441.251428000913
 30
0.0
 10
1283.138034597032
 20
1439.611648414994
 30
0.0
 10
1283.562589109438
 20
1437.47276882968
 30
0.0
 10
1283.670382292432
 20
1434.805187750537
 30
0.0
 10
1283.296898646712
 20
1430.506827862213
 30
0.0
 10
1282.313537821419
 20
1425.375072725848
 30
0.0
 10
1280.852955114894
 20
1421.457564797663
 30
0.0
 10
1280.202921377767
 20
1419.714074129583
 30
0.0
  0
SPLINE
  5
102
330
1F
100
AcDbEntity
  8
0
  6
Continuous
 62
     8
370
    25
100
AcDbSpline
210
0.0
220
0.0
230
1.0
 70
     8
 71
     3
 72
    14
 73
    10
 74
     0
 42
0.00000001
 43
0.00000001
 40
0.0
 40
0.0
 40
0.0
 40
0.0
 40
0.0705499348978874
 40
0.2020592517789199
 40
0.331465067975613
 40
0.5392039414648522
 40
0.7468564777616138
 40
0.9300918176295314
 40
1.0
 40
1.0
 40
1.0
 40
1.0
 10
1273.06001275476
 20
1407.941748094064
 30
0.0
 10
1272.832726743556
 20
1407.766366117786
 30
0.0
 10
1272.181765953442
 20
1407.26406160179
 30
0.0
 10
1270.831304417476
 20
1406.855488761225
 30
0.0
 10
1268.888693740171
 20
1406.727620935249
 30
0.0
 10
1266.635126888118
 20
1406.883958942069
 30
0.0
 10
1264.285381532036
 20
1407.368724521271
 30
0.0
 10
1262.508264090717
 20
1408.007604688465
 30
0.0
 10
1261.75640678429
 20
1408.75431938469
 30
0.0
 10
1261.548773670752
 20
1408.960532313627
 30
0.0
  0
SPLINE
  5
103
330
1F
100
AcDbEntity
  8
0
  6
Continuous
 62
     8
370
    25
100
AcDbSpline
210
0.0
220
0.0
230
1.0
 70
     8
 71
     3
 72
    22
 73
    18
 74
     0
 42
0.00000001
 43
0.00000001
 40
0.0
 40
0.0
 40
0.0
 40
0.0
 40
0.021830387290053
 40
0.1074405551427782
 40
0.1504637988021147
 40
0.1949154307403588
 40
0.2584572139378397
 40
0.3245807715395214
 40
0.3898992247793799
 40
0.4558655267807706
 40
0.5445655520519543
 40
0.6332924006560608
 40
0.723962561064012
 40
0.814598587731133
 40
0.8987726972321395
 40
0.9843103982227367
 40
1.0
 40
1.0
 40
1.0
 40
1.0
 10
1123.232582950064
 20
3167.190233255731
 30
0.0
 10
1123.31095436474
 20
3166.932172414873
 30
0.0
 10
1123.696667553804
 20
3165.662098749483
 30
0.0
 10
1123.755150603704
 20
3163.414531479975
 30
0.0
 10
1123.852917463473
 20
3160.843398927962
 30
0.0
 10
1123.914307003124
 20
3158.583338485854
 30
0.0
 10
1124.045390081254
 20
3156.090768108835
 30
0.0
 10
1124.285718224171
 20
3153.529610052507
 30
0.0
 10
1124.597196722175
 20
3151.148764798288
 30
0.0
 10
1124.981429571787
 20
3148.687054134717
 30
0.0
 10
1125.412689189409
 20
3146.159497700058
 30
0.0
 10
1125.839097820877
 20
3143.589155184015
 30
0.0
 10
1126.168863397385
 20
3141.186869520402
 30
0.0
 10
1126.330698955792
 20
3139.034153624936
 30
0.0
 10
1126.25781858352
 20
3137.165107302264
 30
0.0
 10
1125.974077016822
 20
3136.055872734
 30
0.0
 10
1125.673839233424
 20
3135.598259704609
 30
0.0
 10
1125.627304246012
 20
3135.527332533749
 30
0.0
  0
LWPOLYLINE
  5
104
330
1F
100
AcDbEntity
  8
0
  6
Continuous
 62
     8
370
    25
100
AcDbPolyline
 90
        3
 70
   128
 43
0.0
 10
1125.627304246
 20
3135.5273325337
 10
1125.1284664417
 20
3135.5976390661
 10
1124.809860821
 20
3135.5744349936
  0
SPLINE
  5
105
330
1F
100
AcDbEntity
  8
0
  6
Continuous
 62
     8
370
    25
100
AcDbSpline
210
0.0
220
0.0
230
1.0
 70
     8
 71
     3
 72
    27
 73
    23
 74
     0
 42
0.00000001
 43
0.00000001
 40
0.0
 40
0.0
 40
0.0
 40
0.0
 40
0.1014460508534912
 40
0.1644327924789775
 40
0.2273850261946285
 40
0.2843043500840317
 40
0.3422826146761958
 40
0.3771849873487482
 40
0.4129511180415739
 40
0.4468793483859321
 40
0.4819128440228791
 40
0.5258083800569324
 40
0.5714033280377362
 40
0.6155008320504949
 40
0.6608945569399226
 40
0.7050009453030469
 40
0.7503908959377282
 40
0.7988626536164233
 40
0.8413279398460672
 40
0.8849269689538558
 40
0.9594426522537985
 40
1.0
 40
1.0
 40
1.0
 40
1.0
 10
1335.221817991282
 20
1203.026192609073
 30
0.0
 10
1336.121700701461
 20
1204.516915517632
 30
0.0
 10
1337.580310728105
 20
1206.933211949129
 30
0.0
 10
1339.139205970302
 20
1210.529259560057
 30
0.0
 10
1340.165942381938
 20
1213.486098171056
 30
0.0
 10
1340.844467251833
 20
1216.423485623665
 30
0.0
 10
1341.032217091396
 20
1218.923118237072
 30
0.0
 10
1340.780138941797
 20
1221.028850799092
 30
0.0
 10
1340.260320504781
 20
1222.678822308612
 30
0.0
 10
1339.402766926318
 20
1224.222557784422
 30
0.0
 10
1338.149778448448
 20
1225.741026417211
 30
0.0
 10
1336.444516050676
 20
1227.23565652484
 30
0.0
 10
1334.382386229636
 20
1228.662717740591
 30
0.0
 10
1332.196378783077
 20
1229.977177281183
 30
0.0
 10
1330.035284023024
 20
1231.178046593432
 30
0.0
 10
1327.942247857107
 20
1232.297204190544
 30
0.0
 10
1325.964860568281
 20
1233.337214386993
 30
0.0
 10
1324.244351489309
 20
1234.228805356343
 30
0.0
 10
1322.813908394002
 20
1234.947465685869
 30
0.0
 10
1321.444851839935
 20
1235.532431146599
 30
0.0
 10
1320.486990204191
 20
1235.848227890355
 30
0.0
 10
1320.179664833867
 20
1235.287946212869
 30
0.0
 10
1320.071348386459
 20
1235.09047562725
 30
0.0
  0
SPLINE
  5
106
330
1F
100
AcDbEntity
  8
0
  6
Continuous
 62
     8
370
    25
100
AcDbSpline
210
0.0
220
0.0
230
1.0
 70
     8
 71
     3
 72
    32
 73
    28
 74
     0
 42
0.00000001
 43
0.00000001
 40
0.0
 40
0.0
 40
0.0
 40
0.0
 40
0.017796533666343
 40
0.0721845267496947
 40
0.101457724021173
 40
0.1307364722530177
 40
0.1639587349963384
 40
0.1971788989674454
 40
0.2343884808638447
 40
0.2687577327724145
 40
0.3031290887568733
 40
0.3378262440191316
 40
0.3725232278217451
 40
0.4079749588438102
 40
0.4434019418433374
 40
0.471271623638928
 40
0.4991401057659892
 40
0.5276258018086986
 40
0.5561410068068972
 40
0.6013543900092784
 40
0.6466695354257759
 40
0.7422448200386124
 40
0.837952128279058
 40
0.8916699354015173
 40
0.9453369536787949
 40
0.9776394080337266
 40
1.0
 40
1.0
 40
1.0
 40
1.0
 10
1320.002596997582
 20
1235.136800815645
 30
0.0
 10
1320.03552003812
 20
1235.354132603735
 30
0.0
 10
1320.169059194958
 20
1236.235652149344
 30
0.0
 10
1320.538106510094
 20
1236.787805504913
 30
0.0
 10
1321.270219862671
 20
1236.927461408505
 30
0.0
 10
1322.077526185062
 20
1236.767243867244
 30
0.0
 10
1323.179638980278
 20
1236.35237447035
 30
0.0
 10
1324.654426098941
 20
1235.667289019103
 30
0.0
 10
1326.434344580378
 20
1234.765612421183
 30
0.0
 10
1328.47281010573
 20
1233.683707955313
 30
0.0
 10
1330.615838032869
 20
1232.494192432635
 30
0.0
 10
1332.848019378005
 20
1231.185757019799
 30
0.0
 10
1335.086808267167
 20
1229.746672377859
 30
0.0
 10
1337.2163470865
 20
1228.165620078327
 30
0.0
 10
1338.976458302155
 20
1226.533813669781
 30
0.0
 10
1340.287706549895
 20
1224.877180829263
 30
0.0
 10
1341.207820832886
 20
1223.233285727715
 30
0.0
 10
1341.796561496059
 20
1221.474626627324
 30
0.0
 10
1342.141799061085
 20
1219.286955793296
 30
0.0
 10
1342.074497112107
 20
1216.680139762337
 30
0.0
 10
1341.336197114928
 20
1212.629585111779
 30
0.0
 10
1339.613864844834
 20
1207.583448589951
 30
0.0
 10
1337.068697570119
 20
1202.699170131652
 30
0.0
 10
1334.597644877379
 20
1198.945385683353
 30
0.0
 10
1332.656512080901
 20
1196.619279869978
 30
0.0
 10
1331.016401395983
 20
1194.990841344043
 30
0.0
 10
1330.094014517595
 20
1194.345114020937
 30
0.0
 10
1329.716700810973
 20
1194.080971310912
 30
0.0
  0
SPLINE
  5
107
330
1F
100
AcDbEntity
  8
0
  6
Continuous
 62
     8
370
    25
100
AcDbSpline
210
0.0
220
0.0
230
1.0
 70
     8
 71
     3
 72
    12
 73
     8
 74
     0
 42
0.00000001
 43
0.00000001
 40
0.0
 40
0.0
 40
0.0
 40
0.0
 40
0.1337850379584382
 40
0.2952088253769498
 40
0.5543470676775689
 40
0.8133776109812308
 40
1.0
 40
1.0
 40
1.0
 40
1.0
 10
1328.301107197899
 20
1193.418194421018
 30
0.0
 10
1327.926017729424
 20
1193.37170810702
 30
0.0
 10
1327.09834878311
 20
1193.2691318372
 30
0.0
 10
1325.520748258484
 20
1193.715540358114
 30
0.0
 10
1323.764926637727
 20
1194.481879971788
 30
0.0
 10
1322.113798933916
 20
1195.460843728242
 30
0.0
 10
1321.312039803439
 20
1196.443531550369
 30
0.0
 10
1320.976293769934
 20
1196.855043594212
 30
0.0
  0
ENDSEC
  0
SECTION
  2
OBJECTS
  0
DICTIONARY
  5
C
330
0
100
AcDbDictionary
281
     1
  3
ACAD_GROUP
350
D
  3
ACAD_LAYOUT
350
1A
  3
ACAD_MLINESTYLE
350
17
  3
ACAD_PLOTSETTINGS
350
19
  3
ACAD_PLOTSTYLENAME
350
E
  3
ACAD_SCALELIST
350
47
  3
DWGPROPS
350
108
  0
DICTIONARY
  5
D
102
{ACAD_REACTORS
330
C
102
}
330
C
100
AcDbDictionary
281
     1
  0
DICTIONARY
  5
1A
102
{ACAD_REACTORS
330
C
102
}
330
C
100
AcDbDictionary
281
     1
  3
Layout1
350
1E
  3
Layout2
350
26
  3
Model
350
22
  0
DICTIONARY
  5
17
102
{ACAD_REACTORS
330
C
102
}
330
C
100
AcDbDictionary
281
     1
  3
Standard
350
18
  0
DICTIONARY
  5
19
102
{ACAD_REACTORS
330
C
102
}
330
C
100
AcDbDictionary
281
     1
  0
ACDBDICTIONARYWDFLT
  5
E
102
{ACAD_REACTORS
330
C
102
}
330
C
100
AcDbDictionary
281
     1
  3
Normal
350
F
100
AcDbDictionaryWithDefault
340
F
  0
DICTIONARY
  5
47
102
{ACAD_REACTORS
330
C
102
}
330
C
100
AcDbDictionary
281
     1
  3
A0
350
48
  3
A1
350
49
  3
A2
350
4A
  3
A3
350
4B
  3
A4
350
4C
  3
A5
350
4D
  3
A6
350
4E
  3
A7
350
4F
  3
A8
350
50
  3
A9
350
51
  3
B0
350
52
  3
B1
350
53
  3
B2
350
54
  3
B3
350
55
  3
B4
350
56
  3
B5
350
57
  3
B6
350
58
  3
B7
350
59
  3
B8
350
5A
  3
B9
350
5B
  3
C0
350
5C
  3
C1
350
5D
  3
C2
350
5E
  3
C3
350
5F
  3
C4
350
60
  3
C5
350
61
  3
C6
350
62
  3
C7
350
63
  3
C8
350
64
  3
C9
350
65
  3
D0
350
66
  3
D1
350
67
  3
D2
350
68
  0
XRECORD
  5
108
102
{ACAD_REACTORS
330
C
102
}
330
C
100
AcDbXrecord
280
     1
  1
DWGPROPS COOKIE
  2

  3

  4

  6

  7

  8
9222
  9

300
=
301
=
302
=
303
=
304
=
305
=
306
=
307
=
308
=
309
=
 40
0.0
 41
2459920.221262789
 42
2459920.221263113
  1

 90
        0
  0
LAYOUT
  5
1E
102
{ACAD_REACTORS
330
1A
102
}
330
1A
100
AcDbPlotSettings
  1

  2
none_device
  4

  6

 40
0.0
 41
0.0
 42
0.0
 43
0.0
 44
0.0
 45
0.0
 46
0.0
 47
0.0
 48
0.0
 49
0.0
140
0.0
141
0.0
142
1.0
143
1.0
 70
   688
 72
     1
 73
     0
 74
     5
  7

 75
    16
147
1.0
148
0.0
149
0.0
100
AcDbLayout
  1
Layout1
 70
     1
 71
     1
 10
0.0
 20
0.0
 11
420.0
 21
297.0
 12
0.0
 22
0.0
 32
0.0
 14
1.0000000000E+20
 24
1.0000000000E+20
 34
1.0000000000E+20
 15
-1.0000000000E+20
 25
-1.0000000000E+20
 35
-1.0000000000E+20
146
0.0
 13
0.0
 23
0.0
 33
0.0
 16
1.0
 26
0.0
 36
0.0
 17
0.0
 27
1.0
 37
0.0
 76
     0
330
1B
  0
LAYOUT
  5
26
102
{ACAD_REACTORS
330
1A
102
}
330
1A
100
AcDbPlotSettings
  1

  2
none_device
  4

  6

 40
0.0
 41
0.0
 42
0.0
 43
0.0
 44
0.0
 45
0.0
 46
0.0
 47
0.0
 48
0.0
 49
0.0
140
0.0
141
0.0
142
1.0
143
1.0
 70
   688
 72
     1
 73
     0
 74
     5
  7

 75
    16
147
1.0
148
0.0
149
0.0
100
AcDbLayout
  1
Layout2
 70
     1
 71
     2
 10
0.0
 20
0.0
 11
0.0
 21
0.0
 12
0.0
 22
0.0
 32
0.0
 14
0.0
 24
0.0
 34
0.0
 15
0.0
 25
0.0
 35
0.0
146
0.0
 13
0.0
 23
0.0
 33
0.0
 16
1.0
 26
0.0
 36
0.0
 17
0.0
 27
1.0
 37
0.0
 76
     0
330
23
  0
LAYOUT
  5
22
102
{ACAD_REACTORS
330
1A
102
}
330
1A
100
AcDbPlotSettings
  1

  2
none_device
  4
Letter_(8.50_x_11.00_Inches)
  6

 40
6.35
 41
6.35
 42
6.35000508
 43
6.35000508
 44
215.9
 45
279.4
 46
0.0
 47
0.0
 48
0.0
 49
0.0
140
0.0
141
0.0
142
1.0
143
1.0
 70
  1712
 72
     1
 73
     0
 74
     0
  7

 75
     0
147
1.0
148
0.0
149
0.0
100
AcDbLayout
  1
Model
 70
     1
 71
     0
 10
0.0
 20
0.0
 11
2520.0
 21
3564.0
 12
0.0
 22
0.0
 32
0.0
 14
0.0
 24
0.0
 34
0.0
 15
2520.0
 25
3564.0
 35
0.0
146
0.0
 13
0.0
 23
0.0
 33
0.0
 16
1.0
 26
0.0
 36
0.0
 17
0.0
 27
1.0
 37
0.0
 76
     0
330
1F
331
29
  0
MLINESTYLE
  5
18
102
{ACAD_REACTORS
330
17
102
}
330
17
100
AcDbMlineStyle
  2
Standard
 70
     0
  3

 62
   256
 51
90.0
 52
90.0
 71
     2
 49
0.5
 62
   256
  6
BYLAYER
 49
-0.5
 62
   256
  6
BYLAYER
  0
ACDBPLACEHOLDER
  5
F
102
{ACAD_REACTORS
330
E
102
}
330
E
  0
SCALE
  5
48
102
{ACAD_REACTORS
330
47
102
}
330
47
100
AcDbScale
 70
     0
300
1:1
140
1.0
141
1.0
290
     1
  0
SCALE
  5
49
102
{ACAD_REACTORS
330
47
102
}
330
47
100
AcDbScale
 70
     0
300
1:2
140
1.0
141
2.0
290
     0
  0
SCALE
  5
4A
102
{ACAD_REACTORS
330
47
102
}
330
47
100
AcDbScale
 70
     0
300
1:4
140
1.0
141
4.0
290
     0
  0
SCALE
  5
4B
102
{ACAD_REACTORS
330
47
102
}
330
47
100
AcDbScale
 70
     0
300
1:5
140
1.0
141
5.0
290
     0
  0
SCALE
  5
4C
102
{ACAD_REACTORS
330
47
102
}
330
47
100
AcDbScale
 70
     0
300
1:8
140
1.0
141
8.0
290
     0
  0
SCALE
  5
4D
102
{ACAD_REACTORS
330
47
102
}
330
47
100
AcDbScale
 70
     0
300
1:10
140
1.0
141
10.0
290
     0
  0
SCALE
  5
4E
102
{ACAD_REACTORS
330
47
102
}
330
47
100
AcDbScale
 70
     0
300
1:16
140
1.0
141
16.0
290
     0
  0
SCALE
  5
4F
102
{ACAD_REACTORS
330
47
102
}
330
47
100
AcDbScale
 70
     0
300
1:20
140
1.0
141
20.0
290
     0
  0
SCALE
  5
50
102
{ACAD_REACTORS
330
47
102
}
330
47
100
AcDbScale
 70
     0
300
1:30
140
1.0
141
30.0
290
     0
  0
SCALE
  5
51
102
{ACAD_REACTORS
330
47
102
}
330
47
100
AcDbScale
 70
     0
300
1:40
140
1.0
141
40.0
290
     0
  0
SCALE
  5
52
102
{ACAD_REACTORS
330
47
102
}
330
47
100
AcDbScale
 70
     0
300
1:50
140
1.0
141
50.0
290
     0
  0
SCALE
  5
53
102
{ACAD_REACTORS
330
47
102
}
330
47
100
AcDbScale
 70
     0
300
1:100
140
1.0
141
100.0
290
     0
  0
SCALE
  5
54
102
{ACAD_REACTORS
330
47
102
}
330
47
100
AcDbScale
 70
     0
300
2:1
140
2.0
141
1.0
290
     0
  0
SCALE
  5
55
102
{ACAD_REACTORS
330
47
102
}
330
47
100
AcDbScale
 70
     0
300
4:1
140
4.0
141
1.0
290
     0
  0
SCALE
  5
56
102
{ACAD_REACTORS
330
47
102
}
330
47
100
AcDbScale
 70
     0
300
8:1
140
8.0
141
1.0
290
     0
  0
SCALE
  5
57
102
{ACAD_REACTORS
330
47
102
}
330
47
100
AcDbScale
 70
     0
300
10:1
140
10.0
141
1.0
290
     0
  0
SCALE
  5
58
102
{ACAD_REACTORS
330
47
102
}
330
47
100
AcDbScale
 70
     0
300
100:1
140
100.0
141
1.0
290
     0
  0
SCALE
  5
59
102
{ACAD_REACTORS
330
47
102
}
330
47
100
AcDbScale
 70
     0
300
1/128" = 1'-0"
140
0.0078125
141
12.0
290
     0
  0
SCALE
  5
5A
102
{ACAD_REACTORS
330
47
102
}
330
47
100
AcDbScale
 70
     0
300
1/64" = 1'-0"
140
0.015625
141
12.0
290
     0
  0
SCALE
  5
5B
102
{ACAD_REACTORS
330
47
102
}
330
47
100
AcDbScale
 70
     0
300
1/32" = 1'-0"
140
0.03125
141
12.0
290
     0
  0
SCALE
  5
5C
102
{ACAD_REACTORS
330
47
102
}
330
47
100
AcDbScale
 70
     0
300
1/16" = 1'-0"
140
0.0625
141
12.0
290
     0
  0
SCALE
  5
5D
102
{ACAD_REACTORS
330
47
102
}
330
47
100
AcDbScale
 70
     0
300
3/32" = 1'-0"
140
0.09375
141
12.0
290
     0
  0
SCALE
  5
5E
102
{ACAD_REACTORS
330
47
102
}
330
47
100
AcDbScale
 70
     0
300
1/8" = 1'-0"
140
0.125
141
12.0
290
     0
  0
SCALE
  5
5F
102
{ACAD_REACTORS
330
47
102
}
330
47
100
AcDbScale
 70
     0
300
3/16" = 1'-0"
140
0.1875
141
12.0
290
     0
  0
SCALE
  5
60
102
{ACAD_REACTORS
330
47
102
}
330
47
100
AcDbScale
 70
     0
300
1/4" = 1'-0"
140
0.25
141
12.0
290
     0
  0
SCALE
  5
61
102
{ACAD_REACTORS
330
47
102
}
330
47
100
AcDbScale
 70
     0
300
3/8" = 1'-0"
140
0.375
141
12.0
290
     0
  0
SCALE
  5
62
102
{ACAD_REACTORS
330
47
102
}
330
47
100
AcDbScale
 70
     0
300
1/2" = 1'-0"
140
0.5
141
12.0
290
     0
  0
SCALE
  5
63
102
{ACAD_REACTORS
330
47
102
}
330
47
100
AcDbScale
 70
     0
300
3/4" = 1'-0"
140
0.75
141
12.0
290
     0
  0
SCALE
  5
64
102
{ACAD_REACTORS
330
47
102
}
330
47
100
AcDbScale
 70
     0
300
1" = 1'-0"
140
1.0
141
12.0
290
     0
  0
SCALE
  5
65
102
{ACAD_REACTORS
330
47
102
}
330
47
100
AcDbScale
 70
     0
300
1-1/2" = 1'-0"
140
1.5
141
12.0
290
     0
  0
SCALE
  5
66
102
{ACAD_REACTORS
330
47
102
}
330
47
100
AcDbScale
 70
     0
300
3" = 1'-0"
140
3.0
141
12.0
290
     0
  0
SCALE
  5
67
102
{ACAD_REACTORS
330
47
102
}
330
47
100
AcDbScale
 70
     0
300
6" = 1'-0"
140
6.0
141
12.0
290
     0
  0
SCALE
  5
68
102
{ACAD_REACTORS
330
47
102
}
330
47
100
AcDbScale
 70
     0
300
1'-0" = 1'-0"
140
12.0
141
12.0
290
     0
  0
ENDSEC
  0
EOF
