  0
SECTION
  2
HEADER
  9
$ACADVER
  1
AC1015
  9
$ACADMAINTVER
 70
     6
  9
$DWGCODEPAGE
  3
DOS932
  9
$INSBASE
 10
0.0
 20
0.0
 30
0.0
  9
$EXTMIN
 10
0.0
 20
0.0
 30
0.0
  9
$EXTMAX
 10
2520.0
 20
3564.0
 30
0.0
  9
$LIMMIN
 10
0.0
 20
0.0
  9
$LIMMAX
 10
2520.0
 20
3564.0
  9
$ORTHOMODE
 70
     0
  9
$REGENMODE
 70
     1
  9
$FILLMODE
 70
     1
  9
$QTEXTMODE
 70
     0
  9
$MIRRTEXT
 70
     1
  9
$LTSCALE
 40
12.0
  9
$ATTMODE
 70
     1
  9
$TEXTSIZE
 40
42.0
  9
$TRACEWID
 40
1.0
  9
$TEXTSTYLE
  7
Standard
  9
$CLAYER
  8
0
  9
$CELTYPE
  6
ByLayer
  9
$CECOLOR
 62
   256
  9
$CELTSCALE
 40
1.0
  9
$DISPSILH
 70
     0
  9
$DIMSCALE
 40
1.0
  9
$DIMASZ
 40
39.624
  9
$DIMEXO
 40
12.0
  9
$DIMDLI
 40
3.75
  9
$DIMRND
 40
0.0
  9
$DIMDLE
 40
0.0
  9
$DIMEXE
 40
12.0
  9
$DIMTP
 40
0.0
  9
$DIMTM
 40
0.0
  9
$DIMTXT
 40
42.0
  9
$DIMCEN
 40
2.5
  9
$DIMTSZ
 40
0.0
  9
$DIMTOL
 70
     0
  9
$DIMLIM
 70
     0
  9
$DIMTIH
 70
     1
  9
$DIMTOH
 70
     1
  9
$DIMSE1
 70
     0
  9
$DIMSE2
 70
     0
  9
$DIMTAD
 70
     1
  9
$DIMZIN
 70
     1
  9
$DIMBLK
  1

  9
$DIMASO
 70
     1
  9
$DIMSHO
 70
     1
  9
$DIMPOST
  1

  9
$DIMAPOST
  1

  9
$DIMALT
 70
     0
  9
$DIMALTD
 70
     3
  9
$DIMALTF
 40
0.0393700787
  9
$DIMLFAC
 40
1.0
  9
$DIMTOFL
 70
     1
  9
$DIMTVP
 40
0.0
  9
$DIMTIX
 70
     0
  9
$DIMSOXD
 70
     0
  9
$DIMSAH
 70
     0
  9
$DIMBLK1
  1

  9
$DIMBLK2
  1

  9
$DIMSTYLE
  2
ISO-25
  9
$DIMCLRD
 70
     0
  9
$DIMCLRE
 70
     0
  9
$DIMCLRT
 70
     0
  9
$DIMTFAC
 40
1.0
  9
$DIMGAP
 40
18.288
  9
$DIMJUST
 70
     0
  9
$DIMSD1
 70
     0
  9
$DIMSD2
 70
     0
  9
$DIMTOLJ
 70
     0
  9
$DIMTZIN
 70
     1
  9
$DIMALTZ
 70
     0
  9
$DIMALTTZ
 70
     0
  9
$DIMUPT
 70
     0
  9
$DIMDEC
 70
     2
  9
$DIMTDEC
 70
     2
  9
$DIMALTU
 70
     2
  9
$DIMALTTD
 70
     3
  9
$DIMTXSTY
  7
Standard
  9
$DIMAUNIT
 70
     0
  9
$DIMADEC
 70
     2
  9
$DIMALTRND
 40
0.0
  9
$DIMAZIN
 70
     0
  9
$DIMDSEP
 70
    44
  9
$DIMATFIT
 70
     3
  9
$DIMFRAC
 70
     0
  9
$DIMLDRBLK
  1

  9
$DIMLUNIT
 70
     2
  9
$DIMLWD
 70
    -2
  9
$DIMLWE
 70
    -2
  9
$DIMTMOVE
 70
     0
  9
$LUNITS
 70
     2
  9
$LUPREC
 70
     2
  9
$SKETCHINC
 40
1.0
  9
$FILLETRAD
 40
10.0
  9
$AUNITS
 70
     0
  9
$AUPREC
 70
     2
  9
$MENU
  1
.
  9
$ELEVATION
 40
0.0
  9
$PELEVATION
 40
0.0
  9
$THICKNESS
 40
0.0
  9
$LIMCHECK
 70
     0
  9
$CHAMFERA
 40
0.0
  9
$CHAMFERB
 40
0.0
  9
$CHAMFERC
 40
0.0
  9
$CHAMFERD
 40
0.0
  9
$SKPOLY
 70
     0
  9
$TDCREATE
 40
2459920.597283507
  9
$TDUCREATE
 40
2459920.222283507
  9
$TDUPDATE
 40
2459920.597283866
  9
$TDUUPDATE
 40
2459920.222283866
  9
$TDINDWG
 40
0.0000000116
  9
$TDUSRTIMER
 40
0.0000000116
  9
$USRTIMER
 70
     1
  9
$ANGBASE
 50
0.0
  9
$ANGDIR
 70
     0
  9
$PDMODE
 70
     0
  9
$PDSIZE
 40
-1.0
  9
$PLINEWID
 40
0.0
  9
$SPLFRAME
 70
     0
  9
$SPLINETYPE
 70
     6
  9
$SPLINESEGS
 70
     8
  9
$HANDSEED
  5
F5
  9
$SURFTAB1
 70
     6
  9
$SURFTAB2
 70
     6
  9
$SURFTYPE
 70
     6
  9
$SURFU
 70
     6
  9
$SURFV
 70
     6
  9
$UCSBASE
  2

  9
$UCSNAME
  2

  9
$UCSORG
 10
0.0
 20
0.0
 30
0.0
  9
$UCSXDIR
 10
1.0
 20
0.0
 30
0.0
  9
$UCSYDIR
 10
0.0
 20
1.0
 30
0.0
  9
$UCSORTHOREF
  2

  9
$UCSORTHOVIEW
 70
     0
  9
$UCSORGTOP
 10
0.0
 20
0.0
 30
0.0
  9
$UCSORGBOTTOM
 10
0.0
 20
0.0
 30
0.0
  9
$UCSORGLEFT
 10
0.0
 20
0.0
 30
0.0
  9
$UCSORGRIGHT
 10
0.0
 20
0.0
 30
0.0
  9
$UCSORGFRONT
 10
0.0
 20
0.0
 30
0.0
  9
$UCSORGBACK
 10
0.0
 20
0.0
 30
0.0
  9
$PUCSBASE
  2

  9
$PUCSNAME
  2

  9
$PUCSORG
 10
0.0
 20
0.0
 30
0.0
  9
$PUCSXDIR
 10
1.0
 20
0.0
 30
0.0
  9
$PUCSYDIR
 10
0.0
 20
1.0
 30
0.0
  9
$PUCSORTHOREF
  2

  9
$PUCSORTHOVIEW
 70
     0
  9
$PUCSORGTOP
 10
0.0
 20
0.0
 30
0.0
  9
$PUCSORGBOTTOM
 10
0.0
 20
0.0
 30
0.0
  9
$PUCSORGLEFT
 10
0.0
 20
0.0
 30
0.0
  9
$PUCSORGRIGHT
 10
0.0
 20
0.0
 30
0.0
  9
$PUCSORGFRONT
 10
0.0
 20
0.0
 30
0.0
  9
$PUCSORGBACK
 10
0.0
 20
0.0
 30
0.0
  9
$USERI1
 70
     0
  9
$USERI2
 70
     0
  9
$USERI3
 70
     0
  9
$USERI4
 70
     0
  9
$USERI5
 70
     0
  9
$USERR1
 40
0.0
  9
$USERR2
 40
0.0
  9
$USERR3
 40
0.0
  9
$USERR4
 40
0.0
  9
$USERR5
 40
0.0
  9
$WORLDVIEW
 70
     1
  9
$SHADEDGE
 70
     3
  9
$SHADEDIF
 70
    70
  9
$TILEMODE
 70
     1
  9
$MAXACTVP
 70
    64
  9
$PINSBASE
 10
0.0
 20
0.0
 30
0.0
  9
$PLIMCHECK
 70
     0
  9
$PEXTMIN
 10
1.0000000000E+20
 20
1.0000000000E+20
 30
1.0000000000E+20
  9
$PEXTMAX
 10
-1.0000000000E+20
 20
-1.0000000000E+20
 30
-1.0000000000E+20
  9
$PLIMMIN
 10
0.0
 20
0.0
  9
$PLIMMAX
 10
420.0
 20
297.0
  9
$UNITMODE
 70
     0
  9
$VISRETAIN
 70
     1
  9
$PLINEGEN
 70
     0
  9
$PSLTSCALE
 70
     1
  9
$TREEDEPTH
 70
  3020
  9
$CMLSTYLE
  2
Standard
  9
$CMLJUST
 70
     0
  9
$CMLSCALE
 40
20.0
  9
$PROXYGRAPHICS
 70
     1
  9
$MEASUREMENT
 70
     1
  9
$CELWEIGHT
370
    -1
  9
$ENDCAPS
280
     0
  9
$JOINSTYLE
280
     0
  9
$LWDISPLAY
290
     1
  9
$INSUNITS
 70
     4
  9
$HYPERLINKBASE
  1

  9
$STYLESHEET
  1

  9
$XEDIT
290
     1
  9
$CEPSNTYPE
380
     0
  9
$PSTYLEMODE
290
     1
  9
$FINGERPRINTGUID
  2
{b2fd7e3d-4faa-493d-87d1-1f901866574f}
  9
$VERSIONGUID
  2
{FAEB1C32-E019-11D5-929B-00C0DF256EC4}
  9
$EXTNAMES
290
     1
  9
$PSVPSCALE
 40
0.0
  9
$OLESTARTUP
290
     0
  0
ENDSEC
  0
SECTION
  2
CLASSES
  0
CLASS
  1
ACDBDICTIONARYWDFLT
  2
AcDbDictionaryWithDefault
  3
ObjectDBX Classes
 90
        0
280
     0
281
     0
  0
CLASS
  1
VISUALSTYLE
  2
AcDbVisualStyle
  3
ObjectDBX Classes
 90
     4095
280
     0
281
     0
  0
CLASS
  1
MATERIAL
  2
AcDbMaterial
  3
ObjectDBX Classes
 90
     1153
280
     0
281
     0
  0
CLASS
  1
SCALE
  2
AcDbScale
  3
ObjectDBX Classes
 90
     1153
280
     0
281
     0
  0
CLASS
  1
TABLESTYLE
  2
AcDbTableStyle
  3
ObjectDBX Classes
 90
     4095
280
     0
281
     0
  0
CLASS
  1
MLEADERSTYLE
  2
AcDbMLeaderStyle
  3
ACDB_MLEADERSTYLE_CLASS
 90
     4095
280
     0
281
     0
  0
CLASS
  1
SUN
  2
AcDbSun
  3
SCENEOE
 90
     1153
280
     0
281
     0
  0
CLASS
  1
ACDBPLACEHOLDER
  2
AcDbPlaceHolder
  3
ObjectDBX Classes
 90
        0
280
     0
281
     0
  0
CLASS
  1
LAYOUT
  2
AcDbLayout
  3
ObjectDBX Classes
 90
        0
280
     0
281
     0
  0
ENDSEC
  0
SECTION
  2
TABLES
  0
TABLE
  2
VPORT
  5
8
330
0
100
AcDbSymbolTable
 70
     1
  0
VPORT
  5
29
330
8
100
AcDbSymbolTableRecord
100
AcDbViewportTableRecord
  2
*Active
 70
     0
 10
0.0
 20
0.0
 11
1.0
 21
1.0
 12
1260.0
 22
1782.0
 13
0.0
 23
0.0
 14
10.0
 24
10.0
 15
10.0
 25
10.0
 16
0.0
 26
0.0
 36
1.0
 17
0.0
 27
0.0
 37
0.0
 40
3564.0
 41
0.7070707071
 42
50.0
 43
0.0
 44
0.0
 50
0.0
 51
0.0
 71
     0
 72
  2000
 73
     1
 74
     3
 75
     0
 76
     0
 77
     0
 78
     0
281
     0
 65
     1
110
0.0
120
0.0
130
0.0
111
1.0
121
0.0
131
0.0
112
0.0
122
1.0
132
0.0
 79
     0
146
0.0
  0
ENDTAB
  0
TABLE
  2
LTYPE
  5
5
330
0
100
AcDbSymbolTable
 70
     6
  0
LTYPE
  5
14
330
5
100
AcDbSymbolTableRecord
100
AcDbLinetypeTableRecord
  2
ByBlock
 70
     0
  3

 72
    65
 73
     0
 40
0.0
  0
LTYPE
  5
15
330
5
100
AcDbSymbolTableRecord
100
AcDbLinetypeTableRecord
  2
ByLayer
 70
     0
  3

 72
    65
 73
     0
 40
0.0
  0
LTYPE
  5
16
330
5
100
AcDbSymbolTableRecord
100
AcDbLinetypeTableRecord
  2
Continuous
 70
     0
  3
Solid line
 72
    65
 73
     0
 40
0.0
  0
LTYPE
  5
6E
330
5
100
AcDbSymbolTableRecord
100
AcDbLinetypeTableRecord
  2
HIDDEN
 70
     0
  3
Hidden __ __ __ __ __ __ __ __ __ __ __ __ __ __
 72
    65
 73
     2
 40
1.905
 49
1.27
 74
     0
 49
-0.635
 74
     0
  0
LTYPE
  5
6F
330
5
100
AcDbSymbolTableRecord
100
AcDbLinetypeTableRecord
  2
PHANTOM
 70
     0
  3
Phantom ______  __  __  ______  __  __  ______
 72
    65
 73
     6
 40
12.7
 49
6.35
 74
     0
 49
-1.27
 74
     0
 49
1.27
 74
     0
 49
-1.27
 74
     0
 49
1.27
 74
     0
 49
-1.27
 74
     0
  0
LTYPE
  5
70
330
5
100
AcDbSymbolTableRecord
100
AcDbLinetypeTableRecord
  2
CENTER
 70
     0
  3
Center ____ _ ____ _ ____ _ ____ _ ____ _ ____
 72
    65
 73
     4
 40
10.16
 49
6.35
 74
     0
 49
-1.27
 74
     0
 49
1.27
 74
     0
 49
-1.27
 74
     0
  0
LTYPE
  5
71
330
5
100
AcDbSymbolTableRecord
100
AcDbLinetypeTableRecord
  2
CENTERX2
 70
     0
  3
Center (2x) ________  __  ________  __  _____
 72
    65
 73
     4
 40
20.32
 49
12.7
 74
     0
 49
-2.54
 74
     0
 49
2.54
 74
     0
 49
-2.54
 74
     0
  0
LTYPE
  5
72
330
5
100
AcDbSymbolTableRecord
100
AcDbLinetypeTableRecord
  2
DOT2
 70
     0
  3
Dot (.5x) ........................................
 72
    65
 73
     2
 40
0.635
 49
0.0
 74
     0
 49
-0.635
 74
     0
  0
ENDTAB
  0
TABLE
  2
LAYER
  5
2
330
0
100
AcDbSymbolTable
 70
     1
  0
LAYER
  5
10
330
2
100
AcDbSymbolTableRecord
100
AcDbLayerTableRecord
  2
0
 70
     0
 62
     7
  6
Continuous
370
    -3
390
F
  0
ENDTAB
  0
TABLE
  2
STYLE
  5
3
330
0
100
AcDbSymbolTable
 70
     2
  0
STYLE
  5
11
330
3
100
AcDbSymbolTableRecord
100
AcDbTextStyleTableRecord
  2
Standard
 70
     0
 40
0.0
 41
1.0
 50
0.0
 71
     0
 42
42.0
  3
txt
  4
bigfont
  0
STYLE
  5
76
330
3
100
AcDbSymbolTableRecord
100
AcDbTextStyleTableRecord
  2
SLDTEXTSTYLE0
 70
     0
 40
0.0
 41
0.7
 50
0.0
 71
     0
 42
42.0
  3
TXT
  4
bigfont
  0
ENDTAB
  0
TABLE
  2
VIEW
  5
6
330
0
100
AcDbSymbolTable
 70
     0
  0
ENDTAB
  0
TABLE
  2
UCS
  5
7
330
0
100
AcDbSymbolTable
 70
     0
  0
ENDTAB
  0
TABLE
  2
APPID
  5
9
330
0
100
AcDbSymbolTable
 70
     1
  0
APPID
  5
12
330
9
100
AcDbSymbolTableRecord
100
AcDbRegAppTableRecord
  2
ACAD
 70
     0
  0
ENDTAB
  0
TABLE
  2
DIMSTYLE
  5
A
330
0
100
AcDbSymbolTable
 70
     1
100
AcDbDimStyleTable
  0
DIMSTYLE
105
27
330
A
100
AcDbSymbolTableRecord
100
AcDbDimStyleTableRecord
  2
ISO-25
 70
     0
 41
2.5
 42
0.625
 43
3.75
 44
1.25
 73
     0
 74
     0
 77
     1
 78
     8
140
2.5
141
2.5
143
0.0393700787
147
0.625
171
     3
172
     1
178
     0
271
     2
272
     2
274
     3
278
    44
283
     0
284
     8
340
11
  0
ENDTAB
  0
TABLE
  2
BLOCK_RECORD
  5
1
330
0
100
AcDbSymbolTable
 70
     2
  0
BLOCK_RECORD
  5
1F
330
1
100
AcDbSymbolTableRecord
100
AcDbBlockTableRecord
  2
*Model_Space
340
22
  0
BLOCK_RECORD
  5
1B
330
1
100
AcDbSymbolTableRecord
100
AcDbBlockTableRecord
  2
*Paper_Space
340
1E
  0
BLOCK_RECORD
  5
23
330
1
100
AcDbSymbolTableRecord
100
AcDbBlockTableRecord
  2
*Paper_Space0
340
26
  0
BLOCK_RECORD
  5
73
330
1
100
AcDbSymbolTableRecord
100
AcDbBlockTableRecord
  2
SW_NOTE_0
340
0
102
{BLKREFS
331
7A
102
}
  0
ENDTAB
  0
ENDSEC
  0
SECTION
  2
BLOCKS
  0
BLOCK
  5
20
330
1F
100
AcDbEntity
  8
0
100
AcDbBlockBegin
  2
*Model_Space
 70
     0
 10
0.0
 20
0.0
 30
0.0
  3
*Model_Space
  1

  0
ENDBLK
  5
21
330
1F
100
AcDbEntity
  8
0
100
AcDbBlockEnd
  0
BLOCK
  5
1C
330
1B
100
AcDbEntity
 67
     1
  8
0
100
AcDbBlockBegin
  2
*Paper_Space
 70
     0
 10
0.0
 20
0.0
 30
0.0
  3
*Paper_Space
  1

  0
ENDBLK
  5
1D
330
1B
100
AcDbEntity
 67
     1
  8
0
100
AcDbBlockEnd
  0
BLOCK
  5
24
330
23
100
AcDbEntity
  8
0
100
AcDbBlockBegin
  2
*Paper_Space0
 70
     0
 10
0.0
 20
0.0
 30
0.0
  3
*Paper_Space0
  1

  0
ENDBLK
  5
25
330
23
100
AcDbEntity
  8
0
100
AcDbBlockEnd
  0
BLOCK
  5
74
330
73
100
AcDbEntity
  8
0
100
AcDbBlockBegin
  2
SW_NOTE_0
 70
     0
 10
0.0
 20
0.0
 30
0.0
  3
SW_NOTE_0
  1

  0
MTEXT
  5
77
330
73
100
AcDbEntity
  8
0
  6
Continuous
 62
     0
370
     0
100
AcDbMText
 10
0.0
 20
81.8558014755
 30
0.0
 40
63.5
 41
0.0
 71
     1
 72
     1
  1
HOA-D06K
  7
SLDTEXTSTYLE0
 73
     1
 44
1.0
  0
MTEXT
  5
78
330
73
100
AcDbEntity
  8
0
  6
Continuous
 62
     0
370
     0
100
AcDbMText
 10
0.0
 20
-14.8108661349
 30
0.0
 40
63.5
 41
0.0
 71
     1
 72
     1
  1
HOA-D06O
  7
SLDTEXTSTYLE0
 73
     1
 44
1.0
  0
MTEXT
  5
79
330
73
100
AcDbEntity
  8
0
  6
Continuous
 62
     0
370
     0
100
AcDbMText
 10
0.0
 20
-111.4775337453
 30
0.0
 40
63.5
 41
0.0
 71
     1
 72
     1
  1
HOA-D06W
  7
SLDTEXTSTYLE0
 73
     1
 44
1.0
  0
ENDBLK
  5
75
330
73
100
AcDbEntity
  8
0
100
AcDbBlockEnd
  0
ENDSEC
  0
SECTION
  2
ENTITIES
  0
INSERT
  5
7A
330
1F
100
AcDbEntity
  8
0
  6
Continuous
 62
     7
370
     0
100
AcDbBlockReference
  2
SW_NOTE_0
 10
1768.7395164813
 20
560.6218957875
 30
0.0
  0
LINE
  5
7B
330
1F
100
AcDbEntity
  8
0
  6
Continuous
 62
     7
370
    25
100
AcDbLine
 10
1229.2647977387
 20
1039.3844024958
 30
0.0
 11
1229.2647977387
 21
1284.5784980127
 31
0.0
  0
LINE
  5
7C
330
1F
100
AcDbEntity
  8
0
  6
Continuous
 62
     7
370
    25
100
AcDbLine
 10
1229.2647977387
 20
1302.4769113715
 30
0.0
 11
1229.2647977387
 21
3121.7553820567
 31
0.0
  0
LINE
  5
7D
330
1F
100
AcDbEntity
  8
0
  6
Continuous
 62
     7
370
    25
100
AcDbLine
 10
1229.2665029452
 20
3156.4081630728
 30
0.0
 11
1229.2647977387
 21
3244.0445945873
 31
0.0
  0
LINE
  5
7E
330
1F
100
AcDbEntity
  8
0
  6
Continuous
 62
     7
370
    25
100
AcDbLine
 10
1189.2647977387
 20
3244.0445945873
 30
0.0
 11
1189.2647977387
 21
2277.1349347363
 31
0.0
  0
LINE
  5
7F
330
1F
100
AcDbEntity
  8
0
  6
Continuous
 62
     7
370
    25
100
AcDbLine
 10
1189.2647977387
 20
2239.1770335615
 30
0.0
 11
1189.2647977387
 21
1039.3844024958
 31
0.0
  0
LINE
  5
80
330
1F
100
AcDbEntity
  8
0
  6
Continuous
 62
     7
370
    25
100
AcDbLine
 10
1304.8555232322
 20
1031.0060687355
 30
0.0
 11
1311.8040078328
 21
1475.2496496632
 31
0.0
  0
LINE
  5
81
330
1F
100
AcDbEntity
  8
0
  6
Continuous
 62
     7
370
    25
100
AcDbLine
 10
1312.36582559
 20
1511.1478011959
 30
0.0
 11
1315.060828232
 21
1683.4708143877
 31
0.0
  0
LINE
  5
82
330
1F
100
AcDbEntity
  8
0
  6
Continuous
 62
     7
370
    25
100
AcDbLine
 10
1315.1838718922
 20
1691.3374729975
 30
0.0
 11
1330.4730975337
 21
2668.8369911064
 31
0.0
  0
LINE
  5
83
330
1F
100
AcDbEntity
  8
0
  6
Continuous
 62
     7
370
    25
100
AcDbLine
 10
1290.4779895534
 20
2669.46256096
 30
0.0
 11
1288.5707145247
 21
2547.5749243134
 31
0.0
  0
LINE
  5
84
330
1F
100
AcDbEntity
  8
0
  6
Continuous
 62
     7
370
    25
100
AcDbLine
 10
1287.9288857116
 20
2506.4884617252
 30
0.0
 11
1264.8535020628
 21
1031.1896515861
 31
0.0
  0
LINE
  5
85
330
1F
100
AcDbEntity
  8
0
  6
Continuous
 62
     7
370
    25
100
AcDbLine
 10
1272.6332594898
 20
1528.5797296835
 30
0.0
 11
1271.2847841795
 21
1442.3664709534
 31
0.0
  0
LINE
  5
86
330
1F
100
AcDbEntity
  8
0
  6
Continuous
 62
     7
370
    25
100
AcDbLine
 10
1312.3658870079
 20
1511.1727654459
 30
0.0
 11
1312.6283674701
 21
1527.9541598299
 31
0.0
  0
LINE
  5
87
330
1F
100
AcDbEntity
  8
0
  6
Continuous
 62
     7
370
    25
100
AcDbLine
 10
1311.2798921598
 20
1441.7409010997
 30
0.0
 11
1311.8051605372
 21
1475.3233465279
 31
0.0
  0
LINE
  5
88
330
1F
100
AcDbEntity
  8
0
  6
Continuous
 62
     7
370
    25
100
AcDbLine
 10
1330.4437288512
 20
1501.2950914995
 30
0.0
 11
1312.4219975071
 21
1514.7601273687
 31
0.0
  0
SPLINE
  5
89
330
1F
100
AcDbEntity
  8
0
  6
Continuous
 62
     7
370
    25
100
AcDbSpline
210
0.0
220
0.0
230
1.0
 70
     8
 71
     3
 72
    13
 73
     9
 74
     0
 42
0.00000001
 43
0.00000001
 40
0.0
 40
0.0
 40
0.0
 40
0.0
 40
0.0082600391301328
 40
0.1407735751306245
 40
0.340616918638139
 40
0.564112182930797
 40
0.7953402635269997
 40
1.0
 40
1.0
 40
1.0
 40
1.0
 10
1311.819444855608
 20
1475.15275437334
 30
0.0
 10
1311.820779592058
 20
1475.157661995428
 30
0.0
 10
1311.843527138281
 20
1475.241301248932
 30
0.0
 10
1311.984272761427
 20
1475.55969464793
 30
0.0
 10
1312.33590776616
 20
1475.99834191988
 30
0.0
 10
1312.928412365977
 20
1476.36777972075
 30
0.0
 10
1313.626203388408
 20
1476.513723239787
 30
0.0
 10
1314.06950125466
 20
1476.411008802509
 30
0.0
 10
1314.277640186131
 20
1476.362781922008
 30
0.0
  0
LINE
  5
8A
330
1F
100
AcDbEntity
  8
0
  6
Continuous
 62
     7
370
    25
100
AcDbLine
 10
1283.5784815075
 20
1702.5302678642
 30
0.0
 11
1286.1969220162
 21
1681.2723019702
 31
0.0
  0
LINE
  5
8B
330
1F
100
AcDbEntity
  8
0
  6
Continuous
 62
     7
370
    25
100
AcDbLine
 10
1315.9718997582
 20
1684.9398216309
 30
0.0
 11
1312.6772851954
 21
1711.6873470292
 31
0.0
  0
LINE
  5
8C
330
1F
100
AcDbEntity
  8
0
  6
Continuous
 62
     7
370
    25
100
AcDbLine
 10
1276.0044477656
 20
1744.1128765088
 30
0.0
 11
1274.6559724553
 21
1657.8996177787
 31
0.0
  0
LINE
  5
8D
330
1F
100
AcDbEntity
  8
0
  6
Continuous
 62
     7
370
    25
100
AcDbLine
 10
1314.6510804356
 20
1657.274047925
 30
0.0
 11
1315.060828232
 21
1683.4708143877
 31
0.0
  0
LINE
  5
8E
330
1F
100
AcDbEntity
  8
0
  6
Continuous
 62
     7
370
    25
100
AcDbLine
 10
1315.1838718922
 20
1691.3374729975
 30
0.0
 11
1315.9995557459
 21
1743.4873066552
 31
0.0
  0
LINE
  5
8F
330
1F
100
AcDbEntity
  8
0
  6
Continuous
 62
     7
370
    25
100
AcDbLine
 10
1189.2647977387
 20
3172.1890031413
 30
0.0
 11
1189.2647977387
 21
3090.5349219528
 31
0.0
  0
LINE
  5
90
330
1F
100
AcDbEntity
  8
0
  6
Continuous
 62
     7
370
    25
100
AcDbLine
 10
1229.2647977387
 20
3156.4514854277
 30
0.0
 11
1229.2647977387
 21
3172.1890031413
 31
0.0
  0
LINE
  5
91
330
1F
100
AcDbEntity
  8
0
  6
Continuous
 62
     7
370
    25
100
AcDbLine
 10
1229.2647977387
 20
3090.5349219528
 30
0.0
 11
1229.2647977387
 21
3121.7558151186
 31
0.0
  0
SPLINE
  5
92
330
1F
100
AcDbEntity
  8
0
  6
Continuous
 62
     7
370
    25
100
AcDbSpline
210
0.0
220
0.0
230
1.0
 70
     8
 71
     3
 72
    10
 73
     6
 74
     0
 42
0.00000001
 43
0.00000001
 40
0.0
 40
0.0
 40
0.0
 40
0.0
 40
0.3847167281877481
 40
0.8489146126855648
 40
1.0
 40
1.0
 40
1.0
 40
1.0
 10
1229.268647674118
 20
3121.735763170992
 30
0.0
 10
1229.269730535797
 20
3121.743153269316
 30
0.0
 10
1229.272119974662
 20
3121.759460234925
 30
0.0
 10
1229.268953298671
 20
3121.87495520612
 30
0.0
 10
1229.32943944119
 20
3122.033416989148
 30
0.0
 10
1229.344292067107
 20
3122.072327944411
 30
0.0
  0
LINE
  5
93
330
1F
100
AcDbEntity
  8
0
  6
Continuous
 62
     7
370
    25
100
AcDbLine
 10
1247.2414405156
 20
3148.9732932295
 30
0.0
 11
1229.2647977387
 21
3160.7126451976
 31
0.0
  0
SPLINE
  5
94
330
1F
100
AcDbEntity
  8
0
  6
Continuous
 62
     7
370
    25
100
AcDbSpline
210
0.0
220
0.0
230
1.0
 70
     8
 71
     3
 72
    11
 73
     7
 74
     0
 42
0.00000001
 43
0.00000001
 40
0.0
 40
0.0
 40
0.0
 40
0.0
 40
0.2514742628637646
 40
0.53701928011265
 40
0.8450845637847072
 40
1.0
 40
1.0
 40
1.0
 40
1.0
 10
1229.674596064185
 20
3122.676547918446
 30
0.0
 10
1229.821238209735
 20
3122.827890131627
 30
0.0
 10
1230.134390174236
 20
3123.151079015639
 30
0.0
 10
1230.810914247462
 20
3123.409373755542
 30
0.0
 10
1231.459325581391
 20
3123.442040950677
 30
0.0
 10
1231.818675557712
 20
3123.29786859685
 30
0.0
 10
1231.938915679912
 20
3123.249627877261
 30
0.0
  0
LINE
  5
95
330
1F
100
AcDbEntity
  8
0
  6
Continuous
 62
     7
370
    25
100
AcDbLine
 10
1287.9288857116
 20
2506.4884617252
 30
0.0
 11
1287.4664879033
 21
2476.9255757149
 31
0.0
  0
LINE
  5
96
330
1F
100
AcDbEntity
  8
0
  6
Continuous
 62
     7
370
    25
100
AcDbLine
 10
1288.8149632136
 20
2563.138834445
 30
0.0
 11
1288.5717581344
 21
2547.5897900879
 31
0.0
  0
LINE
  5
97
330
1F
100
AcDbEntity
  8
0
  6
Continuous
 62
     7
370
    25
100
AcDbLine
 10
1327.4615958836
 20
2476.3000058613
 30
0.0
 11
1328.8100711939
 21
2562.5132645914
 31
0.0
  0
LINE
  5
98
330
1F
100
AcDbEntity
  8
0
  6
Continuous
 62
     7
370
    25
100
AcDbLine
 10
1288.5799225125
 20
2548.1117704548
 30
0.0
 11
1266.4356816218
 21
2528.8766464328
 31
0.0
  0
LINE
  5
99
330
1F
100
AcDbEntity
  8
0
  6
Continuous
 62
     7
370
    25
100
AcDbLine
 10
1286.1089626659
 20
2506.2279817269
 30
0.0
 11
1286.3064756756
 21
2506.3995472033
 31
0.0
  0
SPLINE
  5
9A
330
1F
100
AcDbEntity
  8
0
  6
Continuous
 62
     7
370
    25
100
AcDbSpline
210
0.0
220
0.0
230
1.0
 70
     8
 71
     3
 72
    13
 73
     9
 74
     0
 42
0.00000001
 43
0.00000001
 40
0.0
 40
0.0
 40
0.0
 40
0.0
 40
0.1540671482921993
 40
0.3857621242939687
 40
0.5766234846758689
 40
0.7533551912581721
 40
0.9469064243557821
 40
1.0
 40
1.0
 40
1.0
 40
1.0
 10
1286.288952815313
 20
2506.316494784663
 30
0.0
 10
1286.415522255771
 20
2506.40891074922
 30
0.0
 10
1286.732434048863
 20
2506.640307118928
 30
0.0
 10
1287.366177778094
 20
2506.69582945067
 30
0.0
 10
1287.881021180488
 20
2506.542253512422
 30
0.0
 10
1288.132450433066
 20
2506.375029447364
 30
0.0
 10
1288.224863427857
 20
2506.259222382485
 30
0.0
 10
1288.213842272568
 20
2506.277207493295
 30
0.0
 10
1288.211469822302
 20
2506.281079027613
 30
0.0
  0
LINE
  5
9B
330
1F
100
AcDbEntity
  8
0
  6
Continuous
 62
     7
370
    25
100
AcDbLine
 10
1189.2647977387
 20
2239.1770335615
 30
0.0
 11
1189.2647977387
 21
2215.2031716112
 31
0.0
  0
LINE
  5
9C
330
1F
100
AcDbEntity
  8
0
  6
Continuous
 62
     7
370
    25
100
AcDbLine
 10
1189.2647977387
 20
2296.8572527998
 30
0.0
 11
1189.2647977387
 21
2277.5075959808
 31
0.0
  0
LINE
  5
9D
330
1F
100
AcDbEntity
  8
0
  6
Continuous
 62
     7
370
    25
100
AcDbLine
 10
1229.2647977387
 20
2215.2031716112
 30
0.0
 11
1229.2647977387
 21
2296.8572527998
 31
0.0
  0
LINE
  5
9E
330
1F
100
AcDbEntity
  8
0
  6
Continuous
 62
     7
370
    25
100
AcDbLine
 10
1188.930852731
 20
2276.6751467928
 30
0.0
 11
1172.2278223036
 21
2250.7801007493
 31
0.0
  0
LINE
  5
9F
330
1F
100
AcDbEntity
  8
0
  6
Continuous
 62
     7
370
    25
100
AcDbLine
 10
1197.4382521212
 20
2234.5186669745
 30
0.0
 11
1202.6675032089
 21
2242.6256807453
 31
0.0
  0
SPLINE
  5
A0
330
1F
100
AcDbEntity
  8
0
  6
Continuous
 62
     7
370
    25
100
AcDbSpline
210
0.0
220
0.0
230
1.0
 70
     8
 71
     3
 72
     9
 73
     5
 74
     0
 42
0.00000001
 43
0.00000001
 40
0.0
 40
0.0
 40
0.0
 40
0.0
 40
0.5767835613599175
 40
1.0
 40
1.0
 40
1.0
 40
1.0
 10
1189.219945532379
 20
2277.325270296982
 30
0.0
 10
1189.197116316352
 20
2277.213067233809
 30
0.0
 10
1189.157536103676
 20
2277.01853488114
 30
0.0
 10
1188.984026483553
 20
2276.787895425538
 30
0.0
 10
1188.910594360055
 20
2276.690285016529
 30
0.0
  0
LINE
  5
A1
330
1F
100
AcDbEntity
  8
0
  6
Continuous
 62
     7
370
    25
100
AcDbLine
 10
1189.2647977387
 20
2039.6468970558
 30
0.0
 11
1189.2647977387
 21
1957.9928158672
 31
0.0
  0
LINE
  5
A2
330
1F
100
AcDbEntity
  8
0
  6
Continuous
 62
     7
370
    25
100
AcDbLine
 10
1229.2647977387
 20
1957.9928158672
 30
0.0
 11
1229.2647977387
 21
2039.6468970558
 31
0.0
  0
LINE
  5
A3
330
1F
100
AcDbEntity
  8
0
  6
Continuous
 62
     7
370
    25
100
AcDbLine
 10
1198.9288150891
 20
1301.4601673722
 30
0.0
 11
1202.7786012966
 21
1281.0203492218
 31
0.0
  0
LINE
  5
A4
330
1F
100
AcDbEntity
  8
0
  6
Continuous
 62
     7
370
    25
100
AcDbLine
 10
1232.2602319577
 20
1286.5731371311
 30
0.0
 11
1227.0774235214
 21
1314.0904215298
 31
0.0
  0
LINE
  5
A5
330
1F
100
AcDbEntity
  8
0
  6
Continuous
 62
     7
370
    25
100
AcDbLine
 10
1189.2647977387
 20
1343.9541253292
 30
0.0
 11
1189.2647977387
 21
1262.3000441406
 31
0.0
  0
LINE
  5
A6
330
1F
100
AcDbEntity
  8
0
  6
Continuous
 62
     7
370
    25
100
AcDbLine
 10
1229.2647977387
 20
1262.3000441406
 30
0.0
 11
1229.2647977387
 21
1284.5784980127
 31
0.0
  0
LINE
  5
A7
330
1F
100
AcDbEntity
  8
0
  6
Continuous
 62
     7
370
    25
100
AcDbLine
 10
1229.2647977387
 20
1302.4769113715
 30
0.0
 11
1229.2647977387
 21
1343.9541253292
 31
0.0
  0
LINE
  5
A8
330
1F
100
AcDbEntity
  8
0
  6
Continuous
 62
     7
370
    25
100
AcDbLine
 10
1358.7622724217
 20
855.6627198215
 30
0.0
 11
1358.7622724217
 21
1059.7979227929
 31
0.0
  0
LINE
  5
A9
330
1F
100
AcDbEntity
  8
0
  6
Continuous
 62
     7
370
    25
100
AcDbLine
 10
1158.7622724217
 20
1059.7979227929
 30
0.0
 11
1158.7622724217
 21
855.6627198215
 31
0.0
  0
LWPOLYLINE
  5
AA
330
1F
100
AcDbEntity
  8
0
  6
Continuous
 62
     7
370
    25
100
AcDbPolyline
 90
       48
 70
   128
 43
0.0
 10
1223.4069333624
 20
3252.2086757055
 10
1225.1657121896
 20
3251.0476660794
 10
1226.6407388216
 20
3249.7616864765
 10
1227.8056913734
 20
3248.3736852335
 10
1228.6397812391
 20
3246.9084312653
 10
1229.1281240652
 20
3245.3920720638
 10
1229.2620053624
 20
3243.8516670947
 10
1229.0390360158
 20
3242.3147049214
 10
1228.4631949187
 20
3240.8086126701
 10
1227.5447579692
 20
3239.3602665928
 10
1226.3001146962
 20
3237.9955124595
 10
1224.7514757886
 20
3236.7387043401
 10
1222.9264767442
 20
3235.6122700052
 10
1220.8576847144
 20
3234.6363107023
 10
1218.5820173419
 20
3233.8282424482
 10
1216.1400839648
 20
3233.20248524
 10
1213.5754609421
 20
3232.77020573
 10
1210.9339140324
 20
3232.5391179563
 10
1208.2625817029
 20
3232.5133456856
 10
1205.6091339424
 20
3232.6933488247
 10
1203.0209215888
 20
3233.0759152134
 10
1200.5441313531
 20
3233.6542179453
 10
1198.2229616157
 20
3234.4179371946
 10
1196.0988337054
 20
3235.3534443731
 10
1194.2096527352
 20
3236.4440453331
 10
1192.5891311843
 20
3237.6702782746
 10
1191.2661872981
 20
3239.0102610417
 10
1190.2644290416
 20
3240.4400816102
 10
1189.6017328146
 20
3241.9342247982
 10
1189.289924447
 20
3243.466027585
 10
1189.3345681665
 20
3245.0081549137
 10
1189.7348673049
 20
3246.5330874856
 10
1190.4836785146
 20
3248.0136128427
 10
1191.5676392417
 20
3249.423310975
 10
1192.9674061815
 20
3250.737025786
 10
1194.6580004597
 20
3251.9313140037
 10
1196.6092533814
 20
3252.9848635265
 10
1198.786344792
 20
3253.8788737384
 10
1201.1504244436
 20
3254.5973910058
 10
1203.6593052789
 20
3255.1275933711
 10
1206.26821626
 20
3255.4600193605
 10
1208.9306013085
 20
3255.5887368245
 10
1211.5989501002
 20
3255.5114487967
 10
1214.2256458878
 20
3255.2295344839
 10
1216.7638152226
 20
3254.7480246537
 10
1219.1681644128
 20
3254.0755118604
 10
1221.39578779
 20
3253.2239971107
 10
1223.4069333624
 20
3252.2086757055
  0
LWPOLYLINE
  5
AB
330
1F
100
AcDbEntity
  8
0
  6
Continuous
 62
     7
370
    25
100
AcDbPolyline
 90
       48
 70
   128
 43
0.0
 10
1330.3503491988
 20
2667.7950661879
 10
1329.8773903282
 20
2666.468593368
 10
1329.058205042
 20
2665.1899663162
 10
1327.9074117212
 20
2663.9820021627
 10
1326.4455462998
 20
2662.8662570563
 10
1324.6986958009
 20
2661.8626414949
 10
1322.6980328129
 20
2660.989065022
 10
1320.4792592145
 20
2660.2611166304
 10
1318.0819690728
 20
2659.6917865764
 10
1315.5489420874
 20
2659.2912345683
 10
1312.9253801848
 20
2659.0666084663
 10
1310.2581008893
 20
2659.0219167283
 10
1307.5947018632
 20
2659.1579568796
 10
1304.982711525
 20
2659.4723012804
 10
1302.4687409043
 20
2659.9593404474
 10
1300.0976518665
 20
2660.6103831552
 10
1297.9117565514
 20
2661.4138115311
 10
1295.9500623129
 20
2662.3552883769
 10
1294.2475756311
 20
2663.4180130159
 10
1292.8346774211
 20
2664.5830211017
 10
1291.7365808849
 20
2665.8295230374
 10
1290.9728815814
 20
2667.1352749665
 10
1290.5572077426
 20
2668.4769757149
 10
1290.496977078
 20
2669.8306826009
 10
1290.7932644053
 20
2671.1722386931
 10
1291.4407824702
 20
2672.4777038912
 10
1292.4279762973
 20
2673.7237821378
 10
1293.7372293894
 20
2674.8882371371
 10
1295.3451780942
 20
2675.9502891621
 10
1297.2231285289
 20
2676.8909858691
 10
1299.3375686235
 20
2677.6935405033
 10
1301.6507661444
 20
2678.3436314581
 10
1304.121442027
 20
2678.829657845
 10
1306.7055070018
 20
2679.1429465117
 10
1309.3568483679
 20
2679.2779068145
 10
1312.0281528759
 20
2679.2321303835
 10
1314.6717510337
 20
2679.0064341003
 10
1317.2404677693
 20
2678.6048455203
 10
1319.6884642719
 20
2678.0345310014
 10
1321.9720559858
 20
2677.3056678196
 10
1324.0504921629
 20
2676.4312625556
 10
1325.8866830602
 20
2675.4269189921
 10
1327.4478618078
 20
2674.3105596639
 10
1328.7061691338
 20
2673.1021060295
 10
1329.6391505143
 20
2671.8231229726
 10
1330.2301568744
 20
2670.4964339763
 10
1330.4686416917
 20
2669.1457138371
 10
1330.3503491988
 20
2667.7950661879
  0
LWPOLYLINE
  5
AC
330
1F
100
AcDbEntity
  8
0
  6
Continuous
 62
     7
370
    25
100
AcDbPolyline
 90
       10
 70
   128
 43
0.0
 10
1300.1744817444
 20
1518.7966727915
 10
1302.5757554013
 20
1519.3618350969
 10
1304.799561334
 20
1520.0859092952
 10
1306.806215673
 20
1520.9559742651
 10
1308.559909624
 20
1521.9565036766
 10
1310.029348477
 20
1523.0696430587
 10
1311.1883100608
 20
1524.2755284128
 10
1312.0161126784
 20
1525.552640686
 10
1312.4979841726
 20
1526.8781897797
 10
1312.6283674701
 20
1527.9541598299
  0
LWPOLYLINE
  5
AD
330
1F
100
AcDbEntity
  8
0
  6
Continuous
 62
     7
370
    25
100
AcDbPolyline
 90
       16
 70
   128
 43
0.0
 10
1272.6332594898
 20
1528.5797296835
 10
1272.7065386902
 20
1527.6284338383
 10
1273.1132620321
 20
1526.286130817
 10
1273.868276542
 20
1524.9791754674
 10
1274.958108968
 20
1523.7308904387
 10
1276.3633112248
 20
1522.5635514067
 10
1278.0588074446
 20
1521.4979895642
 10
1280.0143414574
 20
1520.5532198874
 10
1282.1950167123
 20
1519.7461018137
 10
1284.5619190078
 20
1519.0910383842
 10
1287.0728109162
 20
1518.5997192212
 10
1289.6828855121
 20
1518.280911927
 10
1292.3455659524
 20
1518.1403056251
 10
1295.0133366416
 20
1518.1804094385
 10
1297.6385911486
 20
1518.4005077136
 10
1300.1744817444
 20
1518.7966727915
  0
LWPOLYLINE
  5
AE
330
1F
100
AcDbEntity
  8
0
  6
Continuous
 62
     7
370
    25
100
AcDbPolyline
 90
       10
 70
   128
 43
0.0
 10
1298.826006434
 20
1432.5834140614
 10
1301.227280091
 20
1433.1485763668
 10
1303.4510860237
 20
1433.8726505651
 10
1305.4577403627
 20
1434.742715535
 10
1307.2114343137
 20
1435.7432449465
 10
1308.6808731667
 20
1436.8563843286
 10
1309.8398347504
 20
1438.0622696826
 10
1310.6676373681
 20
1439.3393819559
 10
1311.1495088623
 20
1440.6649310495
 10
1311.2798921598
 20
1441.7409010997
  0
LWPOLYLINE
  5
AF
330
1F
100
AcDbEntity
  8
0
  6
Continuous
 62
     7
370
    25
100
AcDbPolyline
 90
       16
 70
   128
 43
0.0
 10
1271.2847841795
 20
1442.3664709534
 10
1271.3580633799
 20
1441.4151751082
 10
1271.7647867218
 20
1440.0728720869
 10
1272.5198012317
 20
1438.7659167373
 10
1273.6096336577
 20
1437.5176317085
 10
1275.0148359145
 20
1436.3502926766
 10
1276.7103321343
 20
1435.2847308341
 10
1278.6658661471
 20
1434.3399611573
 10
1280.846541402
 20
1433.5328430836
 10
1283.2134436974
 20
1432.877779654
 10
1285.7243356059
 20
1432.3864604911
 10
1288.3344102018
 20
1432.0676531968
 10
1290.9970906421
 20
1431.927046895
 10
1293.6648613313
 20
1431.9671507084
 10
1296.2901158382
 20
1432.1872489835
 10
1298.826006434
 20
1432.5834140614
  0
LINE
  5
B0
330
1F
100
AcDbEntity
  8
0
  6
Continuous
 62
     7
370
    25
100
AcDbLine
 10
1311.7700970626
 20
1475.1759341411
 30
0.0
 11
1311.7706252537
 21
1475.3240114522
 31
0.0
  0
SPLINE
  5
B1
330
1F
100
AcDbEntity
  8
0
  6
Continuous
 62
     7
370
    25
100
AcDbSpline
210
0.0
220
0.0
230
1.0
 70
     8
 71
     3
 72
     9
 73
     5
 74
     0
 42
0.00000001
 43
0.00000001
 40
0.0
 40
0.0
 40
0.0
 40
0.0
 40
0.4538902220256044
 40
1.0
 40
1.0
 40
1.0
 40
1.0
 10
1312.354910381634
 20
1510.944712684981
 30
0.0
 10
1312.358770824487
 20
1510.981617923992
 30
0.0
 10
1312.367276059158
 20
1511.062926657292
 30
0.0
 10
1312.361063536589
 20
1511.133913625245
 30
0.0
 10
1312.357670817268
 20
1511.172680302552
 30
0.0
  0
LWPOLYLINE
  5
B2
330
1F
100
AcDbEntity
  8
0
  6
Continuous
 62
     7
370
    25
100
AcDbPolyline
 90
       20
 70
   128
 43
0.0
 10
1314.6386158873
 20
1476.294254418
 10
1316.1487892063
 20
1476.1371347889
 10
1317.7876551061
 20
1476.2981036684
 10
1319.515545236
 20
1476.7732648437
 10
1321.2906364353
 20
1477.5511171542
 10
1323.0699630528
 20
1478.6128328736
 10
1324.8104569201
 20
1479.932713431
 10
1326.4699898063
 20
1481.4788114383
 10
1328.0083931211
 20
1483.2137039689
 10
1329.3884301861
 20
1485.0953983708
 10
1330.5766975395
 20
1487.0783486881
 10
1331.5444334588
 20
1489.1145580905
 10
1332.2682141313
 20
1491.1547406241
 10
1332.7305206216
 20
1493.1495141665
 10
1332.9201629136
 20
1495.050595709
 10
1332.8325507617
 20
1496.8119700346
 10
1332.4698047966
 20
1498.3910035061
 10
1331.8407051963
 20
1499.7494760018
 10
1330.9604791638
 20
1500.8545060252
 10
1330.4437288512
 20
1501.2950914995
  0
LINE
  5
B3
330
1F
100
AcDbEntity
  8
0
  6
Continuous
 62
     7
370
    25
100
AcDbLine
 10
1314.2638920482
 20
1476.3891367158
 30
0.0
 11
1314.6386158873
 21
1476.294254418
 31
0.0
  0
LWPOLYLINE
  5
B4
330
1F
100
AcDbEntity
  8
0
  6
Continuous
 62
     7
370
    25
100
AcDbPolyline
 90
       36
 70
   128
 43
0.0
 10
1293.2314112568
 20
1679.1078730945
 10
1291.3634864614
 20
1679.2258421853
 10
1289.7308542793
 20
1679.4377310489
 10
1288.3730321758
 20
1679.7384109669
 10
1287.322885905
 20
1680.1206040549
 10
1286.605834002
 20
1680.5750594222
 10
1286.2392325339
 20
1681.0907770869
 10
1286.2319550002
 20
1681.6552742283
 10
1286.5841775519
 20
1682.2548873304
 10
1287.2873747276
 20
1682.8751029037
 10
1288.3245258106
 20
1683.5009087809
 10
1289.670526811
 20
1684.117157483
 10
1291.2927981017
 20
1684.7089328598
 10
1293.1520730003
 20
1685.2619111321
 10
1295.2033482097
 20
1685.7627075952
 10
1297.3969731121
 20
1686.1992005925
 10
1299.6798515496
 20
1686.560824917
 10
1301.9967270046
 20
1686.8388275399
 10
1304.2915200697
 20
1687.0264794752
 10
1306.5086858364
 20
1687.1192386534
 10
1308.5945583462
 20
1687.1148598611
 10
1310.4986495618
 20
1687.013449086
 10
1312.1748714182
 20
1686.8174609513
 10
1313.5826513726
 20
1686.531639302
 10
1314.6879144533
 20
1686.1629023818
 10
1315.4639080361
 20
1685.7201753782
 10
1315.8918493849
 20
1685.2141743907
 10
1315.9613802834
 20
1684.6571470503
 10
1315.670817753
 20
1684.0625760683
 10
1315.0271947892
 20
1683.444852891
 10
1314.0460901294
 20
1682.8189293576
 10
1312.7512511735
 20
1682.1999557953
 10
1311.1740191837
 20
1681.6029143086
 10
1309.352570677
 20
1681.0422561416
 10
1307.330993372
 20
1680.5315518891
 10
1305.1582190559
 20
1680.0831630234
  0
LWPOLYLINE
  5
B5
330
1F
100
AcDbEntity
  8
0
  6
Continuous
 62
     7
370
    25
100
AcDbPolyline
 90
       24
 70
   128
 43
0.0
 10
1276.3352832324
 20
1742.1918865339
 10
1276.9940503786
 20
1740.8726690518
 10
1277.9920148674
 20
1739.6056914941
 10
1279.3113679989
 20
1738.4135631054
 10
1280.9285658852
 20
1737.3175574449
 10
1282.8147495917
 20
1736.3372327596
 10
1284.9362601255
 20
1735.4900829669
 10
1287.2552390808
 20
1734.7912254747
 10
1289.7303042232
 20
1734.2531314117
 10
1292.3172879568
 20
1733.885403079
 10
1294.9700254953
 20
1733.6946025976
 10
1297.6411786747
 20
1733.6841348065
 10
1300.2830807031
 20
1733.8541865038
 10
1302.8485867763
 20
1734.2017231127
 10
1305.2919153776
 20
1734.7205428344
 10
1307.5694652502
 20
1735.4013873186
 10
1309.6405934627
 20
1736.2321068793
 10
1311.4683406831
 20
1737.1978773064
 10
1313.020090719
 20
1738.2814644036
 10
1314.2681525541
 20
1739.4635315335
 10
1315.1902544955
 20
1740.7229846803
 10
1315.7699416122
 20
1742.0373488726
 10
1315.9968693739
 20
1743.3831692503
 10
1315.9995557459
 20
1743.4873066552
  0
LWPOLYLINE
  5
B6
330
1F
100
AcDbEntity
  8
0
  6
Continuous
 62
     7
370
    25
100
AcDbPolyline
 90
        3
 70
   128
 43
0.0
 10
1276.0044477656
 20
1744.1128765088
 10
1276.0274691442
 20
1743.5398024732
 10
1276.3352832324
 20
1742.1918865339
  0
LWPOLYLINE
  5
B7
330
1F
100
AcDbEntity
  8
0
  6
Continuous
 62
     7
370
    25
100
AcDbPolyline
 90
       24
 70
   128
 43
0.0
 10
1274.9868079221
 20
1655.9786278038
 10
1275.6455750683
 20
1654.6594103217
 10
1276.6435395571
 20
1653.392432764
 10
1277.9628926886
 20
1652.2003043752
 10
1279.5800905749
 20
1651.1042987147
 10
1281.4662742814
 20
1650.1239740295
 10
1283.5877848151
 20
1649.2768242367
 10
1285.9067637705
 20
1648.5779667446
 10
1288.3818289129
 20
1648.0398726815
 10
1290.9688126464
 20
1647.6721443489
 10
1293.621550185
 20
1647.4813438675
 10
1296.2927033644
 20
1647.4708760764
 10
1298.9346053928
 20
1647.6409277736
 10
1301.500111466
 20
1647.9884643826
 10
1303.9434400672
 20
1648.5072841043
 10
1306.2209899399
 20
1649.1881285885
 10
1308.2921181524
 20
1650.0188481492
 10
1310.1198653728
 20
1650.9846185763
 10
1311.6716154087
 20
1652.0682056735
 10
1312.9196772438
 20
1653.2502728034
 10
1313.8417791852
 20
1654.5097259502
 10
1314.4214663019
 20
1655.8240901425
 10
1314.6483940635
 20
1657.1699105202
 10
1314.6510804356
 20
1657.274047925
  0
LWPOLYLINE
  5
B8
330
1F
100
AcDbEntity
  8
0
  6
Continuous
 62
     7
370
    25
100
AcDbPolyline
 90
        3
 70
   128
 43
0.0
 10
1274.6559724553
 20
1657.8996177787
 10
1274.6789938339
 20
1657.3265437431
 10
1274.9868079221
 20
1655.9786278038
  0
LWPOLYLINE
  5
B9
330
1F
100
AcDbEntity
  8
0
  6
Continuous
 62
     7
370
    25
100
AcDbPolyline
 90
       39
 70
   128
 43
0.0
 10
1299.2939010132
 20
1679.7796025321
 10
1297.2142481737
 20
1679.6529148976
 10
1295.2401632843
 20
1679.620420109
 10
1293.4254942347
 20
1679.6830045394
 10
1291.8197404661
 20
1679.8389610486
 10
1290.4667027553
 20
1680.0840355496
 10
1289.4032884441
 20
1680.4115430489
 10
1288.6585047028
 20
1680.8125499957
 10
1288.2526672902
 20
1681.2761179657
 10
1288.1968463931
 20
1681.7896020333
 10
1288.49256466
 20
1682.3389956916
 10
1289.1317556675
 20
1682.9093129137
 10
1290.0969839511
 20
1683.4849969326
 10
1291.3619205995
 20
1684.0503445889
 10
1292.8920614383
 20
1684.5899346722
 10
1294.6456682142
 20
1685.0890485718
 10
1296.5749071056
 20
1685.5340717616
 10
1298.6271535048
 20
1685.9128651689
 10
1300.7464274798
 20
1686.2150962972
 10
1302.8749207612
 20
1686.432521069
 10
1304.9545736006
 20
1686.5592087035
 10
1306.92865849
 20
1686.5917034921
 10
1308.7433275396
 20
1686.5291190617
 10
1310.3490813082
 20
1686.3731625525
 10
1311.702119019
 20
1686.1280880515
 10
1312.7655333302
 20
1685.8005805522
 10
1313.5103170716
 20
1685.3995736054
 10
1313.9161544841
 20
1684.9360056354
 10
1313.9719753812
 20
1684.4225215678
 10
1313.6762571143
 20
1683.8731279095
 10
1313.0370661068
 20
1683.3028106874
 10
1312.0718378232
 20
1682.7271266685
 10
1310.8069011748
 20
1682.1617790122
 10
1309.276760336
 20
1681.6221889289
 10
1307.5231535602
 20
1681.1230750293
 10
1305.5939146687
 20
1680.6780518395
 10
1303.5416682695
 20
1680.2992584322
 10
1301.4223942945
 20
1679.9970273039
 10
1299.2939010132
 20
1679.7796025321
  0
ARC
  5
BA
330
1F
100
AcDbEntity
  8
0
  6
Continuous
 62
     7
370
    25
100
AcDbCircle
 10
1294.5722960657
 20
1736.1242436311
 30
0.0
 40
57.03213551359264
100
AcDbArc
 50
268.6527925113
 51
280.6968913301
  0
LWPOLYLINE
  5
BB
330
1F
100
AcDbEntity
  8
0
  6
Continuous
 62
     7
370
    25
100
AcDbPolyline
 90
       11
 70
   128
 43
0.0
 10
1216.4321567296
 20
3161.4101129721
 10
1218.856887737
 20
3162.0577796224
 10
1221.1104476711
 20
3162.8862381964
 10
1223.1526217016
 20
3163.8807048312
 10
1224.9469671844
 20
3165.0234332462
 10
1226.461463982
 20
3166.2940314257
 10
1227.669085863
 20
3167.6698255151
 10
1228.5482827865
 20
3169.1262644363
 10
1229.0833654624
 20
3170.6373580023
 10
1229.2647853278
 20
3172.1761407126
 10
1229.2647977387
 20
3172.1890031413
  0
LWPOLYLINE
  5
BC
330
1F
100
AcDbEntity
  8
0
  6
Continuous
 62
     7
370
    25
100
AcDbPolyline
 90
       16
 70
   128
 43
0.0
 10
1189.2647977387
 20
3172.1890031413
 10
1189.3079843564
 20
3171.4306659909
 10
1189.6611377781
 20
3169.9018568237
 10
1190.3641189763
 20
3168.4138618367
 10
1191.4043832347
 20
3166.9932343356
 10
1192.763367013
 20
3165.6653254521
 10
1194.4168192136
 20
3164.4538317514
 10
1196.3352339427
 20
3163.3803723674
 10
1198.4843770441
 20
3162.4641032083
 10
1200.8258970082
 20
3161.7213751189
 10
1203.3180093557
 20
3161.1654420995
 10
1205.9162422828
 20
3160.806224788
 10
1208.5742302613
 20
3160.650133426
 10
1211.2445414328
 20
3160.6999534673
 10
1213.8795240312
 20
3160.9547958723
 10
1216.4321567296
 20
3161.4101129721
  0
LWPOLYLINE
  5
BD
330
1F
100
AcDbEntity
  8
0
  6
Continuous
 62
     7
370
    25
100
AcDbPolyline
 90
       11
 70
   128
 43
0.0
 10
1216.4321567296
 20
3079.7560317836
 10
1218.856887737
 20
3080.4036984338
 10
1221.1104476711
 20
3081.2321570078
 10
1223.1526217016
 20
3082.2266236426
 10
1224.9469671844
 20
3083.3693520576
 10
1226.461463982
 20
3084.6399502371
 10
1227.669085863
 20
3086.0157443265
 10
1228.5482827865
 20
3087.4721832477
 10
1229.0833654624
 20
3088.9832768137
 10
1229.2647853278
 20
3090.522059524
 10
1229.2647977387
 20
3090.5349219528
  0
LWPOLYLINE
  5
BE
330
1F
100
AcDbEntity
  8
0
  6
Continuous
 62
     7
370
    25
100
AcDbPolyline
 90
       16
 70
   128
 43
0.0
 10
1189.2647977387
 20
3090.5349219528
 10
1189.3079843564
 20
3089.7765848024
 10
1189.6611377781
 20
3088.2477756351
 10
1190.3641189763
 20
3086.7597806481
 10
1191.4043832347
 20
3085.3391531471
 10
1192.763367013
 20
3084.0112442635
 10
1194.4168192136
 20
3082.7997505628
 10
1196.3352339427
 20
3081.7262911788
 10
1198.4843770441
 20
3080.8100220197
 10
1200.8258970082
 20
3080.0672939303
 10
1203.3180093557
 20
3079.5113609109
 10
1205.9162422828
 20
3079.1521435994
 10
1208.5742302613
 20
3078.9960522374
 10
1211.2445414328
 20
3079.0458722787
 10
1213.8795240312
 20
3079.3007146837
 10
1216.4321567296
 20
3079.7560317836
  0
LINE
  5
BF
330
1F
100
AcDbEntity
  8
0
  6
Continuous
 62
     7
370
    25
100
AcDbLine
 10
1229.2429026287
 20
3156.1812231983
 30
0.0
 11
1229.2356067157
 21
3156.4510959114
 31
0.0
  0
LWPOLYLINE
  5
C0
330
1F
100
AcDbEntity
  8
0
  6
Continuous
 62
     7
370
    25
100
AcDbPolyline
 90
        3
 70
   128
 43
0.0
 10
1229.6722548132
 20
3122.6977994283
 10
1229.4726564536
 20
3122.3952727006
 10
1229.3363775254
 20
3122.0754012283
  0
LWPOLYLINE
  5
C1
330
1F
100
AcDbEntity
  8
0
  6
Continuous
 62
     7
370
    25
100
AcDbPolyline
 90
       21
 70
   128
 43
0.0
 10
1232.1564113893
 20
3123.217357004
 10
1233.6232746967
 20
3122.9109183853
 10
1235.2212448957
 20
3122.931320437
 10
1236.9116435059
 20
3123.2780693322
 10
1238.6535548398
 20
3123.9427720984
 10
1240.4048163567
 20
3124.9093397665
 10
1242.1230391974
 20
3126.1543768011
 10
1243.7666341955
 20
3127.6477473833
 10
1245.2958185334
 20
3129.353304841
 10
1246.673578676
 20
3131.2297665706
 10
1247.8665662737
 20
3133.2317132718
 10
1248.8459053518
 20
3135.3106883112
 10
1249.5878912458
 20
3137.4163706033
 10
1250.0745643674
 20
3139.4977926198
 10
1250.2941449121
 20
3141.5045740468
 10
1250.241317986
 20
3143.3881412274
 10
1249.9173622522
 20
3145.1029028758
 10
1249.3301189804
 20
3146.6073536031
 10
1248.4938022513
 20
3147.8650785448
 10
1247.4286549081
 20
3148.8456347746
 10
1247.2414405156
 20
3148.9732932295
  0
LINE
  5
C2
330
1F
100
AcDbEntity
  8
0
  6
Continuous
 62
     7
370
    25
100
AcDbLine
 10
1231.9476525153
 20
3123.2920207076
 30
0.0
 11
1232.1564113893
 21
3123.217357004
 31
0.0
  0
LWPOLYLINE
  5
C3
330
1F
100
AcDbEntity
  8
0
  6
Continuous
 62
     7
370
    25
100
AcDbPolyline
 90
       25
 70
   128
 43
0.0
 10
1288.8149632136
 20
2563.138834445
 10
1288.8943184707
 20
2562.1524732146
 10
1289.3101948316
 20
2560.8107862761
 10
1290.0740905972
 20
2559.5050617578
 10
1291.1723740295
 20
2558.2586003448
 10
1292.5854462346
 20
2557.0936451705
 10
1294.2880909056
 20
2556.0309848876
 10
1296.249924308
 20
2555.089582694
 10
1298.4359374783
 20
2554.2862379342
 10
1300.8071209595
 20
2553.6352863144
 10
1303.3211609264
 20
2553.1483440817
 10
1305.9331942762
 20
2552.8341007318
 10
1308.5966092118
 20
2552.6981639446
 10
1311.2638770306
 20
2552.7429595155
 10
1313.8874002753
 20
2552.9676880664
 10
1316.4203621113
 20
2553.3683393109
 10
1318.8175617747
 20
2553.9377636181
 10
1321.0362211808
 20
2554.6657995978
 10
1323.0367482997
 20
2555.5394554306
 10
1324.7834436778
 20
2556.5431407076
 10
1326.2451374946
 20
2557.6589446411
 10
1327.3957457893
 20
2558.8669556835
 10
1328.2147359297
 20
2560.1456168492
 10
1328.6874930172
 20
2561.4721103995
 10
1328.8100711939
 20
2562.5132645914
  0
LWPOLYLINE
  5
C4
330
1F
100
AcDbEntity
  8
0
  6
Continuous
 62
     7
370
    25
100
AcDbPolyline
 90
       25
 70
   128
 43
0.0
 10
1287.4664879033
 20
2476.9255757149
 10
1287.5458431604
 20
2475.9392144845
 10
1287.9617195213
 20
2474.5975275459
 10
1288.7256152868
 20
2473.2918030277
 10
1289.8238987191
 20
2472.0453416147
 10
1291.2369709243
 20
2470.8803864404
 10
1292.9396155953
 20
2469.8177261575
 10
1294.9014489977
 20
2468.8763239639
 10
1297.087462168
 20
2468.0729792041
 10
1299.4586456492
 20
2467.4220275842
 10
1301.9726856161
 20
2466.9350853515
 10
1304.5847189659
 20
2466.6208420016
 10
1307.2481339015
 20
2466.4849052145
 10
1309.9154017203
 20
2466.5297007854
 10
1312.538924965
 20
2466.7544293363
 10
1315.071886801
 20
2467.1550805808
 10
1317.4690864644
 20
2467.724504888
 10
1319.6877458704
 20
2468.4525408677
 10
1321.6882729894
 20
2469.3261967005
 10
1323.4349683675
 20
2470.3298819774
 10
1324.8966621843
 20
2471.4456859109
 10
1326.047270479
 20
2472.6536969534
 10
1326.8662606194
 20
2473.9323581191
 10
1327.3390177069
 20
2475.2588516693
 10
1327.4615958836
 20
2476.3000058613
  0
LINE
  5
C5
330
1F
100
AcDbEntity
  8
0
  6
Continuous
 62
     7
370
    25
100
AcDbLine
 10
1286.1661613352
 20
2506.2802674319
 30
0.0
 11
1286.2915725042
 21
2506.4177279596
 31
0.0
  0
LWPOLYLINE
  5
C6
330
1F
100
AcDbEntity
  8
0
  6
Continuous
 62
     7
370
    25
100
AcDbPolyline
 90
       22
 70
   128
 43
0.0
 10
1266.4356816218
 20
2528.8766464328
 10
1266.2892331585
 20
2528.7310266315
 10
1265.915606458
 20
2528.0336109857
 10
1265.7926615438
 20
2527.0824980955
 10
1265.9233742676
 20
2525.9007094171
 10
1266.3045807598
 20
2524.5168498585
 10
1266.9270540099
 20
2522.9644154038
 10
1267.7757272041
 20
2521.2809823518
 10
1268.830058414
 20
2519.5072977904
 10
1270.0645278088
 20
2517.6862933234
 10
1271.4492553569
 20
2515.8620459214
 10
1272.9507240645
 20
2514.0787110494
 10
1274.5325912464
 20
2512.3794538946
 10
1276.1565681918
 20
2510.8054045635
 10
1277.7833469336
 20
2509.3946625376
 10
1279.3735516875
 20
2508.1813744848
 10
1280.888691934
 20
2507.1949077476
 10
1282.2920940715
 20
2506.4591395136
 10
1283.5497890925
 20
2505.9918788741
 10
1284.6313347945
 20
2505.8044357594
 10
1285.5105526268
 20
2505.9013471845
 10
1286.1089626659
 20
2506.2279817269
  0
LWPOLYLINE
  5
C7
330
1F
100
AcDbEntity
  8
0
  6
Continuous
 62
     7
370
    25
100
AcDbPolyline
 90
       26
 70
   128
 43
0.0
 10
1189.2647977387
 20
2296.8572527998
 10
1189.3046371237
 20
2296.1288657112
 10
1189.6509053972
 20
2294.5995317616
 10
1190.3471840443
 20
2293.1104868975
 10
1191.3810479559
 20
2291.6883031596
 10
1192.734047806
 20
2290.3583594505
 10
1194.3820392803
 20
2289.1443886471
 10
1196.2956139319
 20
2288.0680540873
 10
1198.4406239757
 20
2287.1485629868
 10
1200.7787916568
 20
2286.402323686
 10
1203.2683923174
 20
2285.8426528428
 10
1205.8649989749
 20
2285.4795377969
 10
1208.5222751218
 20
2285.3194583447
 10
1211.1928016024
 20
2285.3652711079
 10
1213.8289228084
 20
2285.6161585567
 10
1216.3835970944
 20
2286.0676435985
 10
1218.8112362373
 20
2286.7116694722
 10
1221.0685189589
 20
2287.5367435206
 10
1223.1151639958
 20
2288.528142278
 10
1224.9146489187
 20
2289.6681742099
 10
1226.4348618765
 20
2290.9364954196
 10
1227.648674633
 20
2292.3104726851
 10
1228.5344266709
 20
2293.7655873493
 10
1229.0763117239
 20
2295.2758728568
 10
1229.2646598405
 20
2296.8143781268
 10
1229.2647977387
 20
2296.8572527998
  0
LWPOLYLINE
  5
C8
330
1F
100
AcDbEntity
  8
0
  6
Continuous
 62
     7
370
    25
100
AcDbPolyline
 90
       26
 70
   128
 43
0.0
 10
1189.2647977387
 20
2215.2031716112
 10
1189.3046371237
 20
2214.4747845227
 10
1189.6509053972
 20
2212.9454505731
 10
1190.3471840443
 20
2211.4564057089
 10
1191.3810479559
 20
2210.034221971
 10
1192.734047806
 20
2208.7042782619
 10
1194.3820392803
 20
2207.4903074586
 10
1196.2956139319
 20
2206.4139728988
 10
1198.4406239757
 20
2205.4944817982
 10
1200.7787916568
 20
2204.7482424974
 10
1203.2683923174
 20
2204.1885716543
 10
1205.8649989749
 20
2203.8254566083
 10
1208.5222751218
 20
2203.6653771561
 10
1211.1928016024
 20
2203.7111899194
 10
1213.8289228084
 20
2203.9620773681
 10
1216.3835970944
 20
2204.4135624099
 10
1218.8112362373
 20
2205.0575882836
 10
1221.0685189589
 20
2205.882662332
 10
1223.1151639958
 20
2206.8740610894
 10
1224.9146489187
 20
2208.0140930214
 10
1226.4348618765
 20
2209.2824142311
 10
1227.648674633
 20
2210.6563914965
 10
1228.5344266709
 20
2212.1115061608
 10
1229.0763117239
 20
2213.6217916682
 10
1229.2646598405
 20
2215.1602969383
 10
1229.2647977387
 20
2215.2031716112
  0
LINE
  5
C9
330
1F
100
AcDbEntity
  8
0
  6
Continuous
 62
     7
370
    25
100
AcDbLine
 10
1189.3102668087
 20
2277.5083607822
 30
0.0
 11
1189.3288400028
 21
2277.6531529083
 31
0.0
  0
LWPOLYLINE
  5
CA
330
1F
100
AcDbEntity
  8
0
  6
Continuous
 62
     7
370
    25
100
AcDbPolyline
 90
       22
 70
   128
 43
0.0
 10
1172.2278223036
 20
2250.7801007493
 10
1172.225456442
 20
2250.7565442207
 10
1172.4054343131
 20
2250.5381967493
 10
1172.8862192923
 20
2250.1289024792
 10
1173.656174096
 20
2249.5385682785
 10
1174.6966621552
 20
2248.7814830433
 10
1175.9824987093
 20
2247.8759718376
 10
1177.4825603971
 20
2246.8439523401
 10
1179.1605385898
 20
2245.710404332
 10
1180.9758182332
 20
2244.5027650673
 10
1182.8844609247
 20
2243.2502651608
 10
1184.8402684316
 20
2241.9832210686
 10
1186.7959009086
 20
2240.7323012849
 10
1188.7040227469
 20
2239.5277840191
 10
1190.518448321
 20
2238.3988243189
 10
1192.1952599009
 20
2237.3727483794
 10
1193.6938706698
 20
2236.4743921195
 10
1194.9780071182
 20
2235.7255000341
 10
1196.0165870354
 20
2235.1441988741
 10
1196.784471847
 20
2234.7445588928
 10
1197.2630750877
 20
2234.5362532789
 10
1197.4382521212
 20
2234.5186669745
  0
LWPOLYLINE
  5
CB
330
1F
100
AcDbEntity
  8
0
  6
Continuous
 62
     7
370
    25
100
AcDbPolyline
 90
       26
 70
   128
 43
0.0
 10
1189.2647977387
 20
2039.6468970558
 10
1189.302328816
 20
2038.9399058936
 10
1189.6436776914
 20
2037.4102034261
 10
1190.3351659188
 20
2035.9204148093
 10
1191.3644538745
 20
2034.4971253566
 10
1192.7131738906
 20
2033.1657337018
 10
1194.3572580263
 20
2031.9499985606
 10
1196.2673675613
 20
2030.8716147554
 10
1198.4094165458
 20
2029.9498260707
 10
1200.7451800649
 20
2029.2010818475
 10
1203.2329763631
 20
2028.6387434441
 10
1205.8284106567
 20
2028.2728458028
 10
1208.4851673592
 20
2028.1099183755
 10
1211.1558365843
 20
2028.152868606
 10
1213.7927601764
 20
2028.4009300466
 10
1216.3488821715
 20
2028.8496760349
 10
1218.778588512
 20
2029.491098688
 10
1221.0385210309
 20
2030.3137518037
 10
1223.0883511787
 20
2031.3029551174
 10
1224.8914996878
 20
2032.4410562727
 10
1226.4157893305
 20
2033.7077458276
 10
1227.6340191219
 20
2035.0804196767
 10
1228.5244497225
 20
2036.5345824229
 10
1229.0711913772
 20
2038.0442844975
 10
1229.2644874682
 20
2039.5825852311
 10
1229.2647977387
 20
2039.6468970558
  0
LWPOLYLINE
  5
CC
330
1F
100
AcDbEntity
  8
0
  6
Continuous
 62
     7
370
    25
100
AcDbPolyline
 90
       26
 70
   128
 43
0.0
 10
1189.2647977387
 20
1957.9928158672
 10
1189.302328816
 20
1957.285824705
 10
1189.6436776914
 20
1955.7561222375
 10
1190.3351659188
 20
1954.2663336208
 10
1191.3644538745
 20
1952.843044168
 10
1192.7131738906
 20
1951.5116525132
 10
1194.3572580263
 20
1950.295917372
 10
1196.2673675613
 20
1949.2175335668
 10
1198.4094165458
 20
1948.2957448821
 10
1200.7451800649
 20
1947.5470006589
 10
1203.2329763631
 20
1946.9846622556
 10
1205.8284106567
 20
1946.6187646142
 10
1208.4851673592
 20
1946.4558371869
 10
1211.1558365843
 20
1946.4987874175
 10
1213.7927601764
 20
1946.746848858
 10
1216.3488821715
 20
1947.1955948463
 10
1218.778588512
 20
1947.8370174994
 10
1221.0385210309
 20
1948.6596706151
 10
1223.0883511787
 20
1949.6488739288
 10
1224.8914996878
 20
1950.7869750842
 10
1226.4157893305
 20
1952.053664639
 10
1227.6340191219
 20
1953.4263384882
 10
1228.5244497225
 20
1954.8805012344
 10
1229.0711913772
 20
1956.3902033089
 10
1229.2644874682
 20
1957.9285040425
 10
1229.2647977387
 20
1957.9928158672
  0
ARC
  5
CD
330
1F
100
AcDbEntity
  8
0
  6
Continuous
 62
     7
370
    25
100
AcDbCircle
 10
1201.0150194324
 20
2015.4653172097
 30
0.0
 40
14.74719871498879
100
AcDbArc
 50
142.823376045
 51
217.176623955
  0
LWPOLYLINE
  5
CE
330
1F
100
AcDbEntity
  8
0
  6
Continuous
 62
     7
370
    25
100
AcDbPolyline
 90
       36
 70
   128
 43
0.0
 10
1209.1507687788
 20
1280.378791174
 10
1207.3687263336
 20
1280.2744274399
 10
1205.8323788801
 20
1280.2553205022
 10
1204.5789133352
 20
1280.3219328397
 10
1203.6386695276
 20
1280.472652117
 10
1203.0344058303
 20
1280.7038302105
 10
1202.7807482992
 20
1281.0098715108
 10
1202.8838366532
 20
1281.3833683624
 10
1203.3411756638
 20
1281.815280365
 10
1204.1416955513
 20
1282.2951531933
 10
1205.2660199264
 20
1282.8113716423
 10
1206.6869347909
 20
1283.3514407698
 10
1208.3700472457
 20
1283.9022883338
 10
1210.2746179629
 20
1284.450581203
 10
1212.3545472711
 20
1284.9830480816
 10
1214.559490987
 20
1285.4868007383
 10
1216.8360789836
 20
1285.9496459624
 10
1219.1292070019
 20
1286.3603806978
 10
1221.3833704354
 20
1286.70906321
 10
1223.5440078059
 20
1286.9872537235
 10
1225.558821411
 20
1287.1882187045
 10
1227.3790431771
 20
1287.3070938447
 10
1228.9606150786
 20
1287.3410017999
 10
1230.265255552
 20
1287.2891218365
 10
1231.2613860917
 20
1287.1527096964
 10
1231.9248956001
 20
1286.9350672022
 10
1232.2397239908
 20
1286.6414623376
 10
1232.198250919
 20
1286.2790017371
 10
1231.8014802304
 20
1285.8564586713
 10
1231.0590156631
 20
1285.3840606925
 10
1229.9888283915
 20
1284.873242079
 10
1228.6168220385
 20
1284.3363670712
 10
1226.9762056843
 20
1283.7864305981
 10
1225.1066900492
 20
1283.2367437385
 10
1223.0535263048
 20
1282.7006115292
 10
1220.8664107805
 20
1282.19101092
  0
LWPOLYLINE
  5
CF
330
1F
100
AcDbEntity
  8
0
  6
Continuous
 62
     7
370
    25
100
AcDbPolyline
 90
       23
 70
   128
 43
0.0
 10
1189.9462812129
 20
1340.9658642413
 10
1190.8085949557
 20
1339.5060652983
 10
1192.0002600744
 20
1338.125642092
 10
1193.5000112768
 20
1336.8492283071
 10
1195.281085467
 20
1335.6996015779
 10
1197.311699334
 20
1334.6972770205
 10
1199.5556165252
 20
1333.8601411406
 10
1201.9727942852
 20
1333.2031326476
 10
1204.5200980195
 20
1332.7379758737
 10
1207.1520710328
 20
1332.4729715525
 10
1209.8217457041
 20
1332.4128486925
 10
1212.4814816259
 20
1332.5586801875
 10
1215.0838157474
 20
1332.907863671
 10
1217.5823093547
 20
1333.4541679555
 10
1219.9323767702
 20
1334.1878442281
 10
1222.0920809852
 20
1335.0958000183
 10
1224.0228820267
 20
1336.1618328335
 10
1225.6903247045
 20
1337.3669192929
 10
1227.0646534645
 20
1338.6895546001
 10
1228.1213433773
 20
1340.1061362966
 10
1228.8415377866
 20
1341.5913854486
 10
1229.2123848058
 20
1343.1187977498
 10
1229.2647977387
 20
1343.9541253292
  0
LWPOLYLINE
  5
D0
330
1F
100
AcDbEntity
  8
0
  6
Continuous
 62
     7
370
    25
100
AcDbPolyline
 90
        3
 70
   128
 43
0.0
 10
1189.2647977387
 20
1343.9541253292
 10
1189.4287068551
 20
1342.4789887742
 10
1189.9462812129
 20
1340.9658642413
  0
LWPOLYLINE
  5
D1
330
1F
100
AcDbEntity
  8
0
  6
Continuous
 62
     7
370
    25
100
AcDbPolyline
 90
       23
 70
   128
 43
0.0
 10
1189.9462812129
 20
1259.3117830527
 10
1190.8085949557
 20
1257.8519841098
 10
1192.0002600744
 20
1256.4715609034
 10
1193.5000112768
 20
1255.1951471185
 10
1195.281085467
 20
1254.0455203893
 10
1197.311699334
 20
1253.0431958319
 10
1199.5556165252
 20
1252.206059952
 10
1201.9727942852
 20
1251.549051459
 10
1204.5200980195
 20
1251.0838946851
 10
1207.1520710328
 20
1250.818890364
 10
1209.8217457041
 20
1250.7587675039
 10
1212.4814816259
 20
1250.9045989989
 10
1215.0838157474
 20
1251.2537824824
 10
1217.5823093547
 20
1251.8000867669
 10
1219.9323767702
 20
1252.5337630395
 10
1222.0920809852
 20
1253.4417188297
 10
1224.0228820267
 20
1254.5077516449
 10
1225.6903247045
 20
1255.7128381043
 10
1227.0646534645
 20
1257.0354734115
 10
1228.1213433773
 20
1258.452055108
 10
1228.8415377866
 20
1259.93730426
 10
1229.2123848058
 20
1261.4647165612
 10
1229.2647977387
 20
1262.3000441406
  0
LWPOLYLINE
  5
D2
330
1F
100
AcDbEntity
  8
0
  6
Continuous
 62
     7
370
    25
100
AcDbPolyline
 90
        3
 70
   128
 43
0.0
 10
1189.2647977387
 20
1262.3000441406
 10
1189.4287068551
 20
1260.8249075856
 10
1189.9462812129
 20
1259.3117830527
  0
LWPOLYLINE
  5
D3
330
1F
100
AcDbEntity
  8
0
  6
Continuous
 62
     7
370
    25
100
AcDbPolyline
 90
       39
 70
   128
 43
0.0
 10
1215.1402515026
 20
1281.4166160088
 10
1213.1058800608
 20
1281.129374295
 10
1211.1918983913
 20
1280.914891451
 10
1209.4505149247
 20
1280.7790180096
 10
1207.9292300625
 20
1280.7254602441
 10
1206.66954049
 20
1280.7556790708
 10
1205.705807255
 20
1280.8688501989
 10
1205.064318488
 20
1281.0618866149
 10
1204.7625723301
 20
1281.3295227886
 10
1204.80879963
 20
1281.664458303
 10
1205.2017394275
 20
1282.0575569903
 10
1205.9306733493
 20
1282.498096143
 10
1206.975717978
 20
1282.9740590015
 10
1208.3083672206
 20
1283.4724625397
 10
1209.8922698795
 20
1283.9797116083
 10
1211.6842212192
 20
1284.4819697751
 10
1213.6353414785
 20
1284.9655367465
 10
1215.6924091827
 20
1285.4172220761
 10
1217.7993128874
 20
1285.8247049656
 10
1219.8985817518
 20
1286.176870344
 10
1221.9329531935
 20
1286.4641120578
 10
1223.846934863
 20
1286.6785949019
 10
1225.5883183296
 20
1286.8144683433
 10
1227.1096031918
 20
1286.8680261087
 10
1228.3692927643
 20
1286.837807282
 10
1229.3330259993
 20
1286.724636154
 10
1229.9745147664
 20
1286.531599738
 10
1230.2762609242
 20
1286.2639635642
 10
1230.2300336243
 20
1285.9290280498
 10
1229.8370938268
 20
1285.5359293626
 10
1229.108159905
 20
1285.0953902098
 10
1228.0631152763
 20
1284.6194273514
 10
1226.7304660337
 20
1284.1210238132
 10
1225.1465633748
 20
1283.6137747446
 10
1223.3546120351
 20
1283.1115165778
 10
1221.4034917758
 20
1282.6279496064
 10
1219.3464240716
 20
1282.1762642768
 10
1217.2395203669
 20
1281.7687813873
 10
1215.1402515026
 20
1281.4166160088
  0
ARC
  5
D4
330
1F
100
AcDbEntity
  8
0
  6
Continuous
 62
     7
370
    25
100
AcDbCircle
 10
1201.4372045059
 20
1369.0212209277
 30
0.0
 40
88.97740964108407
100
AcDbArc
 50
274.9732863217
 51
282.6127915441
  0
LWPOLYLINE
  5
D5
330
1F
100
AcDbEntity
  8
0
  6
Continuous
 62
     7
370
    25
100
AcDbPolyline
 90
       81
 70
   128
 43
0.0
 10
1329.4729505404
 20
1100.618328384
 10
1333.537708593
 20
1098.1284103442
 10
1337.339815199
 20
1095.503855069
 10
1340.86591532
 20
1092.7538814043
 10
1344.103623401
 20
1089.8881487331
 10
1347.0415668742
 20
1086.9167230458
 10
1349.6694261059
 20
1083.8500415836
 10
1351.9779706448
 20
1080.6988761769
 10
1353.959091644
 20
1077.4742954092
 10
1355.6058303437
 20
1074.1876257379
 10
1356.9124025142
 20
1070.8504117103
 10
1357.874218773
 20
1067.4743754122
 10
1358.4879007056
 20
1064.0713752944
 10
1358.7512927317
 20
1060.6533645188
 10
1358.6634696772
 20
1057.2323489729
 10
1358.2247400238
 20
1053.8203450986
 10
1357.4366448255
 20
1050.429337684
 10
1356.3019522953
 20
1047.0712377663
 10
1354.8246480821
 20
1043.7578407939
 10
1353.0099212709
 20
1040.5007851945
 10
1350.8641461557
 20
1037.3115114947
 10
1348.39485985
 20
1034.2012221347
 10
1345.610735812
 20
1031.1808421193
 10
1342.5215533788
 20
1028.2609806435
 10
1339.1381634164
 20
1025.4518938272
 10
1335.4724502055
 20
1022.7634486903
 10
1331.5372896974
 20
1020.2050884943
 10
1327.3465042869
 20
1017.7857995729
 10
1322.9148142606
 20
1015.5140797665
 10
1318.2577860914
 20
1013.3979085738
 10
1313.3917777605
 20
1011.4447191233
 10
1308.3338812997
 20
1009.6613720642
 10
1303.1018627548
 20
1008.0541314681
 10
1297.7140997818
 20
1006.6286428262
 10
1292.1895170945
 20
1005.3899132194
 10
1286.5475199911
 20
1004.3422937304
 10
1280.8079261923
 20
1003.4894641612
 10
1274.9908962306
 20
1002.8344201065
 10
1269.1168626359
 20
1002.3794624325
 10
1263.2064581654
 20
1002.1261891947
 10
1257.2804433304
 20
1002.0754900245
 10
1251.3596334741
 20
1002.2275430046
 10
1245.4648256571
 20
1002.5818140434
 10
1239.6167256069
 20
1003.137058751
 10
1233.8358749881
 20
1003.8913268099
 10
1228.1425792493
 20
1004.8419688263
 10
1222.5568362996
 20
1005.9856456353
 10
1217.0982662648
 20
1007.3183400304
 10
1211.7860425711
 20
1008.8353708739
 10
1206.638824598
 20
1010.5314095398
 10
1201.6746921365
 20
1012.4004986303
 10
1196.9110818827
 20
1014.4360729017
 10
1192.3647261915
 20
1016.6309823254
 10
1188.0515943031
 20
1018.9775172018
 10
1183.9868362504
 20
1021.4674352416
 10
1180.1847296445
 20
1024.0919905169
 10
1176.6586295234
 20
1026.8419641815
 10
1173.4209214425
 20
1029.7076968527
 10
1170.4829779693
 20
1032.67912254
 10
1167.8551187376
 20
1035.7458040022
 10
1165.5465741987
 20
1038.8969694089
 10
1163.5654531995
 20
1042.1215501767
 10
1161.9187144998
 20
1045.4082198479
 10
1160.6121423293
 20
1048.7454338755
 10
1159.6503260704
 20
1052.1214701736
 10
1159.0366441379
 20
1055.5244702914
 10
1158.7732521118
 20
1058.9424810671
 10
1158.8610751663
 20
1062.3634966129
 10
1159.2998048196
 20
1065.7755004872
 10
1160.087900018
 20
1069.1665079018
 10
1161.2225925482
 20
1072.5246078195
 10
1162.6998967614
 20
1075.838004792
 10
1164.5146235726
 20
1079.0950603913
 10
1166.6603986877
 20
1082.2843340911
 10
1169.1296849934
 20
1085.3946234511
 10
1171.9138090315
 20
1088.4150034665
 10
1175.0029914647
 20
1091.3348649423
 10
1178.3863814271
 20
1094.1439517586
 10
1182.052094638
 20
1096.8323968955
 10
1185.9872551461
 20
1099.3907570915
 10
1189.2647977387
 20
1101.3068804244
  0
ARC
  5
D6
330
1F
100
AcDbEntity
  8
0
  6
Continuous
 62
     7
370
    25
100
AcDbCircle
 10
1258.7232404372
 20
947.6308770409
 30
0.0
 40
169.9005131911382
100
AcDbArc
 50
87.4773112686
 51
99.9847717136
  0
ARC
  5
D7
330
1F
100
AcDbEntity
  8
0
  6
Continuous
 62
     7
370
    25
100
AcDbCircle
 10
1272.8737938019
 20
1000.9790067511
 30
0.0
 40
114.59257811471
100
AcDbArc
 50
60.4016763422
 51
73.1443523071
  0
LWPOLYLINE
  5
D8
330
1F
100
AcDbEntity
  8
0
  6
Continuous
 62
     7
370
    25
100
AcDbPolyline
 90
       78
 70
   128
 43
0.0
 10
1325.9374166345
 20
1098.5773081045
 10
1329.907732313
 20
1096.1410317898
 10
1333.6133822078
 20
1093.5695567226
 10
1337.040581058
 20
1090.8724489591
 10
1340.1765794588
 20
1088.0597419172
 10
1343.00971129
 20
1085.141899052
 10
1345.5294371153
 20
1082.1297749305
 10
1347.726383389
 20
1079.0345748523
 10
1349.5923773268
 20
1075.8678131649
 10
1351.1204773085
 20
1072.6412704299
 10
1352.304998702
 20
1069.3669495981
 10
1353.1415350098
 20
1066.0570313581
 10
1353.626974262
 20
1062.7238288232
 10
1353.7595105925
 20
1059.3797417256
 10
1353.5386509576
 20
1056.0372102891
 10
1352.9652169697
 20
1052.7086689501
 10
1352.0413418407
 20
1049.406500101
 10
1350.7704624469
 20
1046.1429880268
 10
1349.1573065432
 20
1042.9302732069
 10
1347.2078751753
 20
1039.7803071512
 10
1344.929420356
 20
1036.7048079405
 10
1342.330418087
 20
1033.7152166339
 10
1339.4205368273
 20
1030.8226547072
 10
1336.2106015263
 20
1028.0378826809
 10
1332.7125533543
 20
1025.3712600899
 10
1328.9394052801
 20
1022.8327069453
 10
1324.9051936625
 20
1020.4316668314
 10
1320.6249260335
 20
1018.1770717754
 10
1316.11452527
 20
1016.0773090188
 10
1311.3907703589
 20
1014.140189817
 10
1306.4712339789
 20
1012.3729203807
 10
1301.3742171284
 20
1010.7820750683
 10
1296.1186810448
 20
1009.3735719288
 10
1290.7241766675
 20
1008.1526506863
 10
1285.2107719072
 20
1007.1238532482
 10
1279.5989769916
 20
1006.2910068085
 10
1273.9096681665
 20
1005.6572096105
 10
1268.1640100343
 20
1005.2248194215
 10
1262.3833768207
 20
1004.9954447615
 10
1256.5892728609
 20
1004.9699389192
 10
1250.8032526022
 20
1005.148396778
 10
1245.04684042
 20
1005.5301544629
 10
1239.3414505456
 20
1006.1137918104
 10
1233.7083074042
 20
1006.8971376511
 10
1228.1683666582
 20
1007.8772778871
 10
1222.7422372511
 20
1009.0505663323
 10
1217.4501047406
 20
1010.4126382766
 10
1212.3116562073
 20
1011.958426723
 10
1207.3460070171
 20
1013.6821812368
 10
1202.5716297113
 20
1015.5774893381
 10
1198.006285287
 20
1017.6373003563
 10
1193.6669571253
 20
1019.8539516591
 10
1189.569787812
 20
1022.219197158
 10
1185.730019086
 20
1024.7242379844
 10
1182.1619351392
 20
1027.359755222
 10
1178.8788094783
 20
1030.1159445735
 10
1175.8928555462
 20
1032.9825528335
 10
1173.2151812878
 20
1035.948916031
 10
1170.8557478271
 20
1039.0039991
 10
1168.8233324117
 20
1042.1364369309
 10
1167.1254957603
 20
1045.3345766493
 10
1165.7685539368
 20
1048.5865209652
 10
1164.7575548539
 20
1051.8801724324
 10
1164.0962594946
 20
1055.2032784509
 10
1163.7871279211
 20
1058.5434768481
 10
1163.8313101232
 20
1061.8883418666
 10
1164.22864174
 20
1065.2254303889
 10
1164.977644672
 20
1068.5423282265
 10
1166.075532579
 20
1071.8266963015
 10
1167.518221246
 20
1075.0663165489
 10
1169.3003437762
 20
1078.2491373688
 10
1171.4152705568
 20
1081.3633184586
 10
1173.8551339214
 20
1084.3972748601
 10
1176.6108574179
 20
1087.3397200562
 10
1179.6721895739
 20
1090.1797079576
 10
1183.0277420328
 20
1092.9066736226
 10
1186.665031919
 20
1095.51047256
 10
1189.2647977387
 20
1097.188616671
  0
ARC
  5
D9
330
1F
100
AcDbEntity
  8
0
  6
Continuous
 62
     7
370
    25
100
AcDbCircle
 10
1258.7013226708
 20
953.8393028653
 30
0.0
 40
160.807486107811
100
AcDbArc
 50
87.3428842789
 51
100.547723323
  0
ARC
  5
DA
330
1F
100
AcDbEntity
  8
0
  6
Continuous
 62
     7
370
    25
100
AcDbCircle
 10
1272.6393322045
 20
1004.8362650106
 30
0.0
 40
107.8335243058798
100
AcDbArc
 50
60.3788590299
 51
71.9507644655
  0
LWPOLYLINE
  5
DB
330
1F
100
AcDbEntity
  8
0
  6
Continuous
 62
     7
370
    25
100
AcDbPolyline
 90
       55
 70
   128
 43
0.0
 10
1358.7622724217
 20
855.6627198215
 10
1358.6634696772
 20
853.0971460014
 10
1358.2247400238
 20
849.6851421272
 10
1357.4366448255
 20
846.2941347126
 10
1356.3019522953
 20
842.9360347948
 10
1354.8246480821
 20
839.6226378224
 10
1353.0099212709
 20
836.365582223
 10
1350.8641461557
 20
833.1763085233
 10
1348.39485985
 20
830.0660191633
 10
1345.610735812
 20
827.0456391479
 10
1342.5215533788
 20
824.1257776721
 10
1339.1381634164
 20
821.3166908558
 10
1335.4724502055
 20
818.6282457188
 10
1331.5372896974
 20
816.0698855229
 10
1327.3465042869
 20
813.6505966014
 10
1322.9148142606
 20
811.378876795
 10
1318.2577860914
 20
809.2627056023
 10
1313.3917777605
 20
807.3095161519
 10
1308.3338812997
 20
805.5261690928
 10
1303.1018627548
 20
803.9189284967
 10
1297.7140997818
 20
802.4934398548
 10
1292.1895170945
 20
801.2547102479
 10
1286.5475199911
 20
800.207090759
 10
1280.8079261923
 20
799.3542611897
 10
1274.9908962306
 20
798.699217135
 10
1269.1168626359
 20
798.2442594611
 10
1263.2064581654
 20
797.9909862233
 10
1257.2804433304
 20
797.9402870531
 10
1251.3596334741
 20
798.0923400332
 10
1245.4648256571
 20
798.446611072
 10
1239.6167256069
 20
799.0018557795
 10
1233.8358749881
 20
799.7561238385
 10
1228.1425792493
 20
800.7067658549
 10
1222.5568362996
 20
801.8504426638
 10
1217.0982662648
 20
803.1831370589
 10
1211.7860425711
 20
804.7001679025
 10
1206.638824598
 20
806.3962065684
 10
1201.6746921365
 20
808.2652956588
 10
1196.9110818827
 20
810.3008699303
 10
1192.3647261915
 20
812.495779354
 10
1188.0515943031
 20
814.8423142303
 10
1183.9868362504
 20
817.3322322701
 10
1180.1847296445
 20
819.9567875454
 10
1176.6586295234
 20
822.7067612101
 10
1173.4209214425
 20
825.5724938813
 10
1170.4829779693
 20
828.5439195686
 10
1167.8551187376
 20
831.6106010308
 10
1165.5465741987
 20
834.7617664375
 10
1163.5654531995
 20
837.9863472052
 10
1161.9187144998
 20
841.2730168764
 10
1160.6121423293
 20
844.6102309041
 10
1159.6503260704
 20
847.9862672021
 10
1159.0366441379
 20
851.38926732
 10
1158.7732521118
 20
854.8072780956
 10
1158.7622724217
 20
855.6627198215
  0
LWPOLYLINE
  5
DC
330
1F
100
AcDbEntity
  8
0
  6
Continuous
 62
     7
370
    25
100
AcDbPolyline
 90
       11
 70
   128
 43
0.0
 10
1325.9374166345
 20
1078.1637878073
 10
1329.907732313
 20
1075.7275114927
 10
1333.6133822078
 20
1073.1560364255
 10
1337.040581058
 20
1070.4589286619
 10
1340.1765794588
 20
1067.6462216201
 10
1343.00971129
 20
1064.7283787549
 10
1345.5294371153
 20
1061.7162546333
 10
1347.726383389
 20
1058.6210545551
 10
1349.5923773268
 20
1055.4542928678
 10
1351.1204773085
 20
1052.2277501327
 10
1352.1025017091
 20
1049.5911626443
  0
LWPOLYLINE
  5
DD
330
1F
100
AcDbEntity
  8
0
  6
Continuous
 62
     7
370
    25
100
AcDbPolyline
 90
       11
 70
   128
 43
0.0
 10
1165.4220431344
 20
1049.5911626443
 10
1166.075532579
 20
1051.4131760043
 10
1167.518221246
 20
1054.6527962518
 10
1169.3003437762
 20
1057.8356170717
 10
1171.4152705568
 20
1060.9497981615
 10
1173.8551339214
 20
1063.983754563
 10
1176.6108574179
 20
1066.9261997591
 10
1179.6721895739
 20
1069.7661876604
 10
1183.0277420328
 20
1072.4931533255
 10
1186.665031919
 20
1075.0969522629
 10
1189.2647977387
 20
1076.7750963739
  0
ARC
  5
DE
330
1F
100
AcDbEntity
  8
0
  6
Continuous
 62
     7
370
    25
100
AcDbCircle
 10
1258.6976383392
 20
933.45191756
 30
0.0
 40
160.781118295761
100
AcDbArc
 50
87.4549550277
 51
100.5481374297
  0
ARC
  5
DF
330
1F
100
AcDbEntity
  8
0
  6
Continuous
 62
     7
370
    25
100
AcDbCircle
 10
1272.5640125237
 20
984.2724013733
 30
0.0
 40
108.0014477351402
100
AcDbArc
 50
60.3835448866
 51
72.1149316797
  0
SPLINE
  5
E0
330
1F
100
AcDbEntity
  8
0
  6
Continuous
 62
     8
370
    25
100
AcDbSpline
210
0.0
220
0.0
230
1.0
 70
     8
 71
     3
 72
    22
 73
    18
 74
     0
 42
0.00000001
 43
0.00000001
 40
0.0
 40
0.0
 40
0.0
 40
0.0
 40
0.0450675482330704
 40
0.1273017797135911
 40
0.2127699457442958
 40
0.2982707076911452
 40
0.3857534103053177
 40
0.4732124652229558
 40
0.5376085877965021
 40
0.6024862159397754
 40
0.667089198381805
 40
0.7334576030027393
 40
0.7776470936007799
 40
0.8230138598081428
 40
0.9095681530171444
 40
0.9556291942130801
 40
1.0
 40
1.0
 40
1.0
 40
1.0
 10
1311.770625253696
 20
1475.324011452241
 30
0.0
 10
1311.778069041374
 20
1475.571738885264
 30
0.0
 10
1311.799095421916
 20
1476.271491686207
 30
0.0
 10
1311.573687030781
 20
1477.974133034795
 30
0.0
 10
1311.235297549318
 20
1480.196778899307
 30
0.0
 10
1310.81136237196
 20
1482.744918063842
 30
0.0
 10
1310.37705805002
 20
1485.515447902193
 30
0.0
 10
1310.026498581964
 20
1488.269838244984
 30
0.0
 10
1309.803366191405
 20
1490.934557043723
 30
0.0
 10
1309.723611718197
 20
1493.471945247135
 30
0.0
 10
1309.823819963398
 20
1496.211510909796
 30
0.0
 10
1310.135405757854
 20
1498.831778224932
 30
0.0
 10
1310.579065439381
 20
1501.243464364509
 30
0.0
 10
1311.185594306747
 20
1503.98525342728
 30
0.0
 10
1311.823014743677
 20
1506.696729306044
 30
0.0
 10
1312.251899274126
 20
1509.19743889112
 30
0.0
 10
1312.321003883867
 20
1510.369590871196
 30
0.0
 10
1312.354910381634
 20
1510.944712684981
 30
0.0
  0
SPLINE
  5
E1
330
1F
100
AcDbEntity
  8
0
  6
Continuous
 62
     8
370
    25
100
AcDbSpline
210
0.0
220
0.0
230
1.0
 70
     8
 71
     3
 72
    24
 73
    20
 74
     0
 42
0.00000001
 43
0.00000001
 40
0.0
 40
0.0
 40
0.0
 40
0.0
 40
0.0408915284805363
 40
0.0876122398929838
 40
0.1674632321375817
 40
0.2403274997596399
 40
0.2769453130240196
 40
0.3147788518083136
 40
0.3688603425028407
 40
0.4251392252343867
 40
0.4807328699719555
 40
0.5368779097917118
 40
0.6123720075320831
 40
0.6878889350665913
 40
0.7650598482771105
 40
0.8422017096811729
 40
0.9138437236541063
 40
0.9866463134992436
 40
1.0
 40
1.0
 40
1.0
 40
1.0
 10
1312.401303105645
 20
1513.437053989053
 30
0.0
 10
1312.532447868366
 20
1512.981651917525
 30
0.0
 10
1312.813432386168
 20
1512.005929145082
 30
0.0
 10
1312.894243578162
 20
1509.820021627841
 30
0.0
 10
1312.493798502596
 20
1506.876886683559
 30
0.0
 10
1311.740893050935
 20
1503.712146162194
 30
0.0
 10
1311.217102876621
 20
1501.167096665945
 30
0.0
 10
1310.869812522992
 20
1498.953607145123
 30
0.0
 10
1310.687115971652
 20
1496.498444939513
 30
0.0
 10
1310.754304649439
 20
1493.958747198675
 30
0.0
 10
1311.014307452165
 20
1491.581605381288
 30
0.0
 10
1311.441104944871
 20
1489.113223619965
 30
0.0
 10
1312.016042408658
 20
1486.573815760126
 30
0.0
 10
1312.702202729706
 20
1483.997515693276
 30
0.0
 10
1313.38179469999
 20
1481.607852458152
 30
0.0
 10
1313.984402868525
 20
1479.499369618536
 30
0.0
 10
1314.447334347537
 20
1477.71976615584
 30
0.0
 10
1314.635214559152
 20
1476.720560823114
 30
0.0
 10
1314.638159447855
 20
1476.351462379126
 30
0.0
 10
1314.638615887271
 20
1476.294254417988
 30
0.0
  0
ARC
  5
E2
330
1F
100
AcDbEntity
  8
0
  6
Continuous
 62
     8
370
    25
100
AcDbCircle
 10
1313.7049520301
 20
1474.5445140457
 30
0.0
 40
1.98325983387229
100
AcDbArc
 50
61.915558032
 51
162.086550289
  0
SPLINE
  5
E3
330
1F
100
AcDbEntity
  8
0
  6
Continuous
 62
     8
370
    25
100
AcDbSpline
210
0.0
220
0.0
230
1.0
 70
     8
 71
     3
 72
    28
 73
    24
 74
     0
 42
0.00000001
 43
0.00000001
 40
0.0
 40
0.0
 40
0.0
 40
0.0
 40
0.0209098621348349
 40
0.0603678563720978
 40
0.0977982378943827
 40
0.1364479727741817
 40
0.1848745085587969
 40
0.2351758735604038
 40
0.2838252249301934
 40
0.3339045961229566
 40
0.3825637489065097
 40
0.4326389562571409
 40
0.4861140819726457
 40
0.5329627342275913
 40
0.5810621569484998
 40
0.6632695231153097
 40
0.7382839889410395
 40
0.7759823806408174
 40
0.8149323734812282
 40
0.870609789420574
 40
0.9285494416417904
 40
0.9857836347434837
 40
0.9999999999999999
 40
0.9999999999999999
 40
0.9999999999999999
 40
0.9999999999999999
 10
1312.657727253885
 20
1711.684916838857
 30
0.0
 10
1312.62615833316
 20
1711.969862998828
 30
0.0
 10
1312.535017221859
 20
1712.792517340019
 30
0.0
 10
1312.21880338143
 20
1713.923235441888
 30
0.0
 10
1311.672848223928
 20
1715.031309429963
 30
0.0
 10
1310.845638344546
 20
1715.91898900557
 30
0.0
 10
1309.641973972521
 20
1716.556659119616
 30
0.0
 10
1308.023457091344
 20
1716.921671303504
 30
0.0
 10
1306.097694138367
 20
1717.069944903576
 30
0.0
 10
1303.952128320019
 20
1717.067506788278
 30
0.0
 10
1301.598501005018
 20
1716.962043722951
 30
0.0
 10
1299.062876604047
 20
1716.776577400919
 30
0.0
 10
1296.499087783478
 20
1716.525307396689
 30
0.0
 10
1293.996325670469
 20
1716.207294650024
 30
0.0
 10
1291.120907517844
 20
1715.722219509925
 30
0.0
 10
1288.081169968357
 20
1714.923227081749
 30
0.0
 10
1285.830727426013
 20
1713.607755707784
 30
0.0
 10
1284.596563517027
 20
1712.128517255887
 30
0.0
 10
1283.83676931225
 20
1710.574020446335
 30
0.0
 10
1283.37640695322
 20
1708.477677284499
 30
0.0
 10
1283.290854627506
 20
1705.907810500764
 30
0.0
 10
1283.396404235846
 20
1703.891397711039
 30
0.0
 10
1283.562356930847
 20
1702.757978889105
 30
0.0
 10
1283.595376184743
 20
1702.532464962672
 30
0.0
  0
SPLINE
  5
E4
330
1F
100
AcDbEntity
  8
0
  6
Continuous
 62
     8
370
    25
100
AcDbSpline
210
0.0
220
0.0
230
1.0
 70
     8
 71
     3
 72
    33
 73
    29
 74
     0
 42
0.00000001
 43
0.00000001
 40
0.0
 40
0.0
 40
0.0
 40
0.0
 40
0.0358048341889837
 40
0.0975341890963188
 40
0.1429855275396838
 40
0.1887767167650171
 40
0.2343740586868095
 40
0.2812174508014087
 40
0.3124067742038817
 40
0.3444270288801943
 40
0.4055177951740144
 40
0.4380280751223047
 40
0.4712877687301698
 40
0.508075661186787
 40
0.5459222939669454
 40
0.5877175826447224
 40
0.6257242544312834
 40
0.6649346470203499
 40
0.7033083686750443
 40
0.742885397910747
 40
0.78199623406263
 40
0.8225062940532418
 40
0.8533948243734063
 40
0.8851192367281188
 40
0.9167782235211079
 40
0.9491483683991733
 40
0.9994512265561969
 40
1.0
 40
1.0
 40
1.0
 40
1.0
 10
1284.509887842352
 20
1694.968589821554
 30
0.0
 10
1284.299399422141
 20
1695.69953659347
 30
0.0
 10
1283.726018261623
 20
1697.690672770643
 30
0.0
 10
1283.16490940905
 20
1700.633740553289
 30
0.0
 10
1282.749025217274
 20
1703.75019827084
 30
0.0
 10
1282.59860029918
 20
1706.484503504844
 30
0.0
 10
1282.732273427538
 20
1709.130079435116
 30
0.0
 10
1283.220321708182
 20
1711.296637283193
 30
0.0
 10
1284.022757865569
 20
1712.966994441318
 30
0.0
 10
1285.293896137318
 20
1714.57210703434
 30
0.0
 10
1287.132355312727
 20
1715.762636708978
 30
0.0
 10
1289.399284533352
 20
1716.623371178614
 30
0.0
 10
1291.423599663029
 20
1717.175991934905
 30
0.0
 10
1293.712471111034
 20
1717.631469299952
 30
0.0
 10
1296.292800811644
 20
1718.010495290761
 30
0.0
 10
1298.937771695473
 20
1718.290509804991
 30
0.0
 10
1301.553897413094
 20
1718.472086157507
 30
0.0
 10
1303.964255710736
 20
1718.542070212767
 30
0.0
 10
1306.201039953904
 20
1718.479517445998
 30
0.0
 10
1308.170834026968
 20
1718.242995846794
 30
0.0
 10
1309.854234870502
 20
1717.762780053209
 30
0.0
 10
1311.080329188023
 20
1717.018896423923
 30
0.0
 10
1311.930544133455
 20
1716.017124095685
 30
0.0
 10
1312.48038051537
 20
1714.838973250571
 30
0.0
 10
1312.834598085858
 20
1713.397464594445
 30
0.0
 10
1313.038823999492
 20
1711.427906778747
 30
0.0
 10
1313.092902750467
 20
1709.874481353259
 30
0.0
 10
1313.028935008809
 20
1708.849126650616
 30
0.0
 10
1313.028244690784
 20
1708.838061372796
 30
0.0
  0
SPLINE
  5
E5
330
1F
100
AcDbEntity
  8
0
  6
Continuous
 62
     8
370
    25
100
AcDbSpline
210
0.0
220
0.0
230
1.0
 70
     8
 71
     3
 72
    13
 73
     9
 74
     0
 42
0.00000001
 43
0.00000001
 40
0.0
 40
0.0
 40
0.0
 40
0.0
 40
0.138866492304539
 40
0.2803181507729851
 40
0.507394560837537
 40
0.7343765969440837
 40
0.9346685426704586
 40
1.0
 40
1.0
 40
1.0
 40
1.0
 10
1304.063886452321
 20
1679.922961515871
 30
0.0
 10
1303.619833092124
 20
1679.625871101969
 30
0.0
 10
1302.723459786301
 20
1679.026159580094
 30
0.0
 10
1300.872108198597
 20
1678.533033638675
 30
0.0
 10
1298.638656325953
 20
1678.198987965582
 30
0.0
 10
1296.153718148324
 20
1678.194276416514
 30
0.0
 10
1294.201861130563
 20
1678.43633301237
 30
0.0
 10
1293.356371885761
 20
1678.981505636576
 30
0.0
 10
1293.148419409119
 20
1679.115593678615
 30
0.0
  0
SPLINE
  5
E6
330
1F
100
AcDbEntity
  8
0
  6
Continuous
 62
     8
370
    25
100
AcDbSpline
210
0.0
220
0.0
230
1.0
 70
     8
 71
     3
 72
    23
 73
    19
 74
     0
 42
0.00000001
 43
0.00000001
 40
0.0
 40
0.0
 40
0.0
 40
0.0
 40
0.0623109963008109
 40
0.1420946347742146
 40
0.2250158360405488
 40
0.3079686618596
 40
0.3928443662029777
 40
0.4776971275548894
 40
0.54017423556694
 40
0.603118500207157
 40
0.6657963036311352
 40
0.7301869193759658
 40
0.773059556217388
 40
0.8170743856701698
 40
0.9010493473543857
 40
0.9457377622920927
 40
0.991456316269894
 40
1.0
 40
1.0
 40
1.0
 40
1.0
 10
1229.242236893153
 20
3121.75627535797
 30
0.0
 10
1229.231118585655
 20
3122.023219639525
 30
0.0
 10
1229.205764283253
 20
3122.631962115888
 30
0.0
 10
1228.890677984921
 20
3124.190199407312
 30
0.0
 10
1228.46523718295
 20
3126.132514111423
 30
0.0
 10
1227.961208235487
 20
3128.401809684789
 30
0.0
 10
1227.44912975582
 20
3130.908019223594
 30
0.0
 10
1227.031811110633
 20
3133.434470358102
 30
0.0
 10
1226.752403493909
 20
3135.907806892347
 30
0.0
 10
1226.62670293215
 20
3138.289378441639
 30
0.0
 10
1226.687098669556
 20
3140.894410526796
 30
0.0
 10
1226.971996501745
 20
3143.426196816677
 30
0.0
 10
1227.403004966202
 20
3145.795536391016
 30
0.0
 10
1228.002985561509
 20
3148.525142591388
 30
0.0
 10
1228.668604339942
 20
3151.29534581026
 30
0.0
 10
1229.094613255584
 20
3153.907810217425
 30
0.0
 10
1229.27289596261
 20
3155.354496433696
 30
0.0
 10
1229.246982714641
 20
3156.0687609997
 30
0.0
 10
1229.242902628665
 20
3156.181223198264
 30
0.0
  0
SPLINE
  5
E7
330
1F
100
AcDbEntity
  8
0
  6
Continuous
 62
     8
370
    25
100
AcDbSpline
210
0.0
220
0.0
230
1.0
 70
     8
 71
     3
 72
    25
 73
    21
 74
     0
 42
0.00000001
 43
0.00000001
 40
0.0
 40
0.0
 40
0.0
 40
0.0
 40
0.006300022908702
 40
0.0513114335844694
 40
0.0975245638486286
 40
0.1765080423694381
 40
0.2485807011415784
 40
0.2848006927302467
 40
0.3222232020057981
 40
0.3757171428895926
 40
0.4313846029981133
 40
0.4863742696458729
 40
0.5419093409330294
 40
0.6165832589359416
 40
0.6912797587065271
 40
0.7676122749929072
 40
0.8439160550962251
 40
0.914779738974886
 40
0.9867913900471573
 40
1.0
 40
1.0
 40
1.0
 40
1.0
 10
1229.264797738679
 20
3158.954348012539
 30
0.0
 10
1229.296028919357
 20
3158.886332452842
 30
0.0
 10
1229.550395717114
 20
3158.332370042757
 30
0.0
 10
1229.724565698137
 20
3157.042648607449
 30
0.0
 10
1229.816809659183
 20
3154.674880323311
 30
0.0
 10
1229.349336696214
 20
3151.561376645995
 30
0.0
 10
1228.584221517254
 20
3148.333768272168
 30
0.0
 10
1228.062013372945
 20
3145.79320536511
 30
0.0
 10
1227.726673461289
 20
3143.617847547522
 30
0.0
 10
1227.569318160203
 20
3141.24753170304
 30
0.0
 10
1227.675167835376
 20
3138.838446303509
 30
0.0
 10
1227.980497229932
 20
3136.615271838076
 30
0.0
 10
1228.46234619214
 20
3134.334389080096
 30
0.0
 10
1229.102398765452
 20
3132.017225115129
 30
0.0
 10
1229.86459915176
 20
3129.700908875838
 30
0.0
 10
1230.62458070377
 20
3127.586471612402
 30
0.0
 10
1231.310369101884
 20
3125.763155644634
 30
0.0
 10
1231.858984154533
 20
3124.27770159284
 30
0.0
 10
1232.111254983491
 20
3123.499884492864
 30
0.0
 10
1232.150351649418
 20
3123.255270629988
 30
0.0
 10
1232.156411389255
 20
3123.217357003993
 30
0.0
  0
ARC
  5
E8
330
1F
100
AcDbEntity
  8
0
  6
Continuous
 62
     8
370
    25
100
AcDbCircle
 10
1231.2312280528
 20
3121.4424108608
 30
0.0
 40
2.001598865234524
100
AcDbArc
 50
62.4694078274
 51
141.1566789802
  0
SPLINE
  5
E9
330
1F
100
AcDbEntity
  8
0
  6
Continuous
 62
     8
370
    25
100
AcDbSpline
210
0.0
220
0.0
230
1.0
 70
     8
 71
     3
 72
    26
 73
    22
 74
     0
 42
0.00000001
 43
0.00000001
 40
0.0
 40
0.0
 40
0.0
 40
0.0
 40
0.0151144730636172
 40
0.0580872238133327
 40
0.1024209775550699
 40
0.1458087381373901
 40
0.1905570344973312
 40
0.2347782234245366
 40
0.2805814634611478
 40
0.3155059925524528
 40
0.3513756228230578
 40
0.3871712788090378
 40
0.4237710151760931
 40
0.4806466131689812
 40
0.5387399095012785
 40
0.6589862974568257
 40
0.7816317729327616
 40
0.8495256209200581
 40
0.9180063509448732
 40
0.9587799583450581
 40
1.0
 40
1.0
 40
1.0
 40
1.0
 10
1288.614741586004
 20
2547.588566219771
 30
0.0
 10
1288.600511071232
 20
2547.462050938575
 30
0.0
 10
1288.545821033872
 20
2546.975833428793
 30
0.0
 10
1288.809286670321
 20
2545.820541220011
 30
0.0
 10
1289.376409439214
 20
2544.19905988551
 30
0.0
 10
1290.267929775093
 20
2542.340486338245
 30
0.0
 10
1291.381644253073
 20
2540.324877075588
 30
0.0
 10
1292.659261015821
 20
2538.124597477535
 30
0.0
 10
1293.859831258167
 20
2535.95998518785
 30
0.0
 10
1294.86605024219
 20
2533.860635663756
 30
0.0
 10
1295.619991348643
 20
2531.901724426902
 30
0.0
 10
1296.162957621797
 20
2529.910098417679
 30
0.0
 10
1296.532993794253
 20
2527.571484962971
 30
0.0
 10
1296.593067235614
 20
2524.924594074331
 30
0.0
 10
1296.177080348559
 20
2521.03571883013
 30
0.0
 10
1294.99338157853
 20
2516.443749360117
 30
0.0
 10
1293.376640752937
 20
2512.205390786035
 30
0.0
 10
1291.91321398184
 20
2509.081935176985
 30
0.0
 10
1290.886679094548
 20
2507.224101821055
 30
0.0
 10
1290.020102224024
 20
2505.891873777221
 30
0.0
 10
1289.572234034305
 20
2505.381947801238
 30
0.0
 10
1289.347080676101
 20
2505.125596605588
 30
0.0
  0
SPLINE
  5
EA
330
1F
100
AcDbEntity
  8
0
  6
Continuous
 62
     8
370
    25
100
AcDbSpline
210
0.0
220
0.0
230
1.0
 70
     8
 71
     3
 72
    11
 73
     7
 74
     0
 42
0.00000001
 43
0.00000001
 40
0.0
 40
0.0
 40
0.0
 40
0.0
 40
0.1726600597886014
 40
0.4945087836507283
 40
0.8112095147549885
 40
1.0
 40
1.0
 40
1.0
 40
1.0
 10
1289.347080676101
 20
2505.125596605588
 30
0.0
 10
1289.263019562591
 20
2505.068047977724
 30
0.0
 10
1289.022263483594
 20
2504.903225250333
 30
0.0
 10
1288.620006049862
 20
2505.156405990795
 30
0.0
 10
1288.276901246623
 20
2505.678638367137
 30
0.0
 10
1288.192698273511
 20
2506.099875353036
 30
0.0
 10
1288.161250209453
 20
2506.257198630669
 30
0.0
  0
SPLINE
  5
EB
330
1F
100
AcDbEntity
  8
0
  6
Continuous
 62
     8
370
    25
100
AcDbSpline
210
0.0
220
0.0
230
1.0
 70
     8
 71
     3
 72
    28
 73
    24
 74
     0
 42
0.00000001
 43
0.00000001
 40
0.0
 40
0.0
 40
0.0
 40
0.0
 40
0.0718679094784101
 40
0.1363712414411287
 40
0.2015320094212108
 40
0.3148919478707452
 40
0.3725825455207224
 40
0.4302415368057577
 40
0.4823748862737594
 40
0.535478137032751
 40
0.5674457970024329
 40
0.6002045872183946
 40
0.6312800141298271
 40
0.663367771789695
 40
0.7035724187140869
 40
0.7453335851270474
 40
0.7857232178611
 40
0.8273000807190097
 40
0.8676978507763976
 40
0.9092712567320104
 40
0.9536673406929105
 40
0.9925619981834023
 40
1.0
 40
1.0
 40
1.0
 40
1.0
 10
1286.291572504182
 20
2506.417727959561
 30
0.0
 10
1286.7907639061
 20
2506.92182401604
 30
0.0
 10
1287.737992671905
 20
2507.878359492396
 30
0.0
 10
1289.223824309612
 20
2510.073533105091
 30
0.0
 10
1290.974589281879
 20
2513.00416738853
 30
0.0
 10
1292.586704795395
 20
2516.260647659832
 30
0.0
 10
1293.927105199696
 20
2519.691428627479
 30
0.0
 10
1294.729261367616
 20
2522.365271202583
 30
0.0
 10
1295.258031069424
 20
2525.123809447588
 30
0.0
 10
1295.37928815688
 20
2527.601284111633
 30
0.0
 10
1295.143541020013
 20
2529.821782104492
 30
0.0
 10
1294.706018479094
 20
2531.664042349033
 30
0.0
 10
1294.029117744301
 20
2533.50039024338
 30
0.0
 10
1293.103756434327
 20
2535.423303580229
 30
0.0
 10
1291.951875266583
 20
2537.437827113365
 30
0.0
 10
1290.728085186788
 20
2539.452125486383
 30
0.0
 10
1289.632025588552
 20
2541.342823153444
 30
0.0
 10
1288.771306309603
 20
2543.064210977222
 30
0.0
 10
1288.189713864388
 20
2544.630663061778
 30
0.0
 10
1287.915602347271
 20
2546.039461448655
 30
0.0
 10
1288.022527080329
 20
2547.153501839582
 30
0.0
 10
1288.276030037288
 20
2547.836554350525
 30
0.0
 10
1288.537167214458
 20
2548.027771361286
 30
0.0
 10
1288.579088805561
 20
2548.058468336048
 30
0.0
  0
ARC
  5
EC
330
1F
100
AcDbEntity
  8
0
  6
Continuous
 62
     8
370
    25
100
AcDbCircle
 10
1287.3942243377
 20
2504.7148822839
 30
0.0
 40
1.995578646042936
100
AcDbArc
 50
11.877045369
 51
125.1230510807
  0
LWPOLYLINE
  5
ED
330
1F
100
AcDbEntity
  8
0
  6
Continuous
 62
     8
370
    25
100
AcDbPolyline
 90
       26
 70
   128
 43
0.0
 10
1189.3288400028
 20
2277.6531529083
 10
1189.3699954028
 20
2277.9739904471
 10
1189.6430971512
 20
2277.8922568282
 10
1190.1342535561
 20
2277.5546177689
 10
1190.9504096265
 20
2276.9349419528
 10
1192.0955480175
 20
2276.0806081939
 10
1193.7027912738
 20
2274.9384770125
 10
1195.4364231323
 20
2273.7629850977
 10
1197.4365230468
 20
2272.4469162304
 10
1199.5270945521
 20
2271.077176606
 10
1201.727919521
 20
2269.5841735649
 10
1203.8378854005
 20
2268.0154216612
 10
1205.8194548183
 20
2266.2627748565
 10
1207.0965597916
 20
2264.8217666296
 10
1208.1319061645
 20
2263.2443006406
 10
1208.8575685933
 20
2261.5880188577
 10
1209.294783402
 20
2259.8385290609
 10
1209.4660803173
 20
2257.0715371945
 10
1209.1681318347
 20
2254.2511378187
 10
1207.586507173
 20
2248.5774778282
 10
1205.0891108779
 20
2243.1825285404
 10
1203.3909989857
 20
2240.4556302065
 10
1201.4386873685
 20
2237.9944327013
 10
1200.1469655537
 20
2236.7339547547
 10
1198.7270558615
 20
2235.6935172863
 10
1198.7270558615
 20
2235.6935172863
  0
SPLINE
  5
EE
330
1F
100
AcDbEntity
  8
0
  6
Continuous
 62
     8
370
    25
100
AcDbSpline
210
0.0
220
0.0
230
1.0
 70
     8
 71
     3
 72
     9
 73
     5
 74
     0
 42
0.00000001
 43
0.00000001
 40
0.0
 40
0.0
 40
0.0
 40
0.0
 40
0.8880528134551179
 40
1.0
 40
1.0
 40
1.0
 40
1.0
 10
1198.727055861533
 20
2235.693517286284
 30
0.0
 10
1198.541296717985
 20
2235.583426201297
 30
0.0
 10
1198.332120933918
 20
2235.459457127253
 30
0.0
 10
1198.079547980467
 20
2235.468080513886
 30
0.0
 10
1198.051273148931
 20
2235.469045877757
 30
0.0
  0
SPLINE
  5
EF
330
1F
100
AcDbEntity
  8
0
  6
Continuous
 62
     8
370
    25
100
AcDbSpline
210
0.0
220
0.0
230
1.0
 70
     8
 71
     3
 72
    28
 73
    24
 74
     0
 42
0.00000001
 43
0.00000001
 40
0.0
 40
0.0
 40
0.0
 40
0.0
 40
0.012778469594638
 40
0.1345015658125802
 40
0.1964483017112105
 40
0.2583610994774404
 40
0.3143405998216612
 40
0.371361556166836
 40
0.4056876382340398
 40
0.4408632163790091
 40
0.4742312406712784
 40
0.5086862806657529
 40
0.5518570354572686
 40
0.5966991423513298
 40
0.6400685303268087
 40
0.68471273662502
 40
0.7280908622568966
 40
0.7727313566189798
 40
0.8204027727610961
 40
0.8621668933210821
 40
0.9050460369611163
 40
0.9783313543876648
 40
0.9999999999999999
 40
0.9999999999999999
 40
0.9999999999999999
 40
0.9999999999999999
 10
1202.648597166289
 20
2242.637831067155
 30
0.0
 10
1202.763917432514
 20
2242.804105883103
 30
0.0
 10
1203.97773699536
 20
2244.554254673176
 30
0.0
 10
1205.409844391028
 20
2247.448378493437
 30
0.0
 10
1206.91379237119
 20
2251.155381052847
 30
0.0
 10
1207.74853869915
 20
2253.967189655015
 30
0.0
 10
1208.243756946621
 20
2256.755060975522
 30
0.0
 10
1208.266685143159
 20
2259.13003945724
 30
0.0
 10
1207.870760452407
 20
2261.132184405035
 30
0.0
 10
1207.236694854235
 20
2262.704255898387
 30
0.0
 10
1206.275810592359
 20
2264.182033231366
 30
0.0
 10
1204.932965957517
 20
2265.648203148561
 30
0.0
 10
1203.165708052358
 20
2267.113867254748
 30
0.0
 10
1201.090338778977
 20
2268.547466376132
 30
0.0
 10
1198.947489059467
 20
2269.906114165316
 30
0.0
 10
1196.884791323983
 20
2271.186241702314
 30
0.0
 10
1194.945319142009
 20
2272.41875731782
 30
0.0
 10
1193.176397247911
 20
2273.60588055044
 30
0.0
 10
1191.709650157115
 20
2274.669380697477
 30
0.0
 10
1190.565154379454
 20
2275.582459886828
 30
0.0
 10
1189.576190025673
 20
2276.400354921225
 30
0.0
 10
1189.060467596467
 20
2276.973124128659
 30
0.0
 10
1189.026685206203
 20
2276.684063142267
 30
0.0
 10
1189.018976010935
 20
2276.618098964744
 30
0.0
  0
LINE
  5
F0
330
1F
100
AcDbEntity
  8
0
  6
Continuous
 62
     8
370
    25
100
AcDbLine
 10
1198.7270558615
 20
2235.6935172863
 30
0.0
 11
1198.4258680694
 21
2236.0497879626
 31
0.0
  0
SPLINE
  5
F1
330
1F
100
AcDbEntity
  8
0
  6
Continuous
 62
     8
370
    25
100
AcDbSpline
210
0.0
220
0.0
230
1.0
 70
     8
 71
     3
 72
    28
 73
    24
 74
     0
 42
0.00000001
 43
0.00000001
 40
0.0
 40
0.0
 40
0.0
 40
0.0
 40
0.0034408694742562
 40
0.0426281584315551
 40
0.0798017453015751
 40
0.1181863200407353
 40
0.1662806210227275
 40
0.2162368887795617
 40
0.2645524766994511
 40
0.3142882736568463
 40
0.3626135957469787
 40
0.412345257428671
 40
0.4654535120155774
 40
0.5119807546862326
 40
0.5597501867944509
 40
0.6413935615951606
 40
0.7158933836239754
 40
0.7533331419624635
 40
0.792015914714259
 40
0.8473113505058303
 40
0.9048535022945275
 40
0.9616950348323271
 40
0.9999999999999999
 40
0.9999999999999999
 40
0.9999999999999999
 40
0.9999999999999999
 10
1227.071027840447
 20
1314.089258669622
 30
0.0
 10
1227.065092074663
 20
1314.132308981039
 30
0.0
 10
1226.991555206686
 20
1314.66564961175
 30
0.0
 10
1226.730156876985
 20
1315.468939184908
 30
0.0
 10
1226.229405861707
 20
1316.421344633447
 30
0.0
 10
1225.465597265621
 20
1317.109258458185
 30
0.0
 10
1224.351991003734
 20
1317.516596205622
 30
0.0
 10
1222.837168721669
 20
1317.629469928717
 30
0.0
 10
1221.012910939607
 20
1317.529225314413
 30
0.0
 10
1218.95653272803
 20
1317.294405862788
 30
0.0
 10
1216.675979775672
 20
1316.975057112891
 30
0.0
 10
1214.193991925067
 20
1316.598264680275
 30
0.0
 10
1211.659230815125
 20
1316.192207649518
 30
0.0
 10
1209.162155549879
 20
1315.75898881391
 30
0.0
 10
1206.269964165242
 20
1315.181842655379
 30
0.0
 10
1203.179314480393
 20
1314.351549441629
 30
0.0
 10
1200.871182738767
 20
1313.093844198215
 30
0.0
 10
1199.610169832782
 20
1311.696609380091
 30
0.0
 10
1198.842652064718
 20
1310.228456264821
 30
0.0
 10
1198.400919515407
 20
1308.241534368974
 30
0.0
 10
1198.356371263668
 20
1305.79607187594
 30
0.0
 10
1198.561834762439
 20
1303.504677926304
 30
0.0
 10
1198.837778510613
 20
1302.04966143962
 30
0.0
 10
1198.948870520481
 20
1301.463887320919
 30
0.0
  0
SPLINE
  5
F2
330
1F
100
AcDbEntity
  8
0
  6
Continuous
 62
     8
370
    25
100
AcDbSpline
210
0.0
220
0.0
230
1.0
 70
     8
 71
     3
 72
    33
 73
    29
 74
     0
 42
0.00000001
 43
0.00000001
 40
0.0
 40
0.0
 40
0.0
 40
0.0
 40
0.0067460845903982
 40
0.067913931164485
 40
0.1290652432851299
 40
0.1740909686895768
 40
0.2194533624631268
 40
0.2646237241478885
 40
0.3110284678276135
 40
0.3419257298041781
 40
0.3736461420915424
 40
0.4341648454366659
 40
0.4663706943270641
 40
0.4993189392569634
 40
0.535762344461058
 40
0.5732545757880996
 40
0.6146584872163641
 40
0.6523092589209414
 40
0.6911524796088363
 40
0.7291668640724288
 40
0.768373288167309
 40
0.8071178846791862
 40
0.8472486024913296
 40
0.8778478880563874
 40
0.9092752283332983
 40
0.940637755703102
 40
0.9727047817687478
 40
0.9999999999999999
 40
0.9999999999999999
 40
0.9999999999999999
 40
0.9999999999999999
 10
1200.412369467946
 20
1293.583474983388
 30
0.0
 10
1200.359469155062
 20
1293.713058122691
 30
0.0
 10
1199.826913098341
 20
1295.017592669327
 30
0.0
 10
1199.073018177986
 20
1297.565637320951
 30
0.0
 10
1198.261834156133
 20
1300.859656957244
 30
0.0
 10
1197.783382052793
 20
1303.82285667231
 30
0.0
 10
1197.576435914163
 20
1306.416746566347
 30
0.0
 10
1197.674764901812
 20
1308.920271206631
 30
0.0
 10
1198.154003626595
 20
1310.962071648017
 30
0.0
 10
1198.969427273495
 20
1312.532279469683
 30
0.0
 10
1200.271648947217
 20
1314.042309662556
 30
0.0
 10
1202.157509822497
 20
1315.176585942542
 30
0.0
 10
1204.46605927122
 20
1316.035966494632
 30
0.0
 10
1206.515512954604
 20
1316.619697929566
 30
0.0
 10
1208.816726504024
 20
1317.144637656341
 30
0.0
 10
1211.390391951946
 20
1317.639694690898
 30
0.0
 10
1214.004922418579
 20
1318.078508354139
 30
0.0
 10
1216.5663351995
 20
1318.457370199827
 30
0.0
 10
1218.903117832344
 20
1318.747553884216
 30
0.0
 10
1221.048623176595
 20
1318.929796239918
 30
0.0
 10
1222.916297129034
 20
1318.951684008926
 30
0.0
 10
1224.49276570506
 20
1318.739378288247
 30
0.0
 10
1225.627160358097
 20
1318.239191042401
 30
0.0
 10
1226.407475551656
 20
1317.449618354272
 30
0.0
 10
1226.914378568566
 20
1316.450746619016
 30
0.0
 10
1227.238322364797
 20
1315.15874824002
 30
0.0
 10
1227.426327342039
 20
1313.738217265543
 30
0.0
 10
1227.437588916378
 20
1312.650725870938
 30
0.0
 10
1227.442767075204
 20
1312.150688931771
 30
0.0
  0
SPLINE
  5
F3
330
1F
100
AcDbEntity
  8
0
  6
Continuous
 62
     8
370
    25
100
AcDbSpline
210
0.0
220
0.0
230
1.0
 70
     8
 71
     3
 72
    13
 73
     9
 74
     0
 42
0.00000001
 43
0.00000001
 40
0.0
 40
0.0
 40
0.0
 40
0.0
 40
0.0823611820994712
 40
0.2431993914967647
 40
0.5013975885811436
 40
0.7594884773555053
 40
0.9872312854365851
 40
1.0
 40
1.0
 40
1.0
 40
1.0
 10
1218.953188650458
 20
1281.816440780167
 30
0.0
 10
1218.730791095401
 20
1281.650100781525
 30
0.0
 10
1218.074086702855
 20
1281.158925382872
 30
0.0
 10
1216.504506901243
 20
1280.640216788654
 30
0.0
 10
1214.326242058916
 20
1280.121880117621
 30
0.0
 10
1211.879984901544
 20
1279.981156712259
 30
0.0
 10
1210.114694046164
 20
1280.024739220426
 30
0.0
 10
1209.421737431465
 20
1280.383374702092
 30
0.0
 10
1209.384948486301
 20
1280.402414596927
 30
0.0
  0
ENDSEC
  0
SECTION
  2
OBJECTS
  0
DICTIONARY
  5
C
330
0
100
AcDbDictionary
281
     1
  3
ACAD_GROUP
350
D
  3
ACAD_LAYOUT
350
1A
  3
ACAD_MLINESTYLE
350
17
  3
ACAD_PLOTSETTINGS
350
19
  3
ACAD_PLOTSTYLENAME
350
E
  3
ACAD_SCALELIST
350
47
  3
DWGPROPS
350
F4
  0
DICTIONARY
  5
D
102
{ACAD_REACTORS
330
C
102
}
330
C
100
AcDbDictionary
281
     1
  0
DICTIONARY
  5
1A
102
{ACAD_REACTORS
330
C
102
}
330
C
100
AcDbDictionary
281
     1
  3
Layout1
350
1E
  3
Layout2
350
26
  3
Model
350
22
  0
DICTIONARY
  5
17
102
{ACAD_REACTORS
330
C
102
}
330
C
100
AcDbDictionary
281
     1
  3
Standard
350
18
  0
DICTIONARY
  5
19
102
{ACAD_REACTORS
330
C
102
}
330
C
100
AcDbDictionary
281
     1
  0
ACDBDICTIONARYWDFLT
  5
E
102
{ACAD_REACTORS
330
C
102
}
330
C
100
AcDbDictionary
281
     1
  3
Normal
350
F
100
AcDbDictionaryWithDefault
340
F
  0
DICTIONARY
  5
47
102
{ACAD_REACTORS
330
C
102
}
330
C
100
AcDbDictionary
281
     1
  3
A0
350
48
  3
A1
350
49
  3
A2
350
4A
  3
A3
350
4B
  3
A4
350
4C
  3
A5
350
4D
  3
A6
350
4E
  3
A7
350
4F
  3
A8
350
50
  3
A9
350
51
  3
B0
350
52
  3
B1
350
53
  3
B2
350
54
  3
B3
350
55
  3
B4
350
56
  3
B5
350
57
  3
B6
350
58
  3
B7
350
59
  3
B8
350
5A
  3
B9
350
5B
  3
C0
350
5C
  3
C1
350
5D
  3
C2
350
5E
  3
C3
350
5F
  3
C4
350
60
  3
C5
350
61
  3
C6
350
62
  3
C7
350
63
  3
C8
350
64
  3
C9
350
65
  3
D0
350
66
  3
D1
350
67
  3
D2
350
68
  0
XRECORD
  5
F4
102
{ACAD_REACTORS
330
C
102
}
330
C
100
AcDbXrecord
280
     1
  1
DWGPROPS COOKIE
  2

  3

  4

  6

  7

  8
9222
  9

300
=
301
=
302
=
303
=
304
=
305
=
306
=
307
=
308
=
309
=
 40
0.0
 41
2459920.222283507
 42
2459920.222283866
  1

 90
        0
  0
LAYOUT
  5
1E
102
{ACAD_REACTORS
330
1A
102
}
330
1A
100
AcDbPlotSettings
  1

  2
none_device
  4

  6

 40
0.0
 41
0.0
 42
0.0
 43
0.0
 44
0.0
 45
0.0
 46
0.0
 47
0.0
 48
0.0
 49
0.0
140
0.0
141
0.0
142
1.0
143
1.0
 70
   688
 72
     1
 73
     0
 74
     5
  7

 75
    16
147
1.0
148
0.0
149
0.0
100
AcDbLayout
  1
Layout1
 70
     1
 71
     1
 10
0.0
 20
0.0
 11
420.0
 21
297.0
 12
0.0
 22
0.0
 32
0.0
 14
1.0000000000E+20
 24
1.0000000000E+20
 34
1.0000000000E+20
 15
-1.0000000000E+20
 25
-1.0000000000E+20
 35
-1.0000000000E+20
146
0.0
 13
0.0
 23
0.0
 33
0.0
 16
1.0
 26
0.0
 36
0.0
 17
0.0
 27
1.0
 37
0.0
 76
     0
330
1B
  0
LAYOUT
  5
26
102
{ACAD_REACTORS
330
1A
102
}
330
1A
100
AcDbPlotSettings
  1

  2
none_device
  4

  6

 40
0.0
 41
0.0
 42
0.0
 43
0.0
 44
0.0
 45
0.0
 46
0.0
 47
0.0
 48
0.0
 49
0.0
140
0.0
141
0.0
142
1.0
143
1.0
 70
   688
 72
     1
 73
     0
 74
     5
  7

 75
    16
147
1.0
148
0.0
149
0.0
100
AcDbLayout
  1
Layout2
 70
     1
 71
     2
 10
0.0
 20
0.0
 11
0.0
 21
0.0
 12
0.0
 22
0.0
 32
0.0
 14
0.0
 24
0.0
 34
0.0
 15
0.0
 25
0.0
 35
0.0
146
0.0
 13
0.0
 23
0.0
 33
0.0
 16
1.0
 26
0.0
 36
0.0
 17
0.0
 27
1.0
 37
0.0
 76
     0
330
23
  0
LAYOUT
  5
22
102
{ACAD_REACTORS
330
1A
102
}
330
1A
100
AcDbPlotSettings
  1

  2
none_device
  4
Letter_(8.50_x_11.00_Inches)
  6

 40
6.35
 41
6.35
 42
6.35000508
 43
6.35000508
 44
215.9
 45
279.4
 46
0.0
 47
0.0
 48
0.0
 49
0.0
140
0.0
141
0.0
142
1.0
143
1.0
 70
  1712
 72
     1
 73
     0
 74
     0
  7

 75
     0
147
1.0
148
0.0
149
0.0
100
AcDbLayout
  1
Model
 70
     1
 71
     0
 10
0.0
 20
0.0
 11
2520.0
 21
3564.0
 12
0.0
 22
0.0
 32
0.0
 14
0.0
 24
0.0
 34
0.0
 15
2520.0
 25
3564.0
 35
0.0
146
0.0
 13
0.0
 23
0.0
 33
0.0
 16
1.0
 26
0.0
 36
0.0
 17
0.0
 27
1.0
 37
0.0
 76
     0
330
1F
331
29
  0
MLINESTYLE
  5
18
102
{ACAD_REACTORS
330
17
102
}
330
17
100
AcDbMlineStyle
  2
Standard
 70
     0
  3

 62
   256
 51
90.0
 52
90.0
 71
     2
 49
0.5
 62
   256
  6
BYLAYER
 49
-0.5
 62
   256
  6
BYLAYER
  0
ACDBPLACEHOLDER
  5
F
102
{ACAD_REACTORS
330
E
102
}
330
E
  0
SCALE
  5
48
102
{ACAD_REACTORS
330
47
102
}
330
47
100
AcDbScale
 70
     0
300
1:1
140
1.0
141
1.0
290
     1
  0
SCALE
  5
49
102
{ACAD_REACTORS
330
47
102
}
330
47
100
AcDbScale
 70
     0
300
1:2
140
1.0
141
2.0
290
     0
  0
SCALE
  5
4A
102
{ACAD_REACTORS
330
47
102
}
330
47
100
AcDbScale
 70
     0
300
1:4
140
1.0
141
4.0
290
     0
  0
SCALE
  5
4B
102
{ACAD_REACTORS
330
47
102
}
330
47
100
AcDbScale
 70
     0
300
1:5
140
1.0
141
5.0
290
     0
  0
SCALE
  5
4C
102
{ACAD_REACTORS
330
47
102
}
330
47
100
AcDbScale
 70
     0
300
1:8
140
1.0
141
8.0
290
     0
  0
SCALE
  5
4D
102
{ACAD_REACTORS
330
47
102
}
330
47
100
AcDbScale
 70
     0
300
1:10
140
1.0
141
10.0
290
     0
  0
SCALE
  5
4E
102
{ACAD_REACTORS
330
47
102
}
330
47
100
AcDbScale
 70
     0
300
1:16
140
1.0
141
16.0
290
     0
  0
SCALE
  5
4F
102
{ACAD_REACTORS
330
47
102
}
330
47
100
AcDbScale
 70
     0
300
1:20
140
1.0
141
20.0
290
     0
  0
SCALE
  5
50
102
{ACAD_REACTORS
330
47
102
}
330
47
100
AcDbScale
 70
     0
300
1:30
140
1.0
141
30.0
290
     0
  0
SCALE
  5
51
102
{ACAD_REACTORS
330
47
102
}
330
47
100
AcDbScale
 70
     0
300
1:40
140
1.0
141
40.0
290
     0
  0
SCALE
  5
52
102
{ACAD_REACTORS
330
47
102
}
330
47
100
AcDbScale
 70
     0
300
1:50
140
1.0
141
50.0
290
     0
  0
SCALE
  5
53
102
{ACAD_REACTORS
330
47
102
}
330
47
100
AcDbScale
 70
     0
300
1:100
140
1.0
141
100.0
290
     0
  0
SCALE
  5
54
102
{ACAD_REACTORS
330
47
102
}
330
47
100
AcDbScale
 70
     0
300
2:1
140
2.0
141
1.0
290
     0
  0
SCALE
  5
55
102
{ACAD_REACTORS
330
47
102
}
330
47
100
AcDbScale
 70
     0
300
4:1
140
4.0
141
1.0
290
     0
  0
SCALE
  5
56
102
{ACAD_REACTORS
330
47
102
}
330
47
100
AcDbScale
 70
     0
300
8:1
140
8.0
141
1.0
290
     0
  0
SCALE
  5
57
102
{ACAD_REACTORS
330
47
102
}
330
47
100
AcDbScale
 70
     0
300
10:1
140
10.0
141
1.0
290
     0
  0
SCALE
  5
58
102
{ACAD_REACTORS
330
47
102
}
330
47
100
AcDbScale
 70
     0
300
100:1
140
100.0
141
1.0
290
     0
  0
SCALE
  5
59
102
{ACAD_REACTORS
330
47
102
}
330
47
100
AcDbScale
 70
     0
300
1/128" = 1'-0"
140
0.0078125
141
12.0
290
     0
  0
SCALE
  5
5A
102
{ACAD_REACTORS
330
47
102
}
330
47
100
AcDbScale
 70
     0
300
1/64" = 1'-0"
140
0.015625
141
12.0
290
     0
  0
SCALE
  5
5B
102
{ACAD_REACTORS
330
47
102
}
330
47
100
AcDbScale
 70
     0
300
1/32" = 1'-0"
140
0.03125
141
12.0
290
     0
  0
SCALE
  5
5C
102
{ACAD_REACTORS
330
47
102
}
330
47
100
AcDbScale
 70
     0
300
1/16" = 1'-0"
140
0.0625
141
12.0
290
     0
  0
SCALE
  5
5D
102
{ACAD_REACTORS
330
47
102
}
330
47
100
AcDbScale
 70
     0
300
3/32" = 1'-0"
140
0.09375
141
12.0
290
     0
  0
SCALE
  5
5E
102
{ACAD_REACTORS
330
47
102
}
330
47
100
AcDbScale
 70
     0
300
1/8" = 1'-0"
140
0.125
141
12.0
290
     0
  0
SCALE
  5
5F
102
{ACAD_REACTORS
330
47
102
}
330
47
100
AcDbScale
 70
     0
300
3/16" = 1'-0"
140
0.1875
141
12.0
290
     0
  0
SCALE
  5
60
102
{ACAD_REACTORS
330
47
102
}
330
47
100
AcDbScale
 70
     0
300
1/4" = 1'-0"
140
0.25
141
12.0
290
     0
  0
SCALE
  5
61
102
{ACAD_REACTORS
330
47
102
}
330
47
100
AcDbScale
 70
     0
300
3/8" = 1'-0"
140
0.375
141
12.0
290
     0
  0
SCALE
  5
62
102
{ACAD_REACTORS
330
47
102
}
330
47
100
AcDbScale
 70
     0
300
1/2" = 1'-0"
140
0.5
141
12.0
290
     0
  0
SCALE
  5
63
102
{ACAD_REACTORS
330
47
102
}
330
47
100
AcDbScale
 70
     0
300
3/4" = 1'-0"
140
0.75
141
12.0
290
     0
  0
SCALE
  5
64
102
{ACAD_REACTORS
330
47
102
}
330
47
100
AcDbScale
 70
     0
300
1" = 1'-0"
140
1.0
141
12.0
290
     0
  0
SCALE
  5
65
102
{ACAD_REACTORS
330
47
102
}
330
47
100
AcDbScale
 70
     0
300
1-1/2" = 1'-0"
140
1.5
141
12.0
290
     0
  0
SCALE
  5
66
102
{ACAD_REACTORS
330
47
102
}
330
47
100
AcDbScale
 70
     0
300
3" = 1'-0"
140
3.0
141
12.0
290
     0
  0
SCALE
  5
67
102
{ACAD_REACTORS
330
47
102
}
330
47
100
AcDbScale
 70
     0
300
6" = 1'-0"
140
6.0
141
12.0
290
     0
  0
SCALE
  5
68
102
{ACAD_REACTORS
330
47
102
}
330
47
100
AcDbScale
 70
     0
300
1'-0" = 1'-0"
140
12.0
141
12.0
290
     0
  0
ENDSEC
  0
EOF
