  0
SECTION
  2
HEADER
  9
$ACADVER
  1
AC1015
  9
$ACADMAINTVER
 70
     6
  9
$DWGCODEPAGE
  3
DOS932
  9
$INSBASE
 10
0.0
 20
0.0
 30
0.0
  9
$EXTMIN
 10
0.0
 20
0.0
 30
0.0
  9
$EXTMAX
 10
3.0
 20
4.2428571429
 30
0.0
  9
$LIMMIN
 10
0.0
 20
0.0
  9
$LIMMAX
 10
3.0
 20
4.2428571429
  9
$ORTHOMODE
 70
     0
  9
$REGENMODE
 70
     1
  9
$FILLMODE
 70
     1
  9
$QTEXTMODE
 70
     0
  9
$MIRRTEXT
 70
     1
  9
$LTSCALE
 40
0.0142857143
  9
$ATTMODE
 70
     1
  9
$TEXTSIZE
 40
0.05
  9
$TRACEWID
 40
1.0
  9
$TEXTSTYLE
  7
Standard
  9
$CLAYER
  8
0
  9
$CELTYPE
  6
ByLayer
  9
$CECOLOR
 62
   256
  9
$CELTSCALE
 40
1.0
  9
$DISPSILH
 70
     0
  9
$DIMSCALE
 40
1.0
  9
$DIMASZ
 40
0.0471714286
  9
$DIMEXO
 40
0.0142857143
  9
$DIMDLI
 40
3.75
  9
$DIMRND
 40
0.0
  9
$DIMDLE
 40
0.0
  9
$DIMEXE
 40
0.0142857143
  9
$DIMTP
 40
0.0
  9
$DIMTM
 40
0.0
  9
$DIMTXT
 40
0.05
  9
$DIMCEN
 40
2.5
  9
$DIMTSZ
 40
0.0
  9
$DIMTOL
 70
     0
  9
$DIMLIM
 70
     0
  9
$DIMTIH
 70
     1
  9
$DIMTOH
 70
     1
  9
$DIMSE1
 70
     0
  9
$DIMSE2
 70
     0
  9
$DIMTAD
 70
     1
  9
$DIMZIN
 70
     1
  9
$DIMBLK
  1

  9
$DIMASO
 70
     1
  9
$DIMSHO
 70
     1
  9
$DIMPOST
  1

  9
$DIMAPOST
  1

  9
$DIMALT
 70
     0
  9
$DIMALTD
 70
     3
  9
$DIMALTF
 40
0.0393700787
  9
$DIMLFAC
 40
1.0
  9
$DIMTOFL
 70
     1
  9
$DIMTVP
 40
0.0
  9
$DIMTIX
 70
     0
  9
$DIMSOXD
 70
     0
  9
$DIMSAH
 70
     0
  9
$DIMBLK1
  1

  9
$DIMBLK2
  1

  9
$DIMSTYLE
  2
ISO-25
  9
$DIMCLRD
 70
     0
  9
$DIMCLRE
 70
     0
  9
$DIMCLRT
 70
     0
  9
$DIMTFAC
 40
1.0
  9
$DIMGAP
 40
0.0217714286
  9
$DIMJUST
 70
     0
  9
$DIMSD1
 70
     0
  9
$DIMSD2
 70
     0
  9
$DIMTOLJ
 70
     0
  9
$DIMTZIN
 70
     1
  9
$DIMALTZ
 70
     0
  9
$DIMALTTZ
 70
     0
  9
$DIMUPT
 70
     0
  9
$DIMDEC
 70
     2
  9
$DIMTDEC
 70
     2
  9
$DIMALTU
 70
     2
  9
$DIMALTTD
 70
     3
  9
$DIMTXSTY
  7
Standard
  9
$DIMAUNIT
 70
     0
  9
$DIMADEC
 70
     2
  9
$DIMALTRND
 40
0.0
  9
$DIMAZIN
 70
     0
  9
$DIMDSEP
 70
    44
  9
$DIMATFIT
 70
     3
  9
$DIMFRAC
 70
     0
  9
$DIMLDRBLK
  1

  9
$DIMLUNIT
 70
     2
  9
$DIMLWD
 70
    -2
  9
$DIMLWE
 70
    -2
  9
$DIMTMOVE
 70
     0
  9
$LUNITS
 70
     2
  9
$LUPREC
 70
     2
  9
$SKETCHINC
 40
1.0
  9
$FILLETRAD
 40
10.0
  9
$AUNITS
 70
     0
  9
$AUPREC
 70
     2
  9
$MENU
  1
.
  9
$ELEVATION
 40
0.0
  9
$PELEVATION
 40
0.0
  9
$THICKNESS
 40
0.0
  9
$LIMCHECK
 70
     0
  9
$CHAMFERA
 40
0.0
  9
$CHAMFERB
 40
0.0
  9
$CHAMFERC
 40
0.0
  9
$CHAMFERD
 40
0.0
  9
$SKPOLY
 70
     0
  9
$TDCREATE
 40
2459920.597980208
  9
$TDUCREATE
 40
2459920.222980208
  9
$TDUPDATE
 40
2459920.59798044
  9
$TDUUPDATE
 40
2459920.22298044
  9
$TDINDWG
 40
0.0000000116
  9
$TDUSRTIMER
 40
0.0000000116
  9
$USRTIMER
 70
     1
  9
$ANGBASE
 50
0.0
  9
$ANGDIR
 70
     0
  9
$PDMODE
 70
     0
  9
$PDSIZE
 40
-1.0
  9
$PLINEWID
 40
0.0
  9
$SPLFRAME
 70
     0
  9
$SPLINETYPE
 70
     6
  9
$SPLINESEGS
 70
     8
  9
$HANDSEED
  5
D1
  9
$SURFTAB1
 70
     6
  9
$SURFTAB2
 70
     6
  9
$SURFTYPE
 70
     6
  9
$SURFU
 70
     6
  9
$SURFV
 70
     6
  9
$UCSBASE
  2

  9
$UCSNAME
  2

  9
$UCSORG
 10
0.0
 20
0.0
 30
0.0
  9
$UCSXDIR
 10
1.0
 20
0.0
 30
0.0
  9
$UCSYDIR
 10
0.0
 20
1.0
 30
0.0
  9
$UCSORTHOREF
  2

  9
$UCSORTHOVIEW
 70
     0
  9
$UCSORGTOP
 10
0.0
 20
0.0
 30
0.0
  9
$UCSORGBOTTOM
 10
0.0
 20
0.0
 30
0.0
  9
$UCSORGLEFT
 10
0.0
 20
0.0
 30
0.0
  9
$UCSORGRIGHT
 10
0.0
 20
0.0
 30
0.0
  9
$UCSORGFRONT
 10
0.0
 20
0.0
 30
0.0
  9
$UCSORGBACK
 10
0.0
 20
0.0
 30
0.0
  9
$PUCSBASE
  2

  9
$PUCSNAME
  2

  9
$PUCSORG
 10
0.0
 20
0.0
 30
0.0
  9
$PUCSXDIR
 10
1.0
 20
0.0
 30
0.0
  9
$PUCSYDIR
 10
0.0
 20
1.0
 30
0.0
  9
$PUCSORTHOREF
  2

  9
$PUCSORTHOVIEW
 70
     0
  9
$PUCSORGTOP
 10
0.0
 20
0.0
 30
0.0
  9
$PUCSORGBOTTOM
 10
0.0
 20
0.0
 30
0.0
  9
$PUCSORGLEFT
 10
0.0
 20
0.0
 30
0.0
  9
$PUCSORGRIGHT
 10
0.0
 20
0.0
 30
0.0
  9
$PUCSORGFRONT
 10
0.0
 20
0.0
 30
0.0
  9
$PUCSORGBACK
 10
0.0
 20
0.0
 30
0.0
  9
$USERI1
 70
     0
  9
$USERI2
 70
     0
  9
$USERI3
 70
     0
  9
$USERI4
 70
     0
  9
$USERI5
 70
     0
  9
$USERR1
 40
0.0
  9
$USERR2
 40
0.0
  9
$USERR3
 40
0.0
  9
$USERR4
 40
0.0
  9
$USERR5
 40
0.0
  9
$WORLDVIEW
 70
     1
  9
$SHADEDGE
 70
     3
  9
$SHADEDIF
 70
    70
  9
$TILEMODE
 70
     1
  9
$MAXACTVP
 70
    64
  9
$PINSBASE
 10
0.0
 20
0.0
 30
0.0
  9
$PLIMCHECK
 70
     0
  9
$PEXTMIN
 10
1.0000000000E+20
 20
1.0000000000E+20
 30
1.0000000000E+20
  9
$PEXTMAX
 10
-1.0000000000E+20
 20
-1.0000000000E+20
 30
-1.0000000000E+20
  9
$PLIMMIN
 10
0.0
 20
0.0
  9
$PLIMMAX
 10
420.0
 20
297.0
  9
$UNITMODE
 70
     0
  9
$VISRETAIN
 70
     1
  9
$PLINEGEN
 70
     0
  9
$PSLTSCALE
 70
     1
  9
$TREEDEPTH
 70
  3020
  9
$CMLSTYLE
  2
Standard
  9
$CMLJUST
 70
     0
  9
$CMLSCALE
 40
20.0
  9
$PROXYGRAPHICS
 70
     1
  9
$MEASUREMENT
 70
     1
  9
$CELWEIGHT
370
    -1
  9
$ENDCAPS
280
     0
  9
$JOINSTYLE
280
     0
  9
$LWDISPLAY
290
     1
  9
$INSUNITS
 70
     4
  9
$HYPERLINKBASE
  1

  9
$STYLESHEET
  1

  9
$XEDIT
290
     1
  9
$CEPSNTYPE
380
     0
  9
$PSTYLEMODE
290
     1
  9
$FINGERPRINTGUID
  2
{afdba58e-0073-4095-a864-17f926dd615b}
  9
$VERSIONGUID
  2
{FAEB1C32-E019-11D5-929B-00C0DF256EC4}
  9
$EXTNAMES
290
     1
  9
$PSVPSCALE
 40
0.0
  9
$OLESTARTUP
290
     0
  0
ENDSEC
  0
SECTION
  2
CLASSES
  0
CLASS
  1
ACDBDICTIONARYWDFLT
  2
AcDbDictionaryWithDefault
  3
ObjectDBX Classes
 90
        0
280
     0
281
     0
  0
CLASS
  1
VISUALSTYLE
  2
AcDbVisualStyle
  3
ObjectDBX Classes
 90
     4095
280
     0
281
     0
  0
CLASS
  1
MATERIAL
  2
AcDbMaterial
  3
ObjectDBX Classes
 90
     1153
280
     0
281
     0
  0
CLASS
  1
SCALE
  2
AcDbScale
  3
ObjectDBX Classes
 90
     1153
280
     0
281
     0
  0
CLASS
  1
TABLESTYLE
  2
AcDbTableStyle
  3
ObjectDBX Classes
 90
     4095
280
     0
281
     0
  0
CLASS
  1
MLEADERSTYLE
  2
AcDbMLeaderStyle
  3
ACDB_MLEADERSTYLE_CLASS
 90
     4095
280
     0
281
     0
  0
CLASS
  1
SUN
  2
AcDbSun
  3
SCENEOE
 90
     1153
280
     0
281
     0
  0
CLASS
  1
ACDBPLACEHOLDER
  2
AcDbPlaceHolder
  3
ObjectDBX Classes
 90
        0
280
     0
281
     0
  0
CLASS
  1
LAYOUT
  2
AcDbLayout
  3
ObjectDBX Classes
 90
        0
280
     0
281
     0
  0
ENDSEC
  0
SECTION
  2
TABLES
  0
TABLE
  2
VPORT
  5
8
330
0
100
AcDbSymbolTable
 70
     1
  0
VPORT
  5
29
330
8
100
AcDbSymbolTableRecord
100
AcDbViewportTableRecord
  2
*Active
 70
     0
 10
0.0
 20
0.0
 11
1.0
 21
1.0
 12
1.5
 22
2.1214285714
 13
0.0
 23
0.0
 14
10.0
 24
10.0
 15
10.0
 25
10.0
 16
0.0
 26
0.0
 36
1.0
 17
0.0
 27
0.0
 37
0.0
 40
4.2428571429
 41
0.7070707071
 42
50.0
 43
0.0
 44
0.0
 50
0.0
 51
0.0
 71
     0
 72
  2000
 73
     1
 74
     3
 75
     0
 76
     0
 77
     0
 78
     0
281
     0
 65
     1
110
0.0
120
0.0
130
0.0
111
1.0
121
0.0
131
0.0
112
0.0
122
1.0
132
0.0
 79
     0
146
0.0
  0
ENDTAB
  0
TABLE
  2
LTYPE
  5
5
330
0
100
AcDbSymbolTable
 70
     6
  0
LTYPE
  5
14
330
5
100
AcDbSymbolTableRecord
100
AcDbLinetypeTableRecord
  2
ByBlock
 70
     0
  3

 72
    65
 73
     0
 40
0.0
  0
LTYPE
  5
15
330
5
100
AcDbSymbolTableRecord
100
AcDbLinetypeTableRecord
  2
ByLayer
 70
     0
  3

 72
    65
 73
     0
 40
0.0
  0
LTYPE
  5
16
330
5
100
AcDbSymbolTableRecord
100
AcDbLinetypeTableRecord
  2
Continuous
 70
     0
  3
Solid line
 72
    65
 73
     0
 40
0.0
  0
LTYPE
  5
6E
330
5
100
AcDbSymbolTableRecord
100
AcDbLinetypeTableRecord
  2
HIDDEN
 70
     0
  3
Hidden __ __ __ __ __ __ __ __ __ __ __ __ __ __
 72
    65
 73
     2
 40
1.905
 49
1.27
 74
     0
 49
-0.635
 74
     0
  0
LTYPE
  5
6F
330
5
100
AcDbSymbolTableRecord
100
AcDbLinetypeTableRecord
  2
PHANTOM
 70
     0
  3
Phantom ______  __  __  ______  __  __  ______
 72
    65
 73
     6
 40
12.7
 49
6.35
 74
     0
 49
-1.27
 74
     0
 49
1.27
 74
     0
 49
-1.27
 74
     0
 49
1.27
 74
     0
 49
-1.27
 74
     0
  0
LTYPE
  5
70
330
5
100
AcDbSymbolTableRecord
100
AcDbLinetypeTableRecord
  2
CENTER
 70
     0
  3
Center ____ _ ____ _ ____ _ ____ _ ____ _ ____
 72
    65
 73
     4
 40
10.16
 49
6.35
 74
     0
 49
-1.27
 74
     0
 49
1.27
 74
     0
 49
-1.27
 74
     0
  0
LTYPE
  5
71
330
5
100
AcDbSymbolTableRecord
100
AcDbLinetypeTableRecord
  2
CENTERX2
 70
     0
  3
Center (2x) ________  __  ________  __  _____
 72
    65
 73
     4
 40
20.32
 49
12.7
 74
     0
 49
-2.54
 74
     0
 49
2.54
 74
     0
 49
-2.54
 74
     0
  0
LTYPE
  5
72
330
5
100
AcDbSymbolTableRecord
100
AcDbLinetypeTableRecord
  2
DOT2
 70
     0
  3
Dot (.5x) ........................................
 72
    65
 73
     2
 40
0.635
 49
0.0
 74
     0
 49
-0.635
 74
     0
  0
ENDTAB
  0
TABLE
  2
LAYER
  5
2
330
0
100
AcDbSymbolTable
 70
     1
  0
LAYER
  5
10
330
2
100
AcDbSymbolTableRecord
100
AcDbLayerTableRecord
  2
0
 70
     0
 62
     7
  6
Continuous
370
    -3
390
F
  0
ENDTAB
  0
TABLE
  2
STYLE
  5
3
330
0
100
AcDbSymbolTable
 70
     2
  0
STYLE
  5
11
330
3
100
AcDbSymbolTableRecord
100
AcDbTextStyleTableRecord
  2
Standard
 70
     0
 40
0.0
 41
1.0
 50
0.0
 71
     0
 42
0.05
  3
txt
  4
bigfont
  0
STYLE
  5
76
330
3
100
AcDbSymbolTableRecord
100
AcDbTextStyleTableRecord
  2
SLDTEXTSTYLE0
 70
     0
 40
0.0
 41
0.7
 50
0.0
 71
     0
 42
0.05
  3
TXT
  4
bigfont
  0
ENDTAB
  0
TABLE
  2
VIEW
  5
6
330
0
100
AcDbSymbolTable
 70
     0
  0
ENDTAB
  0
TABLE
  2
UCS
  5
7
330
0
100
AcDbSymbolTable
 70
     0
  0
ENDTAB
  0
TABLE
  2
APPID
  5
9
330
0
100
AcDbSymbolTable
 70
     1
  0
APPID
  5
12
330
9
100
AcDbSymbolTableRecord
100
AcDbRegAppTableRecord
  2
ACAD
 70
     0
  0
ENDTAB
  0
TABLE
  2
DIMSTYLE
  5
A
330
0
100
AcDbSymbolTable
 70
     1
100
AcDbDimStyleTable
  0
DIMSTYLE
105
27
330
A
100
AcDbSymbolTableRecord
100
AcDbDimStyleTableRecord
  2
ISO-25
 70
     0
 41
2.5
 42
0.625
 43
3.75
 44
1.25
 73
     0
 74
     0
 77
     1
 78
     8
140
2.5
141
2.5
143
0.0393700787
147
0.625
171
     3
172
     1
178
     0
271
     2
272
     2
274
     3
278
    44
283
     0
284
     8
340
11
  0
ENDTAB
  0
TABLE
  2
BLOCK_RECORD
  5
1
330
0
100
AcDbSymbolTable
 70
     2
  0
BLOCK_RECORD
  5
1F
330
1
100
AcDbSymbolTableRecord
100
AcDbBlockTableRecord
  2
*Model_Space
340
22
  0
BLOCK_RECORD
  5
1B
330
1
100
AcDbSymbolTableRecord
100
AcDbBlockTableRecord
  2
*Paper_Space
340
1E
  0
BLOCK_RECORD
  5
23
330
1
100
AcDbSymbolTableRecord
100
AcDbBlockTableRecord
  2
*Paper_Space0
340
26
  0
BLOCK_RECORD
  5
73
330
1
100
AcDbSymbolTableRecord
100
AcDbBlockTableRecord
  2
SW_NOTE_0
340
0
102
{BLKREFS
331
7A
102
}
  0
ENDTAB
  0
ENDSEC
  0
SECTION
  2
BLOCKS
  0
BLOCK
  5
20
330
1F
100
AcDbEntity
  8
0
100
AcDbBlockBegin
  2
*Model_Space
 70
     0
 10
0.0
 20
0.0
 30
0.0
  3
*Model_Space
  1

  0
ENDBLK
  5
21
330
1F
100
AcDbEntity
  8
0
100
AcDbBlockEnd
  0
BLOCK
  5
1C
330
1B
100
AcDbEntity
 67
     1
  8
0
100
AcDbBlockBegin
  2
*Paper_Space
 70
     0
 10
0.0
 20
0.0
 30
0.0
  3
*Paper_Space
  1

  0
ENDBLK
  5
1D
330
1B
100
AcDbEntity
 67
     1
  8
0
100
AcDbBlockEnd
  0
BLOCK
  5
24
330
23
100
AcDbEntity
  8
0
100
AcDbBlockBegin
  2
*Paper_Space0
 70
     0
 10
0.0
 20
0.0
 30
0.0
  3
*Paper_Space0
  1

  0
ENDBLK
  5
25
330
23
100
AcDbEntity
  8
0
100
AcDbBlockEnd
  0
BLOCK
  5
74
330
73
100
AcDbEntity
  8
0
100
AcDbBlockBegin
  2
SW_NOTE_0
 70
     0
 10
0.0
 20
0.0
 30
0.0
  3
SW_NOTE_0
  1

  0
MTEXT
  5
77
330
73
100
AcDbEntity
  8
0
  6
Continuous
 62
     0
370
     0
100
AcDbMText
 10
0.0
 20
0.0974473827
 30
0.0
 40
0.0755952381
 41
0.0
 71
     1
 72
     1
  1
HOA-D07K
  7
SLDTEXTSTYLE0
 73
     1
 44
1.0
  0
MTEXT
  5
78
330
73
100
AcDbEntity
  8
0
  6
Continuous
 62
     0
370
     0
100
AcDbMText
 10
0.0
 20
-0.0176319835
 30
0.0
 40
0.0755952381
 41
0.0
 71
     1
 72
     1
  1
HOA-D07O
  7
SLDTEXTSTYLE0
 73
     1
 44
1.0
  0
MTEXT
  5
79
330
73
100
AcDbEntity
  8
0
  6
Continuous
 62
     0
370
     0
100
AcDbMText
 10
0.0
 20
-0.1327113497
 30
0.0
 40
0.0755952381
 41
0.0
 71
     1
 72
     1
  1
HOA-D07W
  7
SLDTEXTSTYLE0
 73
     1
 44
1.0
  0
ENDBLK
  5
75
330
73
100
AcDbEntity
  8
0
100
AcDbBlockEnd
  0
ENDSEC
  0
SECTION
  2
ENTITIES
  0
INSERT
  5
7A
330
1F
100
AcDbEntity
  8
0
  6
Continuous
 62
     7
370
     0
100
AcDbBlockReference
  2
SW_NOTE_0
 10
2.1152085051
 20
0.7816933252
 30
0.0
  0
LINE
  5
7B
330
1F
100
AcDbEntity
  8
0
  6
Continuous
 62
     7
370
    25
100
AcDbLine
 10
1.4872600175
 20
2.4975085092
 30
0.0
 11
1.487186927
 21
2.4970865675
 31
0.0
  0
LINE
  5
7C
330
1F
100
AcDbEntity
  8
0
  6
Continuous
 62
     7
370
    25
100
AcDbLine
 10
1.487186927
 20
2.4970865675
 30
0.0
 11
1.487186927
 21
2.4094718005
 31
0.0
  0
SPLINE
  5
7D
330
1F
100
AcDbEntity
  8
0
  6
Continuous
 62
     7
370
    25
100
AcDbSpline
210
0.0
220
0.0
230
1.0
 70
     8
 71
     3
 72
     9
 73
     5
 74
     0
 42
0.00000001
 43
0.00000001
 40
0.0
 40
0.0
 40
0.0
 40
0.0
 40
0.0191738211074817
 40
1.0
 40
1.0
 40
1.0
 40
1.0
 10
1.523107055590557
 20
2.409400506058942
 30
0.0
 10
1.523106889377089
 20
2.409694756162869
 30
0.0
 10
1.523098220605907
 20
2.425041207049062
 30
0.0
 10
1.523082678160541
 20
2.440405243138495
 30
0.0
 10
1.523067433723242
 20
2.45547469194846
 30
0.0
  0
SPLINE
  5
7E
330
1F
100
AcDbEntity
  8
0
  6
Continuous
 62
     7
370
    25
100
AcDbSpline
210
0.0
220
0.0
230
1.0
 70
     8
 71
     3
 72
    13
 73
     9
 74
     0
 42
0.00000001
 43
0.00000001
 40
0.0
 40
0.0
 40
0.0
 40
0.0
 40
0.1000170386100857
 40
0.44927459774175
 40
0.704054112655372
 40
0.7371995398999951
 40
0.7504816314617778
 40
1.0
 40
1.0
 40
1.0
 40
1.0
 10
1.523100681589743
 20
2.471362847879583
 30
0.0
 10
1.523099774645886
 20
2.472186553597315
 30
0.0
 10
1.52309570067167
 20
2.47588662370671
 30
0.0
 10
1.523116995655579
 20
2.48177626327123
 30
0.0
 10
1.523098715547482
 20
2.487063681361694
 30
0.0
 10
1.523101644463971
 20
2.489563861563183
 30
0.0
 10
1.523101250383989
 20
2.492032625532411
 30
0.0
 10
1.523099129121832
 20
2.494248363239437
 30
0.0
 10
1.523097115069526
 20
2.496352116244875
 30
0.0
  0
SPLINE
  5
7F
330
1F
100
AcDbEntity
  8
0
  6
Continuous
 62
     7
370
    25
100
AcDbSpline
210
0.0
220
0.0
230
1.0
 70
     8
 71
     3
 72
     9
 73
     5
 74
     0
 42
0.00000001
 43
0.00000001
 40
0.0
 40
0.0
 40
0.0
 40
0.0
 40
0.593378858872282
 40
1.0
 40
1.0
 40
1.0
 40
1.0
 10
1.531310391605078
 20
2.479038166156425
 30
0.0
 10
1.530573364783653
 20
2.47953523486832
 30
0.0
 10
1.529331280050762
 20
2.480372926849526
 30
0.0
 10
1.527942468378703
 20
2.480685557843906
 30
0.0
 10
1.527377748191799
 20
2.480812680215592
 30
0.0
  0
SPLINE
  5
80
330
1F
100
AcDbEntity
  8
0
  6
Continuous
 62
     7
370
    25
100
AcDbSpline
210
0.0
220
0.0
230
1.0
 70
     8
 71
     3
 72
    17
 73
    13
 74
     0
 42
0.00000001
 43
0.00000001
 40
0.0
 40
0.0
 40
0.0
 40
0.0
 40
0.0522766033149713
 40
0.1567977422030562
 40
0.2636427241559839
 40
0.3686470795318671
 40
0.4730477440544292
 40
0.5776903714700624
 40
0.6844166374614568
 40
0.7889995964063001
 40
0.8960230311963077
 40
1.0
 40
1.0
 40
1.0
 40
1.0
 10
1.523071844765072
 20
2.450379147016077
 30
0.0
 10
1.523509576421994
 20
2.450363328367621
 30
0.0
 10
1.524822502877499
 20
2.450315882125798
 30
0.0
 10
1.526965103934818
 20
2.450954814955143
 30
0.0
 10
1.529414470965763
 20
2.452231420675057
 30
0.0
 10
1.53170140370506
 20
2.453855169816372
 30
0.0
 10
1.533722945573613
 20
2.455902671246252
 30
0.0
 10
1.535285945319647
 20
2.458393871737733
 30
0.0
 10
1.536385394174854
 20
2.46115863500205
 30
0.0
 10
1.537126962931792
 20
2.464066502020969
 30
0.0
 10
1.537353406549825
 20
2.467020481929451
 30
0.0
 10
1.537094721061676
 20
2.468945247856142
 30
0.0
 10
1.536967245793984
 20
2.469893735741973
 30
0.0
  0
SPLINE
  5
81
330
1F
100
AcDbEntity
  8
0
  6
Continuous
 62
     7
370
    25
100
AcDbSpline
210
0.0
220
0.0
230
1.0
 70
     8
 71
     3
 72
     9
 73
     5
 74
     0
 42
0.00000001
 43
0.00000001
 40
0.0
 40
0.0
 40
0.0
 40
0.0
 40
0.9739127438038886
 40
1.0
 40
1.0
 40
1.0
 40
1.0
 10
1.527377748191799
 20
2.480812680215592
 30
0.0
 10
1.525991577016977
 20
2.481160980815345
 30
0.0
 10
1.524568275819164
 20
2.481518611005493
 30
0.0
 10
1.523144402868181
 20
2.481880199871175
 30
0.0
 10
1.523107257929718
 20
2.481889632732552
 30
0.0
  0
LINE
  5
82
330
1F
100
AcDbEntity
  8
0
  6
Continuous
 62
     7
370
    25
100
AcDbLine
 10
1.523176045
 20
2.7375376864
 30
0.0
 11
1.5231637314
 21
2.7376348364
 31
0.0
  0
LWPOLYLINE
  5
83
330
1F
100
AcDbEntity
  8
0
  6
Continuous
 62
     7
370
    25
100
AcDbPolyline
 90
        4
 70
   128
 43
0.0
 10
1.4872604311
 20
2.7377012835
 10
1.4872576376
 20
2.7376803191
 10
1.4872600175
 20
2.7376615429
 10
1.4872600175
 20
2.7376615429
  0
LINE
  5
84
330
1F
100
AcDbEntity
  8
0
  6
Continuous
 62
     7
370
    25
100
AcDbLine
 10
1.5231712282
 20
2.6498207292
 30
0.0
 11
1.523085128
 21
2.6745906511
 31
0.0
  0
SPLINE
  5
85
330
1F
100
AcDbEntity
  8
0
  6
Continuous
 62
     7
370
    25
100
AcDbSpline
210
0.0
220
0.0
230
1.0
 70
     8
 71
     3
 72
    18
 73
    14
 74
     0
 42
0.00000001
 43
0.00000001
 40
0.0
 40
0.0
 40
0.0
 40
0.0
 40
0.002144504574874
 40
0.0160597135718243
 40
0.0182747334541881
 40
0.0345239395362696
 40
0.0372092652630686
 40
0.0531527303080766
 40
0.0552846441121215
 40
0.7101014784472292
 40
0.7183953019017141
 40
0.7216716967399013
 40
1.0
 40
1.0
 40
1.0
 40
1.0
 10
1.523587109208915
 20
2.711523754397083
 30
0.0
 10
1.523575790290651
 20
2.711542168366373
 30
0.0
 10
1.523491025451536
 20
2.711680066450606
 30
0.0
 10
1.523394749588327
 20
2.711893503752268
 30
0.0
 10
1.52332086083807
 20
2.712134153879576
 30
0.0
 10
1.523175832266131
 20
2.71244704983323
 30
0.0
 10
1.523147212594424
 20
2.712620518367365
 30
0.0
 10
1.523141993147652
 20
2.71292850674777
 30
0.0
 10
1.521971366638367
 20
2.719392467523113
 30
0.0
 10
1.523187934775558
 20
2.724452315956224
 30
0.0
 10
1.523176166789147
 20
2.730226292689575
 30
0.0
 10
1.523176704150251
 20
2.73271811740103
 30
0.0
 10
1.523176372668561
 20
2.735142002523727
 30
0.0
 10
1.52317604504357
 20
2.737537686395669
 30
0.0
  0
LINE
  5
86
330
1F
100
AcDbEntity
  8
0
  6
Continuous
 62
     7
370
    25
100
AcDbLine
 10
1.4872600175
 20
2.7376615429
 30
0.0
 11
1.4872600175
 21
2.6500467759
 31
0.0
  0
SPLINE
  5
87
330
1F
100
AcDbEntity
  8
0
  6
Continuous
 62
     7
370
    25
100
AcDbSpline
210
0.0
220
0.0
230
1.0
 70
     8
 71
     3
 72
    13
 73
     9
 74
     0
 42
0.00000001
 43
0.00000001
 40
0.0
 40
0.0
 40
0.0
 40
0.0
 40
0.0882916484678688
 40
0.2697548595192965
 40
0.4487139155193296
 40
0.6342842487494936
 40
0.8158547625134872
 40
1.0
 40
1.0
 40
1.0
 40
1.0
 10
1.514129638426724
 20
2.670478218043396
 30
0.0
 10
1.514141676269777
 20
2.670435616163379
 30
0.0
 10
1.514178455135253
 20
2.670305455900672
 30
0.0
 10
1.514746671253366
 20
2.670221801547658
 30
0.0
 10
1.515945808590729
 20
2.670697603462917
 30
0.0
 10
1.517362019645981
 20
2.671385594821728
 30
0.0
 10
1.51925426735218
 20
2.67225192319692
 30
0.0
 10
1.520688653285762
 20
2.673110221070288
 30
0.0
 10
1.521410895457403
 20
2.673542391315035
 30
0.0
  0
SPLINE
  5
88
330
1F
100
AcDbEntity
  8
0
  6
Continuous
 62
     7
370
    25
100
AcDbSpline
210
0.0
220
0.0
230
1.0
 70
     8
 71
     3
 72
    17
 73
    13
 74
     0
 42
0.00000001
 43
0.00000001
 40
0.0
 40
0.0
 40
0.0
 40
0.0
 40
0.1096933060870964
 40
0.2223725897361227
 40
0.3324445743197813
 40
0.4430795659110727
 40
0.5548322900343168
 40
0.6635742880480818
 40
0.7740223708482642
 40
0.8839669010904566
 40
0.9950385923043509
 40
0.9999999999999999
 40
0.9999999999999999
 40
0.9999999999999999
 40
0.9999999999999999
 10
1.5260778004349
 20
2.676563282119243
 30
0.0
 10
1.526914188280561
 20
2.677077097685807
 30
0.0
 10
1.528609731408013
 20
2.678118715467779
 30
0.0
 10
1.530933876935509
 20
2.679987866088242
 30
0.0
 10
1.533292283651102
 20
2.681565408588817
 30
0.0
 10
1.535227938961127
 20
2.683272719292518
 30
0.0
 10
1.537023776352502
 20
2.684678586624822
 30
0.0
 10
1.538392877291376
 20
2.68582412882007
 30
0.0
 10
1.539296485478486
 20
2.687041776196094
 30
0.0
 10
1.539799975017379
 20
2.687608898778212
 30
0.0
 10
1.539840367163938
 20
2.688081664048142
 30
0.0
 10
1.539714462983884
 20
2.688121727794013
 30
0.0
 10
1.539709079503018
 20
2.688123440861913
 30
0.0
  0
SPLINE
  5
89
330
1F
100
AcDbEntity
  8
0
  6
Continuous
 62
     7
370
    25
100
AcDbSpline
210
0.0
220
0.0
230
1.0
 70
     8
 71
     3
 72
    24
 73
    20
 74
     0
 42
0.00000001
 43
0.00000001
 40
0.0
 40
0.0
 40
0.0
 40
0.0
 40
0.020339284509258
 40
0.0825161121221723
 40
0.1439087349687279
 40
0.2057182017245089
 40
0.2676195818249466
 40
0.3303012028571591
 40
0.3917397431600031
 40
0.4529935557919413
 40
0.5147567669579346
 40
0.5769347779187689
 40
0.6389744733416587
 40
0.7012895170602685
 40
0.7636045607788783
 40
0.8252292609109679
 40
0.887407262049823
 40
0.9491704904122343
 40
0.9999999999999999
 40
0.9999999999999999
 40
0.9999999999999999
 40
0.9999999999999999
 10
1.515729421823667
 20
2.67162656548333
 30
0.0
 10
1.515710350952084
 20
2.671649706462829
 30
0.0
 10
1.515632980768429
 20
2.671743589001227
 30
0.0
 10
1.515817284720977
 20
2.672208308743139
 30
0.0
 10
1.516511978408859
 20
2.672964063125928
 30
0.0
 10
1.517335375360255
 20
2.674026222153105
 30
0.0
 10
1.518865429905129
 20
2.675145732013568
 30
0.0
 10
1.520430457719941
 20
2.676481599182208
 30
0.0
 10
1.522287176669225
 20
2.678012368360236
 30
0.0
 10
1.524381149219074
 20
2.679418241509016
 30
0.0
 10
1.526516171163363
 20
2.680883728327932
 30
0.0
 10
1.528603899693978
 20
2.682430916825135
 30
0.0
 10
1.530805293153054
 20
2.683566615288231
 30
0.0
 10
1.532662489638243
 20
2.684837959260549
 30
0.0
 10
1.534464177958536
 20
2.685707019024832
 30
0.0
 10
1.535972302473318
 20
2.686573731084423
 30
0.0
 10
1.537105521642397
 20
2.686919727125652
 30
0.0
 10
1.537780059182745
 20
2.687094519871919
 30
0.0
 10
1.537958080549074
 20
2.687044982080934
 30
0.0
 10
1.538038447532872
 20
2.687022618457244
 30
0.0
  0
SPLINE
  5
8A
330
1F
100
AcDbEntity
  8
0
  6
Continuous
 62
     7
370
    25
100
AcDbSpline
210
0.0
220
0.0
230
1.0
 70
     8
 71
     3
 72
     9
 73
     5
 74
     0
 42
0.00000001
 43
0.00000001
 40
0.0
 40
0.0
 40
0.0
 40
0.0
 40
0.0465599005238006
 40
1.0
 40
1.0
 40
1.0
 40
1.0
 10
1.539709079503018
 20
2.688123440861913
 30
0.0
 10
1.539458591860469
 20
2.688486286595734
 30
0.0
 10
1.534078691136211
 20
2.696279381721356
 30
0.0
 10
1.528705755522301
 20
2.704079587089418
 30
0.0
 10
1.523582983256095
 20
2.711516615671477
 30
0.0
  0
SPLINE
  5
8B
330
1F
100
AcDbEntity
  8
0
  6
Continuous
 62
     7
370
    25
100
AcDbSpline
210
0.0
220
0.0
230
1.0
 70
     8
 71
     3
 72
     9
 73
     5
 74
     0
 42
0.00000001
 43
0.00000001
 40
0.0
 40
0.0
 40
0.0
 40
0.0
 40
0.4689498559774615
 40
1.0
 40
1.0
 40
1.0
 40
1.0
 10
1.50630262414891
 20
2.68189090225986
 30
0.0
 10
1.507531680431105
 20
2.680119438496011
 30
0.0
 10
1.510152549734143
 20
2.67634192637767
 30
0.0
 10
1.512750171182472
 20
2.672512065966392
 30
0.0
 10
1.514129638426724
 20
2.670478218043396
 30
0.0
  0
LINE
  5
8C
330
1F
100
AcDbEntity
  8
0
  6
Continuous
 62
     7
370
    25
100
AcDbLine
 10
1.5156971982
 20
2.6717411793
 30
0.0
 11
1.5157294218
 21
2.6716265655
 31
0.0
  0
SPLINE
  5
8D
330
1F
100
AcDbEntity
  8
0
  6
Continuous
 62
     7
370
    25
100
AcDbSpline
210
0.0
220
0.0
230
1.0
 70
    11
 71
     3
 72
    10
 73
     6
 74
     0
 42
0.00000001
 43
0.00000001
 40
0.0
 40
0.0
 40
0.0
 40
0.0
 40
0.1497728817180303
 40
0.5001333542450168
 40
0.9999999999999999
 40
0.9999999999999999
 40
0.9999999999999999
 40
0.9999999999999999
 10
1.508046577193274
 20
1.780777865350643
 30
0.0
 10
1.507782392226248
 20
1.780780400675395
 30
0.0
 10
1.506900205062696
 20
1.780788866830665
 30
0.0
 10
1.50388834625487
 20
1.780636214756414
 30
0.0
 10
1.50650700934486
 20
1.780725419802569
 30
0.0
 10
1.508046577193274
 20
1.780777865350643
 30
0.0
  0
SPLINE
  5
8E
330
1F
100
AcDbEntity
  8
0
  6
Continuous
 62
     7
370
    25
100
AcDbSpline
210
0.0
220
0.0
230
1.0
 70
     8
 71
     3
 72
     9
 73
     5
 74
     0
 42
0.00000001
 43
0.00000001
 40
0.0
 40
0.0
 40
0.0
 40
0.0
 40
0.0295622128652006
 40
1.0
 40
1.0
 40
1.0
 40
1.0
 10
1.523176282577147
 20
1.798313034654935
 30
0.0
 10
1.523177099861907
 20
1.798319292994015
 30
0.0
 10
1.523204746126553
 20
1.79853099362375
 30
0.0
 10
1.523149841901509
 20
1.798742605350604
 30
0.0
 10
1.523096560766853
 20
1.798947961366545
 30
0.0
  0
SPLINE
  5
8F
330
1F
100
AcDbEntity
  8
0
  6
Continuous
 62
     7
370
    25
100
AcDbSpline
210
0.0
220
0.0
230
1.0
 70
     8
 71
     3
 72
     9
 73
     5
 74
     0
 42
0.00000001
 43
0.00000001
 40
0.0
 40
0.0
 40
0.0
 40
0.0
 40
0.7567365042018305
 40
1.0
 40
1.0
 40
1.0
 40
1.0
 10
1.523176282577147
 20
1.710779862307346
 30
0.0
 10
1.52315376374696
 20
1.718717097422844
 30
0.0
 10
1.523124005924967
 20
1.729205867386267
 30
0.0
 10
1.523115998398334
 20
1.739870559507059
 30
0.0
 10
1.523114050459413
 20
1.742464889793974
 30
0.0
  0
LWPOLYLINE
  5
90
330
1F
100
AcDbEntity
  8
0
  6
Continuous
 62
     7
370
    25
100
AcDbPolyline
 90
        6
 70
   128
 43
0.0
 10
1.5231399498
 20
1.7774773515
 10
1.5231786623
 20
1.7885542495
 10
1.5231747615
 20
1.7910338317
 10
1.5231762842
 20
1.7982315794
 10
1.5231762826
 20
1.7983130347
 10
1.5231762826
 20
1.7983130347
  0
LINE
  5
91
330
1F
100
AcDbEntity
  8
0
  6
Continuous
 62
     7
370
    25
100
AcDbLine
 10
1.4872600179
 20
1.7979506857
 30
0.0
 11
1.4872600179
 21
1.7107798623
 31
0.0
  0
SPLINE
  5
92
330
1F
100
AcDbEntity
  8
0
  6
Continuous
 62
     7
370
    25
100
AcDbSpline
210
0.0
220
0.0
230
1.0
 70
     8
 71
     3
 72
    11
 73
     7
 74
     0
 42
0.00000001
 43
0.00000001
 40
0.0
 40
0.0
 40
0.0
 40
0.0
 40
0.2669704955559038
 40
0.5280125507416431
 40
0.7988628393923916
 40
1.0
 40
1.0
 40
1.0
 40
1.0
 10
1.545381815696163
 20
1.760934514509059
 30
0.0
 10
1.54545692258916
 20
1.761582117038812
 30
0.0
 10
1.545605468525171
 20
1.762862941209623
 30
0.0
 10
1.545333678129557
 20
1.764416006299783
 30
0.0
 10
1.54493602936767
 20
1.765415789589571
 30
0.0
 10
1.544430726374063
 20
1.765797760116966
 30
0.0
 10
1.544215391814764
 20
1.765960536621801
 30
0.0
  0
SPLINE
  5
93
330
1F
100
AcDbEntity
  8
0
  6
Continuous
 62
     7
370
    25
100
AcDbSpline
210
0.0
220
0.0
230
1.0
 70
     8
 71
     3
 72
    16
 73
    12
 74
     0
 42
0.00000001
 43
0.00000001
 40
0.0
 40
0.0
 40
0.0
 40
0.0
 40
0.0916411770890874
 40
0.2048999543858292
 40
0.3194576962415019
 40
0.4315364157951105
 40
0.5447295300133005
 40
0.6610797333334735
 40
0.7721642677208864
 40
0.8884503914432422
 40
1.0
 40
1.0
 40
1.0
 40
1.0
 10
1.527984659828278
 20
1.73941424643173
 30
0.0
 10
1.528225672641316
 20
1.739284309958751
 30
0.0
 10
1.52876455173439
 20
1.738993785783569
 30
0.0
 10
1.530049826775368
 20
1.739073000130349
 30
0.0
 10
1.531375058244049
 20
1.739772179004005
 30
0.0
 10
1.533093754690634
 20
1.740768660698838
 30
0.0
 10
1.534760490830895
 20
1.742281026250641
 30
0.0
 10
1.536606213948555
 20
1.744103284276715
 30
0.0
 10
1.538347114032741
 20
1.746318532760013
 30
0.0
 10
1.540001121972358
 20
1.748718730724704
 30
0.0
 10
1.541049934623835
 20
1.750396938459742
 30
0.0
 10
1.541563438978711
 20
1.751218598056539
 30
0.0
  0
SPLINE
  5
94
330
1F
100
AcDbEntity
  8
0
  6
Continuous
 62
     7
370
    25
100
AcDbSpline
210
0.0
220
0.0
230
1.0
 70
     8
 71
     3
 72
     9
 73
     5
 74
     0
 42
0.00000001
 43
0.00000001
 40
0.0
 40
0.0
 40
0.0
 40
0.0
 40
0.5142205897760753
 40
1.0
 40
1.0
 40
1.0
 40
1.0
 10
1.52243116138239
 20
1.742911047819416
 30
0.0
 10
1.52336600026667
 20
1.742288349945268
 30
0.0
 10
1.525183972753318
 20
1.741077395178912
 30
0.0
 10
1.527068967965721
 20
1.739958017204135
 30
0.0
 10
1.527984659828278
 20
1.73941424643173
 30
0.0
  0
SPLINE
  5
95
330
1F
100
AcDbEntity
  8
0
  6
Continuous
 62
     7
370
    25
100
AcDbSpline
210
0.0
220
0.0
230
1.0
 70
     8
 71
     3
 72
     9
 73
     5
 74
     0
 42
0.00000001
 43
0.00000001
 40
0.0
 40
0.0
 40
0.0
 40
0.0
 40
0.261315135736309
 40
1.0
 40
1.0
 40
1.0
 40
1.0
 10
1.544215391814764
 20
1.765960536621801
 30
0.0
 10
1.542386306131746
 20
1.767076216449579
 30
0.0
 10
1.535386766369673
 20
1.771345696763587
 30
0.0
 10
1.528345748222246
 20
1.7756465814015
 30
0.0
 10
1.523144654687735
 20
1.77882357978647
 30
0.0
  0
SPLINE
  5
96
330
1F
100
AcDbEntity
  8
0
  6
Continuous
 62
     7
370
    25
100
AcDbSpline
210
0.0
220
0.0
230
1.0
 70
     8
 71
     3
 72
    28
 73
    24
 74
     0
 42
0.00000001
 43
0.00000001
 40
0.0
 40
0.0
 40
0.0
 40
0.0
 40
0.0458292577725987
 40
0.0962750675970163
 40
0.1465947783576419
 40
0.198038390176015
 40
0.2480731754517836
 40
0.2981079627972836
 40
0.3474071391045036
 40
0.3977268498651292
 40
0.4472510538631949
 40
0.497916817790619
 40
0.5485825922298151
 40
0.5990284161310383
 40
0.6493481192476184
 40
0.6990644166322706
 40
0.7490992019080391
 40
0.7991339892535392
 40
0.8501746061142819
 40
0.9004943168749074
 40
0.9500185208729731
 40
0.9993176958297958
 40
1.0
 40
1.0
 40
1.0
 40
1.0
 10
1.52316373138002
 20
3.722295617513127
 30
0.0
 10
1.523123297993845
 20
3.722790611133448
 30
0.0
 10
1.523038358215714
 20
3.723830460927499
 30
0.0
 10
1.522398997745566
 20
3.725379954613677
 30
0.0
 10
1.521323424081772
 20
3.726906033268277
 30
0.0
 10
1.519873168227523
 20
3.728325172638185
 30
0.0
 10
1.517988979984175
 20
3.729557374422048
 30
0.0
 10
1.515875275468977
 20
3.730616085188139
 30
0.0
 10
1.513519343615487
 20
3.73150621279608
 30
0.0
 10
1.510901797955103
 20
3.732085529809397
 30
0.0
 10
1.508184110498494
 20
3.732512780697904
 30
0.0
 10
1.505357112956953
 20
3.732699242449853
 30
0.0
 10
1.502527576456004
 20
3.732493490603564
 30
0.0
 10
1.49975023138119
 20
3.73215170540839
 30
0.0
 10
1.497142303664976
 20
3.731523084479111
 30
0.0
 10
1.494691423245962
 20
3.73071862890813
 30
0.0
 10
1.492585796857666
 20
3.729636867105348
 30
0.0
 10
1.490738512926434
 20
3.728400645510378
 30
0.0
 10
1.489146684084312
 20
3.727036130818698
 30
0.0
 10
1.488138082169051
 20
3.725504439177761
 30
0.0
 10
1.487400543787133
 20
3.723953102749212
 30
0.0
 10
1.487190483464141
 20
3.722870287234037
 30
0.0
 10
1.48725948906801
 20
3.722332153070657
 30
0.0
 10
1.487260431073171
 20
3.722324806925842
 30
0.0
  0
SPLINE
  5
97
330
1F
100
AcDbEntity
  8
0
  6
Continuous
 62
     7
370
    25
100
AcDbSpline
210
0.0
220
0.0
230
1.0
 70
     8
 71
     3
 72
     9
 73
     5
 74
     0
 42
0.00000001
 43
0.00000001
 40
0.0
 40
0.0
 40
0.0
 40
0.0
 40
0.2825175119050242
 40
1.0
 40
1.0
 40
1.0
 40
1.0
 10
1.48732923998096
 20
3.540426593369857
 30
0.0
 10
1.487327650847326
 20
3.537385488217205
 30
0.0
 10
1.487322025944207
 20
3.526621181494606
 30
0.0
 10
1.487286162480409
 20
3.516101944183734
 30
0.0
 10
1.487260431073171
 20
3.508554575625068
 30
0.0
  0
LINE
  5
98
330
1F
100
AcDbEntity
  8
0
  6
Continuous
 62
     7
370
    25
100
AcDbLine
 10
1.5231637314
 20
3.5085253862
 30
0.0
 11
1.5231637314
 21
3.7222956175
 31
0.0
  0
SPLINE
  5
99
330
1F
100
AcDbEntity
  8
0
  6
Continuous
 62
     7
370
    25
100
AcDbSpline
210
0.0
220
0.0
230
1.0
 70
     8
 71
     3
 72
    13
 73
     9
 74
     0
 42
0.00000001
 43
0.00000001
 40
0.0
 40
0.0
 40
0.0
 40
0.0
 40
0.8945798655377436
 40
0.9065174634868933
 40
0.907269059188171
 40
0.9119823339381838
 40
0.9855465039154586
 40
0.9999999999999999
 40
0.9999999999999999
 40
0.9999999999999999
 40
0.9999999999999999
 10
1.487260431073171
 20
3.722324806925843
 30
0.0
 10
1.487151933805311
 20
3.679362099060298
 30
0.0
 10
1.487041988710585
 20
3.635826081249982
 30
0.0
 10
1.487266466302315
 20
3.589399381007575
 30
0.0
 10
1.487257131364951
 20
3.588625266512257
 30
0.0
 10
1.487261273312778
 20
3.584702762516848
 30
0.0
 10
1.48725723717818
 20
3.580320374014417
 30
0.0
 10
1.487303988412558
 20
3.576182141052623
 30
0.0
 10
1.487311665493913
 20
3.575502596404526
 30
0.0
  0
SPLINE
  5
9A
330
1F
100
AcDbEntity
  8
0
  6
Continuous
 62
     7
370
    25
100
AcDbSpline
210
0.0
220
0.0
230
1.0
 70
     8
 71
     3
 72
     9
 73
     5
 74
     0
 42
0.00000001
 43
0.00000001
 40
0.0
 40
0.0
 40
0.0
 40
0.0
 40
0.7446762682010579
 40
1.0
 40
1.0
 40
1.0
 40
1.0
 10
1.487297916988646
 20
3.576796534148904
 30
0.0
 10
1.482103063387322
 20
3.573638533887656
 30
0.0
 10
1.475127074191544
 20
3.569397764581449
 30
0.0
 10
1.468059797510086
 20
3.565044179813957
 30
0.0
 10
1.466255354054121
 20
3.563932606304417
 30
0.0
  0
SPLINE
  5
9B
330
1F
100
AcDbEntity
  8
0
  6
Continuous
 62
     7
370
    25
100
AcDbSpline
210
0.0
220
0.0
230
1.0
 70
     8
 71
     3
 72
    22
 73
    18
 74
     0
 42
0.00000001
 43
0.00000001
 40
0.0
 40
0.0
 40
0.0
 40
0.0
 40
0.0670210537491565
 40
0.1340421074983131
 40
0.2002658540544422
 40
0.2664519535664092
 40
0.3339991684348173
 40
0.4003001089564048
 40
0.4670941587054942
 40
0.5334305215813236
 40
0.6002276245817496
 40
0.6665281771350532
 40
0.7333186200787258
 40
0.8003417277462637
 40
0.8674752328793945
 40
0.9336980319063861
 40
0.9999999999999999
 40
0.9999999999999999
 40
0.9999999999999999
 40
0.9999999999999999
 10
1.46512519538875
 20
3.562427151320016
 30
0.0
 10
1.465057877504668
 20
3.561932053388757
 30
0.0
 10
1.464923241736503
 20
3.560941857526237
 30
0.0
 10
1.465083843905345
 20
3.559069051180865
 30
0.0
 10
1.465484624784863
 20
3.556829233396726
 30
0.0
 10
1.466277424352893
 20
3.554372416115934
 30
0.0
 10
1.467407926739696
 20
3.551890859060901
 30
0.0
 10
1.468798959048361
 20
3.549276971218965
 30
0.0
 10
1.470221521592746
 20
3.546671785255475
 30
0.0
 10
1.472019239837958
 20
3.544325364897902
 30
0.0
 10
1.473625679973117
 20
3.542055389204682
 30
0.0
 10
1.475542902126846
 20
3.54030492434324
 30
0.0
 10
1.477349975580967
 20
3.538746938003804
 30
0.0
 10
1.478800238549398
 20
3.537677187558359
 30
0.0
 10
1.480507474773622
 20
3.537156963193814
 30
0.0
 10
1.481520126277351
 20
3.536891436183014
 30
0.0
 10
1.48223372233245
 20
3.53728550173539
 30
0.0
 10
1.482590733507831
 20
3.537482652217131
 30
0.0
  0
SPLINE
  5
9C
330
1F
100
AcDbEntity
  8
0
  6
Continuous
 62
     7
370
    25
100
AcDbSpline
210
0.0
220
0.0
230
1.0
 70
     8
 71
     3
 72
    39
 73
    35
 74
     0
 42
0.00000001
 43
0.00000001
 40
0.0
 40
0.0
 40
0.0
 40
0.0
 40
0.0310729949847257
 40
0.0624483791184021
 40
0.0938237672879165
 40
0.1251177980525174
 40
0.1564540504951807
 40
0.1878625127693374
 40
0.2190204756165859
 40
0.2503567163855876
 40
0.2816929571545893
 40
0.3128509200018378
 40
0.3442593822759945
 40
0.3755956347186578
 40
0.4068896654832587
 40
0.4382650536527731
 40
0.4692924407878841
 40
0.5006888788017505
 40
0.5317618737864762
 40
0.5631372579201527
 40
0.594512646089667
 40
0.6258066768542679
 40
0.6571429292969312
 40
0.6885513915710879
 40
0.7197093544183365
 40
0.7510455951873382
 40
0.7823818359563398
 40
0.8135397988035884
 40
0.844948261077745
 40
0.8762845135204084
 40
0.9075785442850093
 40
0.9389539324545236
 40
0.9703293165882001
 40
1.0
 40
1.0
 40
1.0
 40
1.0
 10
1.578615833273966
 20
1.517931635143673
 30
0.0
 10
1.578546315464688
 20
1.516555265793293
 30
0.0
 10
1.57840660332843
 20
1.5137891328524
 30
0.0
 10
1.577316787684777
 20
1.509671146378064
 30
0.0
 10
1.575534008033325
 20
1.505631983811015
 30
0.0
 10
1.573161824413119
 20
1.50169147461661
 30
0.0
 10
1.569987741217248
 20
1.497946177796602
 30
0.0
 10
1.566387706689467
 20
1.494334710698549
 30
0.0
 10
1.561973899725017
 20
1.491039997572893
 30
0.0
 10
1.557236316979568
 20
1.487902179307476
 30
0.0
 10
1.551800878863083
 20
1.485167268603141
 30
0.0
 10
1.546093669121593
 20
1.482619088717267
 30
0.0
 10
1.539837658112124
 20
1.480541372088517
 30
0.0
 10
1.533350245811058
 20
1.478707002709445
 30
0.0
 10
1.526523093725048
 20
1.477345064906639
 30
0.0
 10
1.519556851167153
 20
1.476291766808232
 30
0.0
 10
1.512408949218055
 20
1.475764172532033
 30
0.0
 10
1.505245079738022
 20
1.475473072330476
 30
0.0
 10
1.498041778763724
 20
1.475704184386732
 30
0.0
 10
1.49090916685309
 20
1.476303696627201
 30
0.0
 10
1.483912179736287
 20
1.477340832556184
 30
0.0
 10
1.477086330013789
 20
1.47870813715513
 30
0.0
 10
1.470598568392382
 20
1.48054106708384
 30
0.0
 10
1.464342651103002
 20
1.482619169782168
 30
0.0
 10
1.458635416280994
 20
1.485167246813343
 30
0.0
 10
1.453199985328639
 20
1.487902185175556
 30
0.0
 10
1.448462399079825
 20
1.491039995957145
 30
0.0
 10
1.444048598940505
 20
1.494334711334196
 30
0.0
 10
1.440448540465587
 20
1.497946176873215
 30
0.0
 10
1.437274546108822
 20
1.501691477662094
 30
0.0
 10
1.434902031383863
 20
1.505631972553293
 30
0.0
 10
1.433120490178879
 20
1.509671188488035
 30
0.0
 10
1.432042422421479
 20
1.513727430953373
 30
0.0
 10
1.431903799133768
 20
1.516431360651493
 30
0.0
 10
1.431836423005403
 20
1.517745572119429
 30
0.0
  0
SPLINE
  5
9D
330
1F
100
AcDbEntity
  8
0
  6
Continuous
 62
     7
370
    25
100
AcDbSpline
210
0.0
220
0.0
230
1.0
 70
     8
 71
     3
 72
    39
 73
    35
 74
     0
 42
0.00000001
 43
0.00000001
 40
0.0
 40
0.0
 40
0.0
 40
0.0
 40
0.0313104259841817
 40
0.0628030934072877
 40
0.0931232165956955
 40
0.1252454726755537
 40
0.1562805812739265
 40
0.187438357172143
 40
0.2183194349331531
 40
0.250113456185885
 40
0.2805277952069801
 40
0.3127685880652386
 40
0.3439263639634551
 40
0.3749614725618279
 40
0.4070837286416861
 40
0.4374038518300939
 40
0.4688965192531999
 40
0.5002069452373815
 40
0.5315173712215632
 40
0.5630100386446691
 40
0.593330161833077
 40
0.6254524179129352
 40
0.656487526511308
 40
0.6876453024095246
 40
0.7183094513659588
 40
0.7501034726186908
 40
0.7818974938714228
 40
0.8125616428278571
 40
0.8437194187260736
 40
0.8747545273244464
 40
0.9068767834043046
 40
0.9371969065927124
 40
0.9686895740158185
 40
1.0
 40
1.0
 40
1.0
 40
1.0
 10
1.528269831684172
 20
1.497436466683567
 30
0.0
 10
1.528228740397411
 20
1.497001033198736
 30
0.0
 10
1.52814631865323
 20
1.496127631800931
 30
0.0
 10
1.52791584035654
 20
1.494832854162649
 30
0.0
 10
1.527288933757546
 20
1.493570164734687
 30
0.0
 10
1.526531248572602
 20
1.492345111646788
 30
0.0
 10
1.525649163375278
 20
1.491126700087924
 30
0.0
 10
1.524373110310772
 20
1.49005557438118
 30
0.0
 10
1.523155176535529
 20
1.488949228139401
 30
0.0
 10
1.521585473867852
 20
1.48801469522582
 30
0.0
 10
1.519935344497254
 20
1.48710201747984
 30
0.0
 10
1.518034007846838
 20
1.486386480943531
 30
0.0
 10
1.516147307940612
 20
1.485642687701332
 30
0.0
 10
1.514037831720216
 20
1.485132259594536
 30
0.0
 10
1.511915446329938
 20
1.484696129283671
 30
0.0
 10
1.509728244228532
 20
1.484330504051614
 30
0.0
 10
1.507485362126139
 20
1.484211412761045
 30
0.0
 10
1.505218143310247
 20
1.484087929874527
 30
0.0
 10
1.502950966294555
 20
1.484211431540651
 30
0.0
 10
1.50070795962961
 20
1.484330429596756
 30
0.0
 10
1.498521207005728
 20
1.484696403547627
 30
0.0
 10
1.49639708357258
 20
1.485131181977266
 30
0.0
 10
1.494293967230311
 20
1.485646557819289
 30
0.0
 10
1.492415251305112
 20
1.486359638129332
 30
0.0
 10
1.490606149640288
 20
1.487142380885849
 30
0.0
 10
1.488933545343984
 20
1.48803556324984
 30
0.0
 10
1.487386331421873
 20
1.48900113856192
 30
0.0
 10
1.486030467045456
 20
1.490045510360069
 30
0.0
 10
1.484795118815451
 20
1.491130070069183
 30
0.0
 10
1.483902829495237
 20
1.492344173290375
 30
0.0
 10
1.483147932406569
 20
1.493570403555415
 30
0.0
 10
1.482520306615972
 20
1.494832789329618
 30
0.0
 10
1.482290020604416
 20
1.496127648153643
 30
0.0
 10
1.482207573014747
 20
1.497001038639085
 30
0.0
 10
1.482166468842742
 20
1.497436466683567
 30
0.0
  0
SPLINE
  5
9E
330
1F
100
AcDbEntity
  8
0
  6
Continuous
 62
     7
370
    25
100
AcDbSpline
210
0.0
220
0.0
230
1.0
 70
     8
 71
     3
 72
    39
 73
    35
 74
     0
 42
0.00000001
 43
0.00000001
 40
0.0
 40
0.0
 40
0.0
 40
0.0
 40
0.0313752390207897
 40
0.0623869617140982
 40
0.0937404845400646
 40
0.1248587355105189
 40
0.1563377153877672
 40
0.187512222301945
 40
0.2187506617648786
 40
0.2499735200704929
 40
0.2811963783761072
 40
0.3124348178390408
 40
0.3436093247532186
 40
0.3750883046304668
 40
0.4062065556009211
 40
0.4375600784268875
 40
0.4688234355559464
 40
0.499966702334483
 40
0.5313419413552727
 40
0.5625398502296113
 40
0.5937330886716276
 40
0.6251331219047189
 40
0.6563185511361543
 40
0.6874930580503321
 40
0.7187314975132657
 40
0.7499683807540184
 40
0.7812052639947711
 40
0.8124437034577047
 40
0.8436182103718826
 40
0.8750971902491308
 40
0.9062154412195852
 40
0.9374086796616015
 40
0.9688567332214635
 40
1.0
 40
1.0
 40
1.0
 40
1.0
 10
1.40311193065551
 20
1.309713732006377
 30
0.0
 10
1.403233240387843
 20
1.307778252754559
 30
0.0
 10
1.403474454347093
 20
1.303929718886768
 30
0.0
 10
1.40503548731743
 20
1.298206093442183
 30
0.0
 10
1.407396977423485
 20
1.292596580265557
 30
0.0
 10
1.41074813153854
 20
1.287123321195651
 30
0.0
 10
1.415031502511826
 20
1.281881930887428
 30
0.0
 10
1.420258611532007
 20
1.276931382377955
 30
0.0
 10
1.426134628557089
 20
1.272240958334759
 30
0.0
 10
1.433029657391885
 20
1.268040204111711
 30
0.0
 10
1.440306364941345
 20
1.264059776354209
 30
0.0
 10
1.448431321976329
 20
1.260667673636539
 30
0.0
 10
1.457006757487188
 20
1.257649941079875
 30
0.0
 10
1.466086454281817
 20
1.255177904467861
 30
0.0
 10
1.475566113982814
 20
1.253240725962737
 30
0.0
 10
1.48531426867059
 20
1.251883531842046
 30
0.0
 10
1.495213165792631
 20
1.250947814437205
 30
0.0
 10
1.505246688872383
 20
1.250659727302638
 30
0.0
 10
1.515250735576722
 20
1.251028032608056
 30
0.0
 10
1.525196954656788
 20
1.251795267597215
 30
0.0
 10
1.534911999779264
 20
1.253264527004454
 30
0.0
 10
1.544356383220093
 20
1.255212969892066
 30
0.0
 10
1.553460594703044
 20
1.257653226647554
 30
0.0
 10
1.562011767557532
 20
1.260664504680451
 30
0.0
 10
1.570099670769463
 20
1.264079168631593
 30
0.0
 10
1.577528952838199
 20
1.267969686932005
 30
0.0
 10
1.584267021224419
 20
1.272258678170096
 30
0.0
 10
1.590187252726489
 20
1.276926379990851
 30
0.0
 10
1.59540019877825
 20
1.28188357932717
 30
0.0
 10
1.599696951042948
 20
1.287121777013065
 30
0.0
 10
1.603003435133413
 20
1.292591726901251
 30
0.0
 10
1.605517302860211
 20
1.29819638437804
 30
0.0
 10
1.607029573110468
 20
1.303930687902548
 30
0.0
 10
1.607226423804176
 20
1.307792318674786
 30
0.0
 10
1.607324369871404
 20
1.309713732006377
 30
0.0
  0
SPLINE
  5
9F
330
1F
100
AcDbEntity
  8
0
  6
Continuous
 62
     7
370
    25
100
AcDbSpline
210
0.0
220
0.0
230
1.0
 70
     8
 71
     3
 72
    21
 73
    17
 74
     0
 42
0.00000001
 43
0.00000001
 40
0.0
 40
0.0
 40
0.0
 40
0.0
 40
0.0738951642931821
 40
0.147729031538954
 40
0.2215356840674603
 40
0.2955941106678626
 40
0.3692164018810282
 40
0.4436678588754718
 40
0.5167344613630805
 40
0.5910303122831457
 40
0.6643238256403396
 40
0.7383822488870528
 40
0.8128337058814965
 40
0.886455997094662
 40
0.9605144236950645
 40
1.0
 40
1.0
 40
1.0
 40
1.0
 10
1.580312891934325
 20
1.517931635143673
 30
0.0
 10
1.580215634997604
 20
1.519348864321074
 30
0.0
 10
1.580021201800119
 20
1.52218214706493
 30
0.0
 10
1.578935523844233
 20
1.526392804194649
 30
0.0
 10
1.57720404518311
 20
1.530535331410198
 30
0.0
 10
1.574597596621359
 20
1.534515755511044
 30
0.0
 10
1.571517942237961
 20
1.538394890132565
 30
0.0
 10
1.567690284083881
 20
1.542023680835802
 30
0.0
 10
1.563370776004691
 20
1.545482115593431
 30
0.0
 10
1.558324066506004
 20
1.548562036064578
 30
0.0
 10
1.552958468233115
 20
1.551483424819868
 30
0.0
 10
1.546981675635792
 20
1.553987210173132
 30
0.0
 10
1.540666323734834
 20
1.556208766632883
 30
0.0
 10
1.533939985876003
 20
1.557970300936152
 30
0.0
 10
1.528137282632167
 20
1.559295402179204
 30
0.0
 10
1.524456348478342
 20
1.559781933136346
 30
0.0
 10
1.523176282577147
 20
1.55995112705889
 30
0.0
  0
SPLINE
  5
A0
330
1F
100
AcDbEntity
  8
0
  6
Continuous
 62
     7
370
    25
100
AcDbSpline
210
0.0
220
0.0
230
1.0
 70
     8
 71
     3
 72
    21
 73
    17
 74
     0
 42
0.00000001
 43
0.00000001
 40
0.0
 40
0.0
 40
0.0
 40
0.0
 40
0.0394882664951746
 40
0.113551738767318
 40
0.1871790459379019
 40
0.2616355753816249
 40
0.3347071559670451
 40
0.4090080687347984
 40
0.4823065756494594
 40
0.5563700445676854
 40
0.6308265740114083
 40
0.704453881181992
 40
0.7785173534541355
 40
0.8523290345007736
 40
0.926167932118842
 40
1.0
 40
1.0
 40
1.0
 40
1.0
 10
1.487260017949766
 20
1.55995112705889
 30
0.0
 10
1.485979946233264
 20
1.559781937766684
 30
0.0
 10
1.482298995357047
 20
1.559295420124458
 30
0.0
 10
1.476496502346308
 20
1.557970151486944
 30
0.0
 10
1.469769288427162
 20
1.556209314731521
 30
0.0
 10
1.463485401275829
 20
1.55399507648542
 30
0.0
 10
1.457494062074666
 20
1.551502685454314
 30
0.0
 10
1.452158904896124
 20
1.548588977143382
 30
0.0
 10
1.447098870035847
 20
1.545491486670529
 30
0.0
 10
1.442759670034844
 20
1.542041449733222
 30
0.0
 10
1.438919107225296
 20
1.538394499134007
 30
0.0
 10
1.435839176784715
 20
1.53451584175314
 30
0.0
 10
1.433229596022772
 20
1.530535378718929
 30
0.0
 10
1.431510898103558
 20
1.526392530034995
 30
0.0
 10
1.430377578054355
 20
1.522184492005354
 30
0.0
 10
1.430302413087844
 20
1.519349210387265
 30
0.0
 10
1.430264832342766
 20
1.517931635143673
 30
0.0
  0
SPLINE
  5
A1
330
1F
100
AcDbEntity
  8
0
  6
Continuous
 62
     7
370
    25
100
AcDbSpline
210
0.0
220
0.0
230
1.0
 70
     8
 71
     3
 72
    15
 73
    11
 74
     0
 42
0.00000001
 43
0.00000001
 40
0.0
 40
0.0
 40
0.0
 40
0.0
 40
0.1316559304726922
 40
0.2646003252409425
 40
0.3964675073430629
 40
0.5280176852781999
 40
0.6610928188389005
 40
0.792880814748247
 40
0.9249390809299378
 40
1.0
 40
1.0
 40
1.0
 40
1.0
 10
1.607324369871404
 20
1.313878090297261
 30
0.0
 10
1.607226433036429
 20
1.315799508451506
 30
0.0
 10
1.607029600897578
 20
1.319661148916251
 30
0.0
 10
1.605517190821439
 20
1.325395379399873
 30
0.0
 10
1.603003850922674
 20
1.331000312598341
 30
0.0
 10
1.599695394950138
 20
1.33646923243393
 30
0.0
 10
1.595406057841997
 20
1.341711303577262
 30
0.0
 10
1.590165611049088
 20
1.346654137343613
 30
0.0
 10
1.585185460056168
 20
1.350695795935798
 30
0.0
 10
1.581609012517794
 20
1.352905211786773
 30
0.0
 10
1.580312891934325
 20
1.353705913972717
 30
0.0
  0
SPLINE
  5
A2
330
1F
100
AcDbEntity
  8
0
  6
Continuous
 62
     7
370
    25
100
AcDbSpline
210
0.0
220
0.0
230
1.0
 70
     8
 71
     3
 72
    15
 73
    11
 74
     0
 42
0.00000001
 43
0.00000001
 40
0.0
 40
0.0
 40
0.0
 40
0.0
 40
0.0776349967558433
 40
0.2093437723521354
 40
0.3407829929430516
 40
0.4722682646510341
 40
0.6046583584558345
 40
0.7361765556742345
 40
0.8677144445588402
 40
1.0
 40
1.0
 40
1.0
 40
1.0
 10
1.430264832342766
 20
1.353796150099498
 30
0.0
 10
1.428920017002507
 20
1.352966093543093
 30
0.0
 10
1.425293705052853
 20
1.350727835308473
 30
0.0
 10
1.420274138212128
 20
1.346653420819956
 30
0.0
 10
1.415031087062829
 20
1.341730789263192
 30
0.0
 10
1.41081231997736
 20
1.33647130989934
 30
0.0
 10
1.407430593183462
 20
1.331020237329211
 30
0.0
 10
1.404903251149608
 20
1.325411397453839
 30
0.0
 10
1.403509644883148
 20
1.319670373030141
 30
0.0
 10
1.403244752296878
 20
1.315812495572178
 30
0.0
 10
1.40311193065551
 20
1.313878090297261
 30
0.0
  0
LINE
  5
A3
330
1F
100
AcDbEntity
  8
0
  6
Continuous
 62
     7
370
    25
100
AcDbLine
 10
1.6073243699
 20
1.309713732
 30
0.0
 11
1.6073243699
 21
1.3138780903
 31
0.0
  0
LINE
  5
A4
330
1F
100
AcDbEntity
  8
0
  6
Continuous
 62
     7
370
    25
100
AcDbLine
 10
1.5803128919
 20
1.3138780903
 30
0.0
 11
1.5803128919
 21
1.5179316351
 31
0.0
  0
LINE
  5
A5
330
1F
100
AcDbEntity
  8
0
  6
Continuous
 62
     7
370
    25
100
AcDbLine
 10
1.4302648323
 20
1.5179316351
 30
0.0
 11
1.4302648323
 21
1.3138780903
 31
0.0
  0
LINE
  5
A6
330
1F
100
AcDbEntity
  8
0
  6
Continuous
 62
     7
370
    25
100
AcDbLine
 10
1.4031119307
 20
1.3138780903
 30
0.0
 11
1.4031119307
 21
1.309713732
 31
0.0
  0
LINE
  5
A7
330
1F
100
AcDbEntity
  8
0
  6
Continuous
 62
     7
370
    25
100
AcDbLine
 10
1.5231762826
 20
1.4890436209
 30
0.0
 11
1.5231762826
 21
1.7107798623
 31
0.0
  0
LINE
  5
A8
330
1F
100
AcDbEntity
  8
0
  6
Continuous
 62
     7
370
    25
100
AcDbLine
 10
1.4872600179
 20
1.7107798623
 30
0.0
 11
1.4872600179
 21
1.4891330772
 31
0.0
  0
SPLINE
  5
A9
330
1F
100
AcDbEntity
  8
0
  6
Continuous
 62
     7
370
    25
100
AcDbSpline
210
0.0
220
0.0
230
1.0
 70
     8
 71
     3
 72
    28
 73
    24
 74
     0
 42
0.00000001
 43
0.00000001
 40
0.0
 40
0.0
 40
0.0
 40
0.0
 40
0.0502175183897476
 40
0.1002170513068498
 40
0.1500915705234787
 40
0.199368022404481
 40
0.2489601444795013
 40
0.298552268605942
 40
0.3495407571720177
 40
0.3987538317704996
 40
0.4487533507353375
 40
0.4976163705161091
 40
0.548970799499237
 40
0.5989703184640749
 40
0.6481833930625568
 40
0.6974598449435591
 40
0.7470519670185795
 40
0.7966440911450201
 40
0.8472331461033141
 40
0.897107665319943
 40
0.9471071842847808
 40
0.9959702040655525
 40
1.0
 40
1.0
 40
1.0
 40
1.0
 10
1.48718692702183
 20
1.798372630310898
 30
0.0
 10
1.48725782418336
 20
1.797826765346335
 30
0.0
 10
1.48739931075423
 20
1.79673740492164
 30
0.0
 10
1.488029641196459
 20
1.795134411864205
 30
0.0
 10
1.489108874675841
 20
1.793629307493436
 30
0.0
 10
1.49050309346332
 20
1.792212450897454
 30
0.0
 10
1.492383728843619
 20
1.791004484002536
 30
0.0
 10
1.494502797522904
 20
1.789906577899154
 30
0.0
 10
1.496970260423597
 20
1.789098386275649
 30
0.0
 10
1.499538250211086
 20
1.788389829375307
 30
0.0
 10
1.502291254901914
 20
1.788053623498881
 30
0.0
 10
1.50512344594696
 20
1.787919550611614
 30
0.0
 10
1.507957252616591
 20
1.788048106386778
 30
0.0
 10
1.510757469895627
 20
1.78838887531731
 30
0.0
 10
1.513292087631942
 20
1.789093933113881
 30
0.0
 10
1.515748463937047
 20
1.789873930482611
 30
0.0
 10
1.51784905916854
 20
1.79096142371355
 30
0.0
 10
1.519699994529981
 20
1.792195722204774
 30
0.0
 10
1.52128214250033
 20
1.79356218934564
 30
0.0
 10
1.52233161605836
 20
1.795097431196991
 30
0.0
 10
1.52294313007217
 20
1.796679808794678
 30
0.0
 10
1.523154641555097
 20
1.797803319625898
 30
0.0
 10
1.523100672555078
 20
1.798378671855587
 30
0.0
 10
1.523096560766853
 20
1.798422506770494
 30
0.0
  0
LINE
  5
AA
330
1F
100
AcDbEntity
  8
0
  6
Continuous
 62
     7
370
    25
100
AcDbLine
 10
1.487186927
 20
2.4094718005
 30
0.0
 11
1.487186927
 21
1.7983726303
 31
0.0
  0
LINE
  5
AB
330
1F
100
AcDbEntity
  8
0
  6
Continuous
 62
     7
370
    25
100
AcDbLine
 10
1.5230965608
 20
1.7984225068
 30
0.0
 11
1.5230965608
 21
2.4092652178
 31
0.0
  0
SPLINE
  5
AC
330
1F
100
AcDbEntity
  8
0
  6
Continuous
 62
     7
370
    25
100
AcDbSpline
210
0.0
220
0.0
230
1.0
 70
     8
 71
     3
 72
    28
 73
    24
 74
     0
 42
0.00000001
 43
0.00000001
 40
0.0
 40
0.0
 40
0.0
 40
0.0
 40
0.0510083008821599
 40
0.1003167234995919
 40
0.1504171562076233
 40
0.1999168125518107
 40
0.2497335689615574
 40
0.2995503274320168
 40
0.3503685324695875
 40
0.4004689727883552
 40
0.4497773811295077
 40
0.4988617326759289
 40
0.5504487786052007
 40
0.6006747772649852
 40
0.6507752175837529
 40
0.699859574508219
 40
0.7498341285566005
 40
0.7996508870270597
 40
0.8508703349618516
 40
0.900970767669883
 40
0.9502791760110355
 40
0.9993635275574567
 40
1.0
 40
1.0
 40
1.0
 40
1.0
 10
1.487260017451261
 20
2.497108611588366
 30
0.0
 10
1.487289205147005
 20
2.496553597871659
 30
0.0
 10
1.487346607843291
 20
2.495462066560195
 30
0.0
 10
1.488141313477283
 20
2.493884443857166
 30
0.0
 10
1.489170048446922
 20
2.492382461588132
 30
0.0
 10
1.490577821308332
 20
2.49096914064268
 30
0.0
 10
1.492447874714427
 20
2.489753067643757
 30
0.0
 10
1.494590283560965
 20
2.488687195260227
 30
0.0
 10
1.49695387478832
 20
2.487766584576992
 30
0.0
 10
1.499606440972351
 20
2.487190360623415
 30
0.0
 10
1.502296500123536
 20
2.486742560418283
 30
0.0
 10
1.505125495217667
 20
2.486641947788164
 30
0.0
 10
1.507961968616048
 20
2.486753440444704
 30
0.0
 10
1.510749623414407
 20
2.487129423165319
 30
0.0
 10
1.513382348622516
 20
2.487721890441718
 30
0.0
 10
1.515713734405387
 20
2.48862925276379
 30
0.0
 10
1.517939753856703
 20
2.489613885451703
 30
0.0
 10
1.519794922448613
 20
2.490868022381973
 30
0.0
 10
1.521258756916526
 20
2.492280062079507
 30
0.0
 10
1.522305610558153
 20
2.493804068242344
 30
0.0
 10
1.523033630486463
 20
2.49535853743096
 30
0.0
 10
1.523245828153369
 20
2.496440198570335
 30
0.0
 10
1.523176927041403
 20
2.496977872394248
 30
0.0
 10
1.52317604504357
 20
2.496984755115502
 30
0.0
  0
LINE
  5
AD
330
1F
100
AcDbEntity
  8
0
  6
Continuous
 62
     7
370
    25
100
AcDbLine
 10
1.523176045
 20
2.6499229194
 30
0.0
 11
1.5231707271
 21
2.6499648759
 31
0.0
  0
LINE
  5
AE
330
1F
100
AcDbEntity
  8
0
  6
Continuous
 62
     7
370
    25
100
AcDbLine
 10
1.523176045
 20
2.4969847551
 30
0.0
 11
1.523176045
 21
2.6499229194
 31
0.0
  0
LINE
  5
AF
330
1F
100
AcDbEntity
  8
0
  6
Continuous
 62
     7
370
    25
100
AcDbLine
 10
1.4872600175
 20
2.6500467759
 30
0.0
 11
1.4872600175
 21
2.4971086116
 31
0.0
  0
SPLINE
  5
B0
330
1F
100
AcDbEntity
  8
0
  6
Continuous
 62
     7
370
    25
100
AcDbSpline
210
0.0
220
0.0
230
1.0
 70
     8
 71
     3
 72
    28
 73
    24
 74
     0
 42
0.00000001
 43
0.00000001
 40
0.0
 40
0.0
 40
0.0
 40
0.0
 40
0.0506902126047003
 40
0.0992122078735845
 40
0.1490985873548563
 40
0.1996996684729373
 40
0.2494607071089415
 40
0.2990646243458839
 40
0.3483527902872675
 40
0.3992308109444569
 40
0.4492422198991384
 40
0.4981168594078784
 40
0.548159476630825
 40
0.5981708855855064
 40
0.6473956631557221
 40
0.6966838290971057
 40
0.7482022230644584
 40
0.7978061403014008
 40
0.8470943062427845
 40
0.8963190838130002
 40
0.9463304927676816
 40
0.9965599529879904
 40
1.0
 40
1.0
 40
1.0
 40
1.0
 10
1.487260431073171
 20
2.737658279562574
 30
0.0
 10
1.487304387344546
 20
2.737106163404318
 30
0.0
 10
1.487390419706788
 20
2.73602554724099
 30
0.0
 10
1.487965700258675
 20
2.734428924467926
 30
0.0
 10
1.489007881479749
 20
2.732907820105648
 30
0.0
 10
1.49062435185388
 20
2.73155628939597
 30
0.0
 10
1.492345709049645
 20
2.730257410088526
 30
0.0
 10
1.494481522030125
 20
2.729183316090312
 30
0.0
 10
1.496963119781907
 20
2.728398872538834
 30
0.0
 10
1.499502393253064
 20
2.727654941971113
 30
0.0
 10
1.502292964193388
 20
2.727318680993377
 30
0.0
 10
1.505096626510612
 20
2.727199964293899
 30
0.0
 10
1.507913180884841
 20
2.727262559972635
 30
0.0
 10
1.510684975337141
 20
2.727619714465403
 30
0.0
 10
1.513226438599178
 20
2.728315220596539
 30
0.0
 10
1.51569062336219
 20
2.72912466443682
 30
0.0
 10
1.517902813291933
 20
2.730162228836484
 30
0.0
 10
1.519796330636848
 20
2.731398927844712
 30
0.0
 10
1.521146244959835
 20
2.732814839886347
 30
0.0
 10
1.522386824123907
 20
2.734278282325434
 30
0.0
 10
1.522895629049804
 20
2.735883794996136
 30
0.0
 10
1.523252450825632
 20
2.737009006512298
 30
0.0
 10
1.523169075478181
 20
2.737591738836356
 30
0.0
 10
1.52316373138002
 20
2.737629090149859
 30
0.0
  0
LWPOLYLINE
  5
B1
330
1F
100
AcDbEntity
  8
0
  6
Continuous
 62
     7
370
    25
100
AcDbPolyline
 90
        4
 70
   128
 43
0.0
 10
1.4872604311
 20
3.5085975795
 10
1.4872576376
 20
3.5085766151
 10
1.4872604311
 20
3.5085545756
 10
1.4872604311
 20
3.5085545756
  0
LINE
  5
B2
330
1F
100
AcDbEntity
  8
0
  6
Continuous
 62
     7
370
    25
100
AcDbLine
 10
1.5231637314
 20
2.7376290901
 30
0.0
 11
1.5231637314
 21
3.5083271392
 31
0.0
  0
LINE
  5
B3
330
1F
100
AcDbEntity
  8
0
  6
Continuous
 62
     7
370
    25
100
AcDbLine
 10
1.4872604311
 20
3.5085545756
 30
0.0
 11
1.4872604311
 21
2.7376582796
 31
0.0
  0
LWPOLYLINE
  5
B4
330
1F
100
AcDbEntity
  8
0
  6
Continuous
 62
   144
370
    18
100
AcDbPolyline
 90
       24
 70
   128
 43
0.0
 10
1.487186927
 20
2.4094718005
 10
1.4874697699
 20
2.4078389844
 10
1.4881061663
 20
2.4062469882
 10
1.4891668263
 20
2.4047366333
 10
1.4905810394
 20
2.4033487392
 10
1.4924195172
 20
2.4021241272
 10
1.4945408374
 20
2.4010627965
 10
1.4970157117
 20
2.4002055682
 10
1.4995612964
 20
2.3995524417
 10
1.5023190128
 20
2.3991850583
 10
1.5050767291
 20
2.3990625969
 10
1.5079758666
 20
2.3991850583
 10
1.510733583
 20
2.3995524417
 10
1.5132791677
 20
2.4002055682
 10
1.5156833313
 20
2.4010219761
 10
1.5178046514
 20
2.4020833067
 10
1.5196431293
 20
2.4033079188
 10
1.5207744994
 20
2.404287609
 10
1.5211987637
 20
2.404695813
 10
1.5222594237
 20
2.4062061679
 10
1.5228958194
 20
2.4077981637
 10
1.5230372412
 20
2.4086145715
 10
1.5231079517
 20
2.4093901594
 10
1.5231070556
 20
2.4094005061
  0
ARC
  5
B5
330
1F
100
AcDbEntity
  8
0
  6
Continuous
 62
     7
370
    25
100
AcDbCircle
 10
1.484732573
 20
2.4601804724
 30
0.0
 40
0.0389653076255681
100
AcDbArc
 50
349.6953776358
 51
6.3142171287
  0
LINE
  5
B6
330
1F
100
AcDbEntity
  8
0
  6
Continuous
 62
     7
370
    25
100
AcDbLine
 10
1.5233200841
 20
2.4732841594
 30
0.0
 11
1.5231064391
 21
2.481106662
 31
0.0
  0
LWPOLYLINE
  5
B7
330
1F
100
AcDbEntity
  8
0
  6
Continuous
 62
     7
370
    25
100
AcDbPolyline
 90
        3
 70
   128
 43
0.0
 10
1.5234615052
 20
2.4674870927
 10
1.5235322157
 20
2.4704673338
 10
1.5233200841
 20
2.4732841594
  0
LINE
  5
B8
330
1F
100
AcDbEntity
  8
0
  6
Continuous
 62
     7
370
    25
100
AcDbLine
 10
1.5234615052
 20
2.4644659138
 30
0.0
 11
1.5234615052
 21
2.4674870927
 31
0.0
  0
LWPOLYLINE
  5
B9
330
1F
100
AcDbEntity
  8
0
  6
Continuous
 62
     7
370
    25
100
AcDbPolyline
 90
        8
 70
   128
 43
0.0
 10
1.5054302826
 20
2.7013868669
 10
1.5032382513
 20
2.6999578376
 10
1.5014704848
 20
2.6982023062
 10
1.5007633772
 20
2.6956709717
 10
1.5011169307
 20
2.6922823891
 10
1.5025311444
 20
2.6882813401
 10
1.5045110434
 20
2.6843620287
 10
1.5063026241
 20
2.6818909023
  0
ARC
  5
BA
330
1F
100
AcDbEntity
  8
0
  6
Continuous
 62
     7
370
    25
100
AcDbCircle
 10
1.8744950442
 20
2.1331861237
 30
0.0
 40
0.6454868798216483
100
AcDbArc
 50
122.6682773819
 51
123.1617424709
  0
ARC
  5
BB
330
1F
100
AcDbEntity
  8
0
  6
Continuous
 62
     7
370
    25
100
AcDbCircle
 10
1.5065587031
 20
2.7294002825
 30
0.0
 40
0.0246911250011627
100
AcDbArc
 50
292.3960187754
 51
313.5897397823
  0
LWPOLYLINE
  5
BC
330
1F
100
AcDbEntity
  8
0
  6
Continuous
 62
     7
370
    25
100
AcDbPolyline
 90
        7
 70
   128
 43
0.0
 10
1.5054302826
 20
2.7013868669
 10
1.5216937379
 20
2.6777903693
 10
1.5240271896
 20
2.6795458374
 10
1.5265020644
 20
2.6811380132
 10
1.5289062267
 20
2.6827710278
 10
1.5312396799
 20
2.6842814728
 10
1.5159661732
 20
2.7065715471
  0
LWPOLYLINE
  5
BD
330
1F
100
AcDbEntity
  8
0
  6
Continuous
 62
   144
370
    18
100
AcDbPolyline
 90
       24
 70
   128
 43
0.0
 10
1.4872600175
 20
2.6500467759
 10
1.4874697699
 20
2.6483919156
 10
1.4881768768
 20
2.6468407398
 10
1.4892375368
 20
2.6453303849
 10
1.49065175
 20
2.6439424908
 10
1.4924902278
 20
2.6427178788
 10
1.4939751519
 20
2.641942291
 10
1.494611548
 20
2.6416565481
 10
1.4970157117
 20
2.6407584995
 10
1.499632007
 20
2.6401461933
 10
1.5009755102
 20
2.6399420916
 10
1.5023190128
 20
2.6397379895
 10
1.5050767291
 20
2.6396155281
 10
1.5079758666
 20
2.6397379895
 10
1.510733583
 20
2.6401053729
 10
1.5133498783
 20
2.6407176791
 10
1.5156833313
 20
2.6415749073
 10
1.5178753619
 20
2.6425954177
 10
1.5197138398
 20
2.6438200297
 10
1.5211987637
 20
2.6452487442
 10
1.5222594237
 20
2.6467590992
 10
1.52296653
 20
2.6483102746
 10
1.5231079517
 20
2.6491266825
 10
1.5231712282
 20
2.6498207292
  0
LWPOLYLINE
  5
BE
330
1F
100
AcDbEntity
  8
0
  6
Continuous
 62
     7
370
    25
100
AcDbPolyline
 90
        5
 70
   128
 43
0.0
 10
1.5145519594
 20
1.7625687618
 10
1.5132084568
 20
1.7578737285
 10
1.5134205888
 20
1.7546483522
 10
1.515259066
 20
1.7498306725
 10
1.5145519594
 20
1.70198143
  0
LWPOLYLINE
  5
BF
330
1F
100
AcDbEntity
  8
0
  6
Continuous
 62
     7
370
    25
100
AcDbPolyline
 90
        3
 70
   128
 43
0.0
 10
1.5158247526
 20
1.7826556036
 10
1.5160368846
 20
1.7644058654
 10
1.5145519594
 20
1.7625687618
  0
LINE
  5
C0
330
1F
100
AcDbEntity
  8
0
  6
Continuous
 62
     7
370
    25
100
AcDbLine
 10
1.510733583
 20
1.7811860691
 30
0.0
 11
1.5133498783
 21
1.7817983753
 31
0.0
  0
LINE
  5
C1
330
1F
100
AcDbEntity
  8
0
  6
Continuous
 62
     7
370
    25
100
AcDbLine
 10
1.510733583
 20
1.7009200991
 30
0.0
 11
1.510733583
 21
1.7811860691
 31
0.0
  0
LWPOLYLINE
  5
C2
330
1F
100
AcDbEntity
  8
0
  6
Continuous
 62
     7
370
    25
100
AcDbPolyline
 90
       11
 70
   128
 43
0.0
 10
1.5185117574
 20
1.7654264296
 10
1.5167439906
 20
1.7630177593
 10
1.515259067
 20
1.7604457437
 10
1.5146933815
 20
1.7575878949
 10
1.5151176455
 20
1.7544033661
 10
1.5163904372
 20
1.7511371597
 10
1.5180167824
 20
1.7480749799
 10
1.5197138387
 20
1.7454619265
 10
1.5208452098
 20
1.7442369844
 10
1.5221887138
 20
1.7429711044
 10
1.5224311614
 20
1.7429110478
  0
ARC
  5
C3
330
1F
100
AcDbEntity
  8
0
  6
Continuous
 62
     7
370
    25
100
AcDbCircle
 10
1.519600336
 20
1.7759924795
 30
0.0
 40
0.0043357234428496
100
AcDbArc
 50
337.39333289
 51
35.1944198792
  0
LWPOLYLINE
  5
C4
330
1F
100
AcDbEntity
  8
0
  6
Continuous
 62
     7
370
    25
100
AcDbPolyline
 90
        7
 70
   128
 43
0.0
 10
1.5185117574
 20
1.7654264296
 10
1.541563439
 20
1.7512185981
 10
1.5429069422
 20
1.7537905227
 10
1.5440383125
 20
1.7564032362
 10
1.5448161299
 20
1.7587301212
 10
1.5453818157
 20
1.7609345145
 10
1.5236029263
 20
1.7743258154
  0
LINE
  5
C5
330
1F
100
AcDbEntity
  8
0
  6
Continuous
 62
   144
370
    18
100
AcDbLine
 10
1.5133498783
 20
1.7817983753
 30
0.0
 11
1.5158247526
 21
1.7826556036
 31
0.0
  0
ARC
  5
C6
330
1F
100
AcDbEntity
  8
0
  6
Continuous
 62
   144
370
    18
100
AcDbCircle
 10
1.5127866531
 20
1.7123378491
 30
0.0
 40
0.0105057947584772
100
AcDbArc
 50
279.6733961717
 51
351.4717025022
  0
LWPOLYLINE
  5
C7
330
1F
100
AcDbEntity
  8
0
  6
Continuous
 62
   144
370
    18
100
AcDbPolyline
 90
       14
 70
   128
 43
0.0
 10
1.4872600179
 20
1.7107798623
 10
1.4874697706
 20
1.7091250008
 10
1.4881768768
 20
1.7075738254
 10
1.4892375368
 20
1.7060634704
 10
1.49065175
 20
1.7046755764
 10
1.4924902279
 20
1.7034509643
 10
1.494611548
 20
1.7023896336
 10
1.4970864223
 20
1.7015324053
 10
1.4997027175
 20
1.7009200991
 10
1.5023897233
 20
1.7005118954
 10
1.5052181503
 20
1.7004302544
 10
1.5071980492
 20
1.7005118954
 10
1.5080465772
 20
1.7005118954
 10
1.510733583
 20
1.7009200991
  0
LWPOLYLINE
  5
C8
330
1F
100
AcDbEntity
  8
0
  6
Continuous
 62
   144
370
    18
100
AcDbPolyline
 90
        3
 70
   128
 43
0.0
 10
1.510733583
 20
1.7009200991
 10
1.5133498783
 20
1.7015324053
 10
1.5145519594
 20
1.70198143
  0
LWPOLYLINE
  5
C9
330
1F
100
AcDbEntity
  8
0
  6
Continuous
 62
     7
370
    25
100
AcDbPolyline
 90
        5
 70
   128
 43
0.0
 10
1.4869040848
 20
3.5756550953
 10
1.4651251954
 20
3.5624271513
 10
1.4656908812
 20
3.563488391
 10
1.4664686986
 20
3.5641004991
 10
1.4665552398
 20
3.5641171374
  0
LINE
  5
CA
330
1F
100
AcDbEntity
  8
0
  6
Continuous
 62
     7
370
    25
100
AcDbLine
 10
1.4825907335
 20
3.5374826522
 30
0.0
 11
1.4881768775
 21
3.5409532139
 31
0.0
  0
ARC
  5
CB
330
1F
100
AcDbEntity
  8
0
  6
Continuous
 62
     7
370
    25
100
AcDbCircle
 10
1.4750852579
 20
3.5564223949
 30
0.0
 40
0.0202653907131021
100
AcDbArc
 50
310.2413495545
 51
356.7800504801
  0
LINE
  5
CC
330
1F
100
AcDbEntity
  8
0
  6
Continuous
 62
     7
370
    25
100
AcDbLine
 10
1.495318655
 20
3.5552841052
 30
0.0
 11
1.4947529696
 21
3.5582235729
 31
0.0
  0
ARC
  5
CD
330
1F
100
AcDbEntity
  8
0
  6
Continuous
 62
     7
370
    25
100
AcDbCircle
 10
1.5198743198
 20
3.5800177718
 30
0.0
 40
0.0332576207876627
100
AcDbArc
 50
187.5376842246
 51
220.9434961758
  0
LWPOLYLINE
  5
CE
330
1F
100
AcDbEntity
  8
0
  6
Continuous
 62
   144
370
    18
100
AcDbPolyline
 90
       17
 70
   128
 43
0.0
 10
1.4945408374
 20
3.5001267908
 10
1.4969450008
 20
3.499310383
 10
1.4995612964
 20
3.498616436
 10
1.5023190128
 20
3.4982490526
 10
1.5030968302
 20
3.4982082322
 10
1.5050767291
 20
3.4981265912
 10
1.5079051561
 20
3.4982082322
 10
1.5106628724
 20
3.4985756156
 10
1.5132084571
 20
3.4992287422
 10
1.5156126206
 20
3.5000451499
 10
1.5178753619
 20
3.5011064807
 10
1.5197138398
 20
3.5023310928
 10
1.5211280528
 20
3.5037189868
 10
1.5222594237
 20
3.5051885215
 10
1.5228958194
 20
3.5067805173
 10
1.5231786623
 20
3.5084133334
 10
1.5231637314
 20
3.5085253862
  0
ARC
  5
CF
330
1F
100
AcDbEntity
  8
0
  6
Continuous
 62
   144
370
    18
100
AcDbCircle
 10
1.4977479574
 20
3.5102557956
 30
0.0
 40
0.0106246109155955
100
AcDbArc
 50
189.21390137
 51
252.4307885939
  0
ENDSEC
  0
SECTION
  2
OBJECTS
  0
DICTIONARY
  5
C
330
0
100
AcDbDictionary
281
     1
  3
ACAD_GROUP
350
D
  3
ACAD_LAYOUT
350
1A
  3
ACAD_MLINESTYLE
350
17
  3
ACAD_PLOTSETTINGS
350
19
  3
ACAD_PLOTSTYLENAME
350
E
  3
ACAD_SCALELIST
350
47
  3
DWGPROPS
350
D0
  0
DICTIONARY
  5
D
102
{ACAD_REACTORS
330
C
102
}
330
C
100
AcDbDictionary
281
     1
  0
DICTIONARY
  5
1A
102
{ACAD_REACTORS
330
C
102
}
330
C
100
AcDbDictionary
281
     1
  3
Layout1
350
1E
  3
Layout2
350
26
  3
Model
350
22
  0
DICTIONARY
  5
17
102
{ACAD_REACTORS
330
C
102
}
330
C
100
AcDbDictionary
281
     1
  3
Standard
350
18
  0
DICTIONARY
  5
19
102
{ACAD_REACTORS
330
C
102
}
330
C
100
AcDbDictionary
281
     1
  0
ACDBDICTIONARYWDFLT
  5
E
102
{ACAD_REACTORS
330
C
102
}
330
C
100
AcDbDictionary
281
     1
  3
Normal
350
F
100
AcDbDictionaryWithDefault
340
F
  0
DICTIONARY
  5
47
102
{ACAD_REACTORS
330
C
102
}
330
C
100
AcDbDictionary
281
     1
  3
A0
350
48
  3
A1
350
49
  3
A2
350
4A
  3
A3
350
4B
  3
A4
350
4C
  3
A5
350
4D
  3
A6
350
4E
  3
A7
350
4F
  3
A8
350
50
  3
A9
350
51
  3
B0
350
52
  3
B1
350
53
  3
B2
350
54
  3
B3
350
55
  3
B4
350
56
  3
B5
350
57
  3
B6
350
58
  3
B7
350
59
  3
B8
350
5A
  3
B9
350
5B
  3
C0
350
5C
  3
C1
350
5D
  3
C2
350
5E
  3
C3
350
5F
  3
C4
350
60
  3
C5
350
61
  3
C6
350
62
  3
C7
350
63
  3
C8
350
64
  3
C9
350
65
  3
D0
350
66
  3
D1
350
67
  3
D2
350
68
  0
XRECORD
  5
D0
102
{ACAD_REACTORS
330
C
102
}
330
C
100
AcDbXrecord
280
     1
  1
DWGPROPS COOKIE
  2

  3

  4

  6

  7

  8
9222
  9

300
=
301
=
302
=
303
=
304
=
305
=
306
=
307
=
308
=
309
=
 40
0.0
 41
2459920.222980208
 42
2459920.22298044
  1

 90
        0
  0
LAYOUT
  5
1E
102
{ACAD_REACTORS
330
1A
102
}
330
1A
100
AcDbPlotSettings
  1

  2
none_device
  4

  6

 40
0.0
 41
0.0
 42
0.0
 43
0.0
 44
0.0
 45
0.0
 46
0.0
 47
0.0
 48
0.0
 49
0.0
140
0.0
141
0.0
142
1.0
143
1.0
 70
   688
 72
     1
 73
     0
 74
     5
  7

 75
    16
147
1.0
148
0.0
149
0.0
100
AcDbLayout
  1
Layout1
 70
     1
 71
     1
 10
0.0
 20
0.0
 11
420.0
 21
297.0
 12
0.0
 22
0.0
 32
0.0
 14
1.0000000000E+20
 24
1.0000000000E+20
 34
1.0000000000E+20
 15
-1.0000000000E+20
 25
-1.0000000000E+20
 35
-1.0000000000E+20
146
0.0
 13
0.0
 23
0.0
 33
0.0
 16
1.0
 26
0.0
 36
0.0
 17
0.0
 27
1.0
 37
0.0
 76
     0
330
1B
  0
LAYOUT
  5
26
102
{ACAD_REACTORS
330
1A
102
}
330
1A
100
AcDbPlotSettings
  1

  2
none_device
  4

  6

 40
0.0
 41
0.0
 42
0.0
 43
0.0
 44
0.0
 45
0.0
 46
0.0
 47
0.0
 48
0.0
 49
0.0
140
0.0
141
0.0
142
1.0
143
1.0
 70
   688
 72
     1
 73
     0
 74
     5
  7

 75
    16
147
1.0
148
0.0
149
0.0
100
AcDbLayout
  1
Layout2
 70
     1
 71
     2
 10
0.0
 20
0.0
 11
0.0
 21
0.0
 12
0.0
 22
0.0
 32
0.0
 14
0.0
 24
0.0
 34
0.0
 15
0.0
 25
0.0
 35
0.0
146
0.0
 13
0.0
 23
0.0
 33
0.0
 16
1.0
 26
0.0
 36
0.0
 17
0.0
 27
1.0
 37
0.0
 76
     0
330
23
  0
LAYOUT
  5
22
102
{ACAD_REACTORS
330
1A
102
}
330
1A
100
AcDbPlotSettings
  1

  2
none_device
  4
Letter_(8.50_x_11.00_Inches)
  6

 40
6.35
 41
6.35
 42
6.35000508
 43
6.35000508
 44
215.9
 45
279.4
 46
0.0
 47
0.0
 48
0.0
 49
0.0
140
0.0
141
0.0
142
1.0
143
1.0
 70
  1712
 72
     1
 73
     0
 74
     0
  7

 75
     0
147
1.0
148
0.0
149
0.0
100
AcDbLayout
  1
Model
 70
     1
 71
     0
 10
0.0
 20
0.0
 11
3.0
 21
4.2428571429
 12
0.0
 22
0.0
 32
0.0
 14
0.0
 24
0.0
 34
0.0
 15
3.0
 25
4.2428571429
 35
0.0
146
0.0
 13
0.0
 23
0.0
 33
0.0
 16
1.0
 26
0.0
 36
0.0
 17
0.0
 27
1.0
 37
0.0
 76
     0
330
1F
331
29
  0
MLINESTYLE
  5
18
102
{ACAD_REACTORS
330
17
102
}
330
17
100
AcDbMlineStyle
  2
Standard
 70
     0
  3

 62
   256
 51
90.0
 52
90.0
 71
     2
 49
0.5
 62
   256
  6
BYLAYER
 49
-0.5
 62
   256
  6
BYLAYER
  0
ACDBPLACEHOLDER
  5
F
102
{ACAD_REACTORS
330
E
102
}
330
E
  0
SCALE
  5
48
102
{ACAD_REACTORS
330
47
102
}
330
47
100
AcDbScale
 70
     0
300
1:1
140
1.0
141
1.0
290
     1
  0
SCALE
  5
49
102
{ACAD_REACTORS
330
47
102
}
330
47
100
AcDbScale
 70
     0
300
1:2
140
1.0
141
2.0
290
     0
  0
SCALE
  5
4A
102
{ACAD_REACTORS
330
47
102
}
330
47
100
AcDbScale
 70
     0
300
1:4
140
1.0
141
4.0
290
     0
  0
SCALE
  5
4B
102
{ACAD_REACTORS
330
47
102
}
330
47
100
AcDbScale
 70
     0
300
1:5
140
1.0
141
5.0
290
     0
  0
SCALE
  5
4C
102
{ACAD_REACTORS
330
47
102
}
330
47
100
AcDbScale
 70
     0
300
1:8
140
1.0
141
8.0
290
     0
  0
SCALE
  5
4D
102
{ACAD_REACTORS
330
47
102
}
330
47
100
AcDbScale
 70
     0
300
1:10
140
1.0
141
10.0
290
     0
  0
SCALE
  5
4E
102
{ACAD_REACTORS
330
47
102
}
330
47
100
AcDbScale
 70
     0
300
1:16
140
1.0
141
16.0
290
     0
  0
SCALE
  5
4F
102
{ACAD_REACTORS
330
47
102
}
330
47
100
AcDbScale
 70
     0
300
1:20
140
1.0
141
20.0
290
     0
  0
SCALE
  5
50
102
{ACAD_REACTORS
330
47
102
}
330
47
100
AcDbScale
 70
     0
300
1:30
140
1.0
141
30.0
290
     0
  0
SCALE
  5
51
102
{ACAD_REACTORS
330
47
102
}
330
47
100
AcDbScale
 70
     0
300
1:40
140
1.0
141
40.0
290
     0
  0
SCALE
  5
52
102
{ACAD_REACTORS
330
47
102
}
330
47
100
AcDbScale
 70
     0
300
1:50
140
1.0
141
50.0
290
     0
  0
SCALE
  5
53
102
{ACAD_REACTORS
330
47
102
}
330
47
100
AcDbScale
 70
     0
300
1:100
140
1.0
141
100.0
290
     0
  0
SCALE
  5
54
102
{ACAD_REACTORS
330
47
102
}
330
47
100
AcDbScale
 70
     0
300
2:1
140
2.0
141
1.0
290
     0
  0
SCALE
  5
55
102
{ACAD_REACTORS
330
47
102
}
330
47
100
AcDbScale
 70
     0
300
4:1
140
4.0
141
1.0
290
     0
  0
SCALE
  5
56
102
{ACAD_REACTORS
330
47
102
}
330
47
100
AcDbScale
 70
     0
300
8:1
140
8.0
141
1.0
290
     0
  0
SCALE
  5
57
102
{ACAD_REACTORS
330
47
102
}
330
47
100
AcDbScale
 70
     0
300
10:1
140
10.0
141
1.0
290
     0
  0
SCALE
  5
58
102
{ACAD_REACTORS
330
47
102
}
330
47
100
AcDbScale
 70
     0
300
100:1
140
100.0
141
1.0
290
     0
  0
SCALE
  5
59
102
{ACAD_REACTORS
330
47
102
}
330
47
100
AcDbScale
 70
     0
300
1/128" = 1'-0"
140
0.0078125
141
12.0
290
     0
  0
SCALE
  5
5A
102
{ACAD_REACTORS
330
47
102
}
330
47
100
AcDbScale
 70
     0
300
1/64" = 1'-0"
140
0.015625
141
12.0
290
     0
  0
SCALE
  5
5B
102
{ACAD_REACTORS
330
47
102
}
330
47
100
AcDbScale
 70
     0
300
1/32" = 1'-0"
140
0.03125
141
12.0
290
     0
  0
SCALE
  5
5C
102
{ACAD_REACTORS
330
47
102
}
330
47
100
AcDbScale
 70
     0
300
1/16" = 1'-0"
140
0.0625
141
12.0
290
     0
  0
SCALE
  5
5D
102
{ACAD_REACTORS
330
47
102
}
330
47
100
AcDbScale
 70
     0
300
3/32" = 1'-0"
140
0.09375
141
12.0
290
     0
  0
SCALE
  5
5E
102
{ACAD_REACTORS
330
47
102
}
330
47
100
AcDbScale
 70
     0
300
1/8" = 1'-0"
140
0.125
141
12.0
290
     0
  0
SCALE
  5
5F
102
{ACAD_REACTORS
330
47
102
}
330
47
100
AcDbScale
 70
     0
300
3/16" = 1'-0"
140
0.1875
141
12.0
290
     0
  0
SCALE
  5
60
102
{ACAD_REACTORS
330
47
102
}
330
47
100
AcDbScale
 70
     0
300
1/4" = 1'-0"
140
0.25
141
12.0
290
     0
  0
SCALE
  5
61
102
{ACAD_REACTORS
330
47
102
}
330
47
100
AcDbScale
 70
     0
300
3/8" = 1'-0"
140
0.375
141
12.0
290
     0
  0
SCALE
  5
62
102
{ACAD_REACTORS
330
47
102
}
330
47
100
AcDbScale
 70
     0
300
1/2" = 1'-0"
140
0.5
141
12.0
290
     0
  0
SCALE
  5
63
102
{ACAD_REACTORS
330
47
102
}
330
47
100
AcDbScale
 70
     0
300
3/4" = 1'-0"
140
0.75
141
12.0
290
     0
  0
SCALE
  5
64
102
{ACAD_REACTORS
330
47
102
}
330
47
100
AcDbScale
 70
     0
300
1" = 1'-0"
140
1.0
141
12.0
290
     0
  0
SCALE
  5
65
102
{ACAD_REACTORS
330
47
102
}
330
47
100
AcDbScale
 70
     0
300
1-1/2" = 1'-0"
140
1.5
141
12.0
290
     0
  0
SCALE
  5
66
102
{ACAD_REACTORS
330
47
102
}
330
47
100
AcDbScale
 70
     0
300
3" = 1'-0"
140
3.0
141
12.0
290
     0
  0
SCALE
  5
67
102
{ACAD_REACTORS
330
47
102
}
330
47
100
AcDbScale
 70
     0
300
6" = 1'-0"
140
6.0
141
12.0
290
     0
  0
SCALE
  5
68
102
{ACAD_REACTORS
330
47
102
}
330
47
100
AcDbScale
 70
     0
300
1'-0" = 1'-0"
140
12.0
141
12.0
290
     0
  0
ENDSEC
  0
EOF
