  0
SECTION
  2
HEADER
  9
$ACADVER
  1
AC1015
  9
$ACADMAINTVER
 70
     6
  9
$DWGCODEPAGE
  3
DOS932
  9
$INSBASE
 10
0.0
 20
0.0
 30
0.0
  9
$EXTMIN
 10
0.0
 20
0.0
 30
0.0
  9
$EXTMAX
 10
2520.0
 20
3564.0
 30
0.0
  9
$LIMMIN
 10
0.0
 20
0.0
  9
$LIMMAX
 10
2520.0
 20
3564.0
  9
$ORTHOMODE
 70
     0
  9
$REGENMODE
 70
     1
  9
$FILLMODE
 70
     1
  9
$QTEXTMODE
 70
     0
  9
$MIRRTEXT
 70
     1
  9
$LTSCALE
 40
12.0
  9
$ATTMODE
 70
     1
  9
$TEXTSIZE
 40
42.0
  9
$TRACEWID
 40
1.0
  9
$TEXTSTYLE
  7
Standard
  9
$CLAYER
  8
0
  9
$CELTYPE
  6
ByLayer
  9
$CECOLOR
 62
   256
  9
$CELTSCALE
 40
1.0
  9
$DISPSILH
 70
     0
  9
$DIMSCALE
 40
1.0
  9
$DIMASZ
 40
39.624
  9
$DIMEXO
 40
12.0
  9
$DIMDLI
 40
3.75
  9
$DIMRND
 40
0.0
  9
$DIMDLE
 40
0.0
  9
$DIMEXE
 40
12.0
  9
$DIMTP
 40
0.0
  9
$DIMTM
 40
0.0
  9
$DIMTXT
 40
42.0
  9
$DIMCEN
 40
2.5
  9
$DIMTSZ
 40
0.0
  9
$DIMTOL
 70
     0
  9
$DIMLIM
 70
     0
  9
$DIMTIH
 70
     1
  9
$DIMTOH
 70
     1
  9
$DIMSE1
 70
     0
  9
$DIMSE2
 70
     0
  9
$DIMTAD
 70
     1
  9
$DIMZIN
 70
     1
  9
$DIMBLK
  1

  9
$DIMASO
 70
     1
  9
$DIMSHO
 70
     1
  9
$DIMPOST
  1

  9
$DIMAPOST
  1

  9
$DIMALT
 70
     0
  9
$DIMALTD
 70
     3
  9
$DIMALTF
 40
0.0393700787
  9
$DIMLFAC
 40
1.0
  9
$DIMTOFL
 70
     1
  9
$DIMTVP
 40
0.0
  9
$DIMTIX
 70
     0
  9
$DIMSOXD
 70
     0
  9
$DIMSAH
 70
     0
  9
$DIMBLK1
  1

  9
$DIMBLK2
  1

  9
$DIMSTYLE
  2
ISO-25
  9
$DIMCLRD
 70
     0
  9
$DIMCLRE
 70
     0
  9
$DIMCLRT
 70
     0
  9
$DIMTFAC
 40
1.0
  9
$DIMGAP
 40
18.288
  9
$DIMJUST
 70
     0
  9
$DIMSD1
 70
     0
  9
$DIMSD2
 70
     0
  9
$DIMTOLJ
 70
     0
  9
$DIMTZIN
 70
     1
  9
$DIMALTZ
 70
     0
  9
$DIMALTTZ
 70
     0
  9
$DIMUPT
 70
     0
  9
$DIMDEC
 70
     2
  9
$DIMTDEC
 70
     2
  9
$DIMALTU
 70
     2
  9
$DIMALTTD
 70
     3
  9
$DIMTXSTY
  7
Standard
  9
$DIMAUNIT
 70
     0
  9
$DIMADEC
 70
     2
  9
$DIMALTRND
 40
0.0
  9
$DIMAZIN
 70
     0
  9
$DIMDSEP
 70
    44
  9
$DIMATFIT
 70
     3
  9
$DIMFRAC
 70
     0
  9
$DIMLDRBLK
  1

  9
$DIMLUNIT
 70
     2
  9
$DIMLWD
 70
    -2
  9
$DIMLWE
 70
    -2
  9
$DIMTMOVE
 70
     0
  9
$LUNITS
 70
     2
  9
$LUPREC
 70
     2
  9
$SKETCHINC
 40
1.0
  9
$FILLETRAD
 40
10.0
  9
$AUNITS
 70
     0
  9
$AUPREC
 70
     2
  9
$MENU
  1
.
  9
$ELEVATION
 40
0.0
  9
$PELEVATION
 40
0.0
  9
$THICKNESS
 40
0.0
  9
$LIMCHECK
 70
     0
  9
$CHAMFERA
 40
0.0
  9
$CHAMFERB
 40
0.0
  9
$CHAMFERC
 40
0.0
  9
$CHAMFERD
 40
0.0
  9
$SKPOLY
 70
     0
  9
$TDCREATE
 40
2459920.598633229
  9
$TDUCREATE
 40
2459920.223633229
  9
$TDUPDATE
 40
2459920.598633576
  9
$TDUUPDATE
 40
2459920.223633576
  9
$TDINDWG
 40
0.0000000116
  9
$TDUSRTIMER
 40
0.0000000116
  9
$USRTIMER
 70
     1
  9
$ANGBASE
 50
0.0
  9
$ANGDIR
 70
     0
  9
$PDMODE
 70
     0
  9
$PDSIZE
 40
-1.0
  9
$PLINEWID
 40
0.0
  9
$SPLFRAME
 70
     0
  9
$SPLINETYPE
 70
     6
  9
$SPLINESEGS
 70
     8
  9
$HANDSEED
  5
DA
  9
$SURFTAB1
 70
     6
  9
$SURFTAB2
 70
     6
  9
$SURFTYPE
 70
     6
  9
$SURFU
 70
     6
  9
$SURFV
 70
     6
  9
$UCSBASE
  2

  9
$UCSNAME
  2

  9
$UCSORG
 10
0.0
 20
0.0
 30
0.0
  9
$UCSXDIR
 10
1.0
 20
0.0
 30
0.0
  9
$UCSYDIR
 10
0.0
 20
1.0
 30
0.0
  9
$UCSORTHOREF
  2

  9
$UCSORTHOVIEW
 70
     0
  9
$UCSORGTOP
 10
0.0
 20
0.0
 30
0.0
  9
$UCSORGBOTTOM
 10
0.0
 20
0.0
 30
0.0
  9
$UCSORGLEFT
 10
0.0
 20
0.0
 30
0.0
  9
$UCSORGRIGHT
 10
0.0
 20
0.0
 30
0.0
  9
$UCSORGFRONT
 10
0.0
 20
0.0
 30
0.0
  9
$UCSORGBACK
 10
0.0
 20
0.0
 30
0.0
  9
$PUCSBASE
  2

  9
$PUCSNAME
  2

  9
$PUCSORG
 10
0.0
 20
0.0
 30
0.0
  9
$PUCSXDIR
 10
1.0
 20
0.0
 30
0.0
  9
$PUCSYDIR
 10
0.0
 20
1.0
 30
0.0
  9
$PUCSORTHOREF
  2

  9
$PUCSORTHOVIEW
 70
     0
  9
$PUCSORGTOP
 10
0.0
 20
0.0
 30
0.0
  9
$PUCSORGBOTTOM
 10
0.0
 20
0.0
 30
0.0
  9
$PUCSORGLEFT
 10
0.0
 20
0.0
 30
0.0
  9
$PUCSORGRIGHT
 10
0.0
 20
0.0
 30
0.0
  9
$PUCSORGFRONT
 10
0.0
 20
0.0
 30
0.0
  9
$PUCSORGBACK
 10
0.0
 20
0.0
 30
0.0
  9
$USERI1
 70
     0
  9
$USERI2
 70
     0
  9
$USERI3
 70
     0
  9
$USERI4
 70
     0
  9
$USERI5
 70
     0
  9
$USERR1
 40
0.0
  9
$USERR2
 40
0.0
  9
$USERR3
 40
0.0
  9
$USERR4
 40
0.0
  9
$USERR5
 40
0.0
  9
$WORLDVIEW
 70
     1
  9
$SHADEDGE
 70
     3
  9
$SHADEDIF
 70
    70
  9
$TILEMODE
 70
     1
  9
$MAXACTVP
 70
    64
  9
$PINSBASE
 10
0.0
 20
0.0
 30
0.0
  9
$PLIMCHECK
 70
     0
  9
$PEXTMIN
 10
1.0000000000E+20
 20
1.0000000000E+20
 30
1.0000000000E+20
  9
$PEXTMAX
 10
-1.0000000000E+20
 20
-1.0000000000E+20
 30
-1.0000000000E+20
  9
$PLIMMIN
 10
0.0
 20
0.0
  9
$PLIMMAX
 10
420.0
 20
297.0
  9
$UNITMODE
 70
     0
  9
$VISRETAIN
 70
     1
  9
$PLINEGEN
 70
     0
  9
$PSLTSCALE
 70
     1
  9
$TREEDEPTH
 70
  3020
  9
$CMLSTYLE
  2
Standard
  9
$CMLJUST
 70
     0
  9
$CMLSCALE
 40
20.0
  9
$PROXYGRAPHICS
 70
     1
  9
$MEASUREMENT
 70
     1
  9
$CELWEIGHT
370
    -1
  9
$ENDCAPS
280
     0
  9
$JOINSTYLE
280
     0
  9
$LWDISPLAY
290
     1
  9
$INSUNITS
 70
     4
  9
$HYPERLINKBASE
  1

  9
$STYLESHEET
  1

  9
$XEDIT
290
     1
  9
$CEPSNTYPE
380
     0
  9
$PSTYLEMODE
290
     1
  9
$FINGERPRINTGUID
  2
{9b052167-f489-4be1-a6c7-c725e887c5fb}
  9
$VERSIONGUID
  2
{FAEB1C32-E019-11D5-929B-00C0DF256EC4}
  9
$EXTNAMES
290
     1
  9
$PSVPSCALE
 40
0.0
  9
$OLESTARTUP
290
     0
  0
ENDSEC
  0
SECTION
  2
CLASSES
  0
CLASS
  1
ACDBDICTIONARYWDFLT
  2
AcDbDictionaryWithDefault
  3
ObjectDBX Classes
 90
        0
280
     0
281
     0
  0
CLASS
  1
VISUALSTYLE
  2
AcDbVisualStyle
  3
ObjectDBX Classes
 90
     4095
280
     0
281
     0
  0
CLASS
  1
MATERIAL
  2
AcDbMaterial
  3
ObjectDBX Classes
 90
     1153
280
     0
281
     0
  0
CLASS
  1
SCALE
  2
AcDbScale
  3
ObjectDBX Classes
 90
     1153
280
     0
281
     0
  0
CLASS
  1
TABLESTYLE
  2
AcDbTableStyle
  3
ObjectDBX Classes
 90
     4095
280
     0
281
     0
  0
CLASS
  1
MLEADERSTYLE
  2
AcDbMLeaderStyle
  3
ACDB_MLEADERSTYLE_CLASS
 90
     4095
280
     0
281
     0
  0
CLASS
  1
SUN
  2
AcDbSun
  3
SCENEOE
 90
     1153
280
     0
281
     0
  0
CLASS
  1
ACDBPLACEHOLDER
  2
AcDbPlaceHolder
  3
ObjectDBX Classes
 90
        0
280
     0
281
     0
  0
CLASS
  1
LAYOUT
  2
AcDbLayout
  3
ObjectDBX Classes
 90
        0
280
     0
281
     0
  0
ENDSEC
  0
SECTION
  2
TABLES
  0
TABLE
  2
VPORT
  5
8
330
0
100
AcDbSymbolTable
 70
     1
  0
VPORT
  5
29
330
8
100
AcDbSymbolTableRecord
100
AcDbViewportTableRecord
  2
*Active
 70
     0
 10
0.0
 20
0.0
 11
1.0
 21
1.0
 12
1260.0
 22
1782.0
 13
0.0
 23
0.0
 14
10.0
 24
10.0
 15
10.0
 25
10.0
 16
0.0
 26
0.0
 36
1.0
 17
0.0
 27
0.0
 37
0.0
 40
3564.0
 41
0.7070707071
 42
50.0
 43
0.0
 44
0.0
 50
0.0
 51
0.0
 71
     0
 72
  2000
 73
     1
 74
     3
 75
     0
 76
     0
 77
     0
 78
     0
281
     0
 65
     1
110
0.0
120
0.0
130
0.0
111
1.0
121
0.0
131
0.0
112
0.0
122
1.0
132
0.0
 79
     0
146
0.0
  0
ENDTAB
  0
TABLE
  2
LTYPE
  5
5
330
0
100
AcDbSymbolTable
 70
     6
  0
LTYPE
  5
14
330
5
100
AcDbSymbolTableRecord
100
AcDbLinetypeTableRecord
  2
ByBlock
 70
     0
  3

 72
    65
 73
     0
 40
0.0
  0
LTYPE
  5
15
330
5
100
AcDbSymbolTableRecord
100
AcDbLinetypeTableRecord
  2
ByLayer
 70
     0
  3

 72
    65
 73
     0
 40
0.0
  0
LTYPE
  5
16
330
5
100
AcDbSymbolTableRecord
100
AcDbLinetypeTableRecord
  2
Continuous
 70
     0
  3
Solid line
 72
    65
 73
     0
 40
0.0
  0
LTYPE
  5
6E
330
5
100
AcDbSymbolTableRecord
100
AcDbLinetypeTableRecord
  2
HIDDEN
 70
     0
  3
Hidden __ __ __ __ __ __ __ __ __ __ __ __ __ __
 72
    65
 73
     2
 40
1.905
 49
1.27
 74
     0
 49
-0.635
 74
     0
  0
LTYPE
  5
6F
330
5
100
AcDbSymbolTableRecord
100
AcDbLinetypeTableRecord
  2
PHANTOM
 70
     0
  3
Phantom ______  __  __  ______  __  __  ______
 72
    65
 73
     6
 40
12.7
 49
6.35
 74
     0
 49
-1.27
 74
     0
 49
1.27
 74
     0
 49
-1.27
 74
     0
 49
1.27
 74
     0
 49
-1.27
 74
     0
  0
LTYPE
  5
70
330
5
100
AcDbSymbolTableRecord
100
AcDbLinetypeTableRecord
  2
CENTER
 70
     0
  3
Center ____ _ ____ _ ____ _ ____ _ ____ _ ____
 72
    65
 73
     4
 40
10.16
 49
6.35
 74
     0
 49
-1.27
 74
     0
 49
1.27
 74
     0
 49
-1.27
 74
     0
  0
LTYPE
  5
71
330
5
100
AcDbSymbolTableRecord
100
AcDbLinetypeTableRecord
  2
CENTERX2
 70
     0
  3
Center (2x) ________  __  ________  __  _____
 72
    65
 73
     4
 40
20.32
 49
12.7
 74
     0
 49
-2.54
 74
     0
 49
2.54
 74
     0
 49
-2.54
 74
     0
  0
LTYPE
  5
72
330
5
100
AcDbSymbolTableRecord
100
AcDbLinetypeTableRecord
  2
DOT2
 70
     0
  3
Dot (.5x) ........................................
 72
    65
 73
     2
 40
0.635
 49
0.0
 74
     0
 49
-0.635
 74
     0
  0
ENDTAB
  0
TABLE
  2
LAYER
  5
2
330
0
100
AcDbSymbolTable
 70
     1
  0
LAYER
  5
10
330
2
100
AcDbSymbolTableRecord
100
AcDbLayerTableRecord
  2
0
 70
     0
 62
     7
  6
Continuous
370
    -3
390
F
  0
ENDTAB
  0
TABLE
  2
STYLE
  5
3
330
0
100
AcDbSymbolTable
 70
     2
  0
STYLE
  5
11
330
3
100
AcDbSymbolTableRecord
100
AcDbTextStyleTableRecord
  2
Standard
 70
     0
 40
0.0
 41
1.0
 50
0.0
 71
     0
 42
42.0
  3
txt
  4
bigfont
  0
STYLE
  5
76
330
3
100
AcDbSymbolTableRecord
100
AcDbTextStyleTableRecord
  2
SLDTEXTSTYLE0
 70
     0
 40
0.0
 41
0.7
 50
0.0
 71
     0
 42
42.0
  3
TXT
  4
bigfont
  0
ENDTAB
  0
TABLE
  2
VIEW
  5
6
330
0
100
AcDbSymbolTable
 70
     0
  0
ENDTAB
  0
TABLE
  2
UCS
  5
7
330
0
100
AcDbSymbolTable
 70
     0
  0
ENDTAB
  0
TABLE
  2
APPID
  5
9
330
0
100
AcDbSymbolTable
 70
     1
  0
APPID
  5
12
330
9
100
AcDbSymbolTableRecord
100
AcDbRegAppTableRecord
  2
ACAD
 70
     0
  0
ENDTAB
  0
TABLE
  2
DIMSTYLE
  5
A
330
0
100
AcDbSymbolTable
 70
     1
100
AcDbDimStyleTable
  0
DIMSTYLE
105
27
330
A
100
AcDbSymbolTableRecord
100
AcDbDimStyleTableRecord
  2
ISO-25
 70
     0
 41
2.5
 42
0.625
 43
3.75
 44
1.25
 73
     0
 74
     0
 77
     1
 78
     8
140
2.5
141
2.5
143
0.0393700787
147
0.625
171
     3
172
     1
178
     0
271
     2
272
     2
274
     3
278
    44
283
     0
284
     8
340
11
  0
ENDTAB
  0
TABLE
  2
BLOCK_RECORD
  5
1
330
0
100
AcDbSymbolTable
 70
     2
  0
BLOCK_RECORD
  5
1F
330
1
100
AcDbSymbolTableRecord
100
AcDbBlockTableRecord
  2
*Model_Space
340
22
  0
BLOCK_RECORD
  5
1B
330
1
100
AcDbSymbolTableRecord
100
AcDbBlockTableRecord
  2
*Paper_Space
340
1E
  0
BLOCK_RECORD
  5
23
330
1
100
AcDbSymbolTableRecord
100
AcDbBlockTableRecord
  2
*Paper_Space0
340
26
  0
BLOCK_RECORD
  5
73
330
1
100
AcDbSymbolTableRecord
100
AcDbBlockTableRecord
  2
SW_NOTE_0
340
0
102
{BLKREFS
331
7A
102
}
  0
ENDTAB
  0
ENDSEC
  0
SECTION
  2
BLOCKS
  0
BLOCK
  5
20
330
1F
100
AcDbEntity
  8
0
100
AcDbBlockBegin
  2
*Model_Space
 70
     0
 10
0.0
 20
0.0
 30
0.0
  3
*Model_Space
  1

  0
ENDBLK
  5
21
330
1F
100
AcDbEntity
  8
0
100
AcDbBlockEnd
  0
BLOCK
  5
1C
330
1B
100
AcDbEntity
 67
     1
  8
0
100
AcDbBlockBegin
  2
*Paper_Space
 70
     0
 10
0.0
 20
0.0
 30
0.0
  3
*Paper_Space
  1

  0
ENDBLK
  5
1D
330
1B
100
AcDbEntity
 67
     1
  8
0
100
AcDbBlockEnd
  0
BLOCK
  5
24
330
23
100
AcDbEntity
  8
0
100
AcDbBlockBegin
  2
*Paper_Space0
 70
     0
 10
0.0
 20
0.0
 30
0.0
  3
*Paper_Space0
  1

  0
ENDBLK
  5
25
330
23
100
AcDbEntity
  8
0
100
AcDbBlockEnd
  0
BLOCK
  5
74
330
73
100
AcDbEntity
  8
0
100
AcDbBlockBegin
  2
SW_NOTE_0
 70
     0
 10
0.0
 20
0.0
 30
0.0
  3
SW_NOTE_0
  1

  0
MTEXT
  5
77
330
73
100
AcDbEntity
  8
0
  6
Continuous
 62
     0
370
     0
100
AcDbMText
 10
0.0
 20
81.8558014755
 30
0.0
 40
63.5
 41
0.0
 71
     1
 72
     1
  1
HOA-D08K
  7
SLDTEXTSTYLE0
 73
     1
 44
1.0
  0
MTEXT
  5
78
330
73
100
AcDbEntity
  8
0
  6
Continuous
 62
     0
370
     0
100
AcDbMText
 10
0.0
 20
-14.8108661349
 30
0.0
 40
63.5
 41
0.0
 71
     1
 72
     1
  1
HOA-D08O
  7
SLDTEXTSTYLE0
 73
     1
 44
1.0
  0
MTEXT
  5
79
330
73
100
AcDbEntity
  8
0
  6
Continuous
 62
     0
370
     0
100
AcDbMText
 10
0.0
 20
-111.4775337453
 30
0.0
 40
63.5
 41
0.0
 71
     1
 72
     1
  1
HOA-D08W
  7
SLDTEXTSTYLE0
 73
     1
 44
1.0
  0
ENDBLK
  5
75
330
73
100
AcDbEntity
  8
0
100
AcDbBlockEnd
  0
ENDSEC
  0
SECTION
  2
ENTITIES
  0
INSERT
  5
7A
330
1F
100
AcDbEntity
  8
0
  6
Continuous
 62
     7
370
     0
100
AcDbBlockReference
  2
SW_NOTE_0
 10
1781.8150217073
 20
679.7809333531
 30
0.0
  0
LINE
  5
7B
330
1F
100
AcDbEntity
  8
0
  6
Continuous
 62
     7
370
    25
100
AcDbLine
 10
1305.274068198
 20
1990.6890935923
 30
0.0
 11
1296.8957555902
 21
1901.2948704872
 31
0.0
  0
LINE
  5
7C
330
1F
100
AcDbEntity
  8
0
  6
Continuous
 62
     7
370
    25
100
AcDbLine
 10
1343.3049384505
 20
1967.8086711398
 30
0.0
 11
1345.0995364178
 21
1986.9565232884
 31
0.0
  0
LINE
  5
7D
330
1F
100
AcDbEntity
  8
0
  6
Continuous
 62
     7
370
    25
100
AcDbLine
 10
1336.72122381
 20
1897.5623001834
 30
0.0
 11
1340.4511996981
 21
1937.3600867219
 31
0.0
  0
LINE
  5
7E
330
1F
100
AcDbEntity
  8
0
  6
Continuous
 62
     7
370
    25
100
AcDbLine
 10
1358.5115331581
 20
1958.4310614754
 30
0.0
 11
1343.7386871638
 21
1972.4366470889
 31
0.0
  0
SPLINE
  5
7F
330
1F
100
AcDbEntity
  8
0
  6
Continuous
 62
     7
370
    25
100
AcDbSpline
210
0.0
220
0.0
230
1.0
 70
     8
 71
     3
 72
     9
 73
     5
 74
     0
 42
0.00000001
 43
0.00000001
 40
0.0
 40
0.0
 40
0.0
 40
0.0
 40
0.4959384359769597
 40
1.0
 40
1.0
 40
1.0
 40
1.0
 10
1340.249272338051
 20
1934.700264873473
 30
0.0
 10
1340.441692056879
 20
1934.791770291605
 30
0.0
 10
1340.829683196239
 20
1934.976279923234
 30
0.0
 10
1341.200226985051
 20
1934.922405217456
 30
0.0
 10
1341.387003866778
 20
1934.895249049
 30
0.0
  0
LINE
  5
80
330
1F
100
AcDbEntity
  8
0
  6
Continuous
 62
     7
370
    25
100
AcDbLine
 10
1188.2509503911
 20
1627.274686556
 30
0.0
 11
1188.2877528929
 21
1572.6519526828
 31
0.0
  0
LINE
  5
81
330
1F
100
AcDbEntity
  8
0
  6
Continuous
 62
     7
370
    25
100
AcDbLine
 10
1188.228086884
 20
1661.2089899443
 30
0.0
 11
1188.2461455271
 21
1634.4061258243
 31
0.0
  0
LINE
  5
82
330
1F
100
AcDbEntity
  8
0
  6
Continuous
 62
     7
370
    25
100
AcDbLine
 10
1228.2877438139
 20
1572.6789029952
 30
0.0
 11
1228.228077805
 21
1661.2359402567
 31
0.0
  0
LINE
  5
83
330
1F
100
AcDbEntity
  8
0
  6
Continuous
 62
     7
370
    25
100
AcDbLine
 10
1188.2380005073
 20
1646.4950661943
 30
0.0
 11
1178.0364249722
 21
1638.1175801301
 31
0.0
  0
LINE
  5
84
330
1F
100
AcDbEntity
  8
0
  6
Continuous
 62
     7
370
    25
100
AcDbLine
 10
1299.3176620268
 20
1764.6531565015
 30
0.0
 11
1302.9878900114
 21
1749.7994276943
 31
0.0
  0
LINE
  5
85
330
1F
100
AcDbEntity
  8
0
  6
Continuous
 62
     7
370
    25
100
AcDbLine
 10
1332.1119879634
 20
1756.9957405337
 30
0.0
 11
1325.1479301204
 21
1785.1798825085
 31
0.0
  0
LINE
  5
86
330
1F
100
AcDbEntity
  8
0
  6
Continuous
 62
     7
370
    25
100
AcDbLine
 10
1288.8525754867
 20
1815.4764163064
 30
0.0
 11
1280.4742628789
 21
1726.0821932013
 31
0.0
  0
LINE
  5
87
330
1F
100
AcDbEntity
  8
0
  6
Continuous
 62
     7
370
    25
100
AcDbLine
 10
1320.2997310987
 20
1722.3496228975
 30
0.0
 11
1322.9840938909
 21
1750.9910137803
 31
0.0
  0
LINE
  5
88
330
1F
100
AcDbEntity
  8
0
  6
Continuous
 62
     7
370
    25
100
AcDbLine
 10
1325.9022616754
 20
1782.1270377273
 30
0.0
 11
1328.6780437065
 21
1811.7438460025
 31
0.0
  0
LINE
  5
89
330
1F
100
AcDbEntity
  8
0
  6
Continuous
 62
     7
370
    25
100
AcDbLine
 10
1214.124766555
 20
2065.748473102
 30
0.0
 11
1218.6774495772
 21
2058.347016005
 31
0.0
  0
LINE
  5
8A
330
1F
100
AcDbEntity
  8
0
  6
Continuous
 62
     7
370
    25
100
AcDbLine
 10
1244.2303727062
 20
2074.0647804632
 30
0.0
 11
1228.0835837572
 21
2100.3151838136
 31
0.0
  0
LINE
  5
8B
330
1F
100
AcDbEntity
  8
0
  6
Continuous
 62
     7
370
    25
100
AcDbLine
 10
1187.9175253078
 20
2122.1483688904
 30
0.0
 11
1187.9771913166
 21
2033.5913316289
 31
0.0
  0
LINE
  5
8C
330
1F
100
AcDbEntity
  8
0
  6
Continuous
 62
     7
370
    25
100
AcDbLine
 10
1227.9320128498
 20
2100.6592528123
 30
0.0
 11
1227.9175162288
 21
2122.1753192028
 31
0.0
  0
LINE
  5
8D
330
1F
100
AcDbEntity
  8
0
  6
Continuous
 62
     7
370
    25
100
AcDbLine
 10
1227.9771822376
 20
2033.6182819413
 30
0.0
 11
1227.9577387356
 21
2062.4765711319
 31
0.0
  0
SPLINE
  5
8E
330
1F
100
AcDbEntity
  8
0
  6
Continuous
 62
     7
370
    25
100
AcDbSpline
210
0.0
220
0.0
230
1.0
 70
     8
 71
     3
 72
    10
 73
     6
 74
     0
 42
0.00000001
 43
0.00000001
 40
0.0
 40
0.0
 40
0.0
 40
0.0
 40
0.221089796192204
 40
0.8162549567293998
 40
1.0
 40
1.0
 40
1.0
 40
1.0
 10
1228.101585950059
 20
2100.323326709471
 30
0.0
 10
1228.064161488254
 20
2100.373076928381
 30
0.0
 10
1227.925991826075
 20
2100.556752807969
 30
0.0
 10
1227.921957963052
 20
2100.709494281584
 30
0.0
 10
1227.923655172563
 20
2100.678059491636
 30
0.0
 10
1227.924055544562
 20
2100.670644019594
 30
0.0
  0
LINE
  5
8F
330
1F
100
AcDbEntity
  8
0
  6
Continuous
 62
     7
370
    25
100
AcDbLine
 10
1381.0531201938
 20
2799.2301206359
 30
0.0
 11
1378.1653878859
 21
2768.4188346063
 31
0.0
  0
LINE
  5
90
330
1F
100
AcDbEntity
  8
0
  6
Continuous
 62
     7
370
    25
100
AcDbLine
 10
1386.5437004937
 20
2857.8130577113
 30
0.0
 11
1385.0249417044
 21
2841.6083314843
 31
0.0
  0
LINE
  5
91
330
1F
100
AcDbEntity
  8
0
  6
Continuous
 62
     7
370
    25
100
AcDbLine
 10
1417.9908561057
 20
2764.6862643024
 30
0.0
 11
1426.3691687135
 21
2854.0804874075
 31
0.0
  0
LINE
  5
92
330
1F
100
AcDbEntity
  8
0
  6
Continuous
 62
     7
370
    25
100
AcDbLine
 10
1384.7919949486
 20
2841.366311757
 30
0.0
 11
1361.1088177328
 21
2822.5978233694
 31
0.0
  0
SPLINE
  5
93
330
1F
100
AcDbEntity
  8
0
  6
Continuous
 62
     7
370
    25
100
AcDbSpline
210
0.0
220
0.0
230
1.0
 70
     8
 71
     3
 72
     9
 73
     5
 74
     0
 42
0.00000001
 43
0.00000001
 40
0.0
 40
0.0
 40
0.0
 40
0.0
 40
0.4974811024100271
 40
1.0
 40
1.0
 40
1.0
 40
1.0
 10
1385.027601721813
 20
2841.671657429473
 30
0.0
 10
1385.027024776102
 20
2841.652446623051
 30
0.0
 10
1385.025865042176
 20
2841.613830469935
 30
0.0
 10
1384.865298816578
 20
2841.452726670333
 30
0.0
 10
1384.7846112539
 20
2841.371768966559
 30
0.0
  0
SPLINE
  5
94
330
1F
100
AcDbEntity
  8
0
  6
Continuous
 62
     7
370
    25
100
AcDbSpline
210
0.0
220
0.0
230
1.0
 70
     8
 71
     3
 72
    12
 73
     8
 74
     0
 42
0.00000001
 43
0.00000001
 40
0.0
 40
0.0
 40
0.0
 40
0.0
 40
0.1739426641950694
 40
0.436209569257669
 40
0.6686760714536697
 40
0.891048779417076
 40
0.9999999999999999
 40
0.9999999999999999
 40
0.9999999999999999
 40
0.9999999999999999
 10
1379.805233152197
 20
2799.090906541076
 30
0.0
 10
1379.918451805086
 20
2799.168913890988
 30
0.0
 10
1380.202379040747
 20
2799.36453899919
 30
0.0
 10
1380.821273343861
 20
2799.360985438904
 30
0.0
 10
1381.249085098884
 20
2799.170918744209
 30
0.0
 10
1381.386014069598
 20
2799.027900778468
 30
0.0
 10
1381.376029003812
 20
2799.041279561903
 30
0.0
 10
1381.372745555164
 20
2799.045678986935
 30
0.0
  0
LINE
  5
95
330
1F
100
AcDbEntity
  8
0
  6
Continuous
 62
     7
370
    25
100
AcDbLine
 10
1280.7562694951
 20
1300.4320847947
 30
0.0
 11
1322.9840938909
 21
1750.9910137803
 31
0.0
  0
LINE
  5
96
330
1F
100
AcDbEntity
  8
0
  6
Continuous
 62
     7
370
    25
100
AcDbLine
 10
1325.9022616754
 20
1782.1270377273
 30
0.0
 11
1340.4453870969
 21
1937.2980679132
 31
0.0
  0
LINE
  5
97
330
1F
100
AcDbEntity
  8
0
  6
Continuous
 62
     7
370
    25
100
AcDbLine
 10
1343.2997089197
 20
1967.7245604579
 30
0.0
 11
1439.8041985661
 21
2997.4284516443
 31
0.0
  0
LINE
  5
98
330
1F
100
AcDbEntity
  8
0
  6
Continuous
 62
     7
370
    25
100
AcDbLine
 10
1399.9787303463
 20
3001.1610219482
 30
0.0
 11
1385.0234257905
 21
2841.5984104811
 31
0.0
  0
LINE
  5
99
330
1F
100
AcDbEntity
  8
0
  6
Continuous
 62
     7
370
    25
100
AcDbLine
 10
1381.0531201938
 20
2799.2301206359
 30
0.0
 11
1240.6507803208
 21
1301.1769108057
 31
0.0
  0
LINE
  5
9A
330
1F
100
AcDbEntity
  8
0
  6
Continuous
 62
     7
370
    25
100
AcDbLine
 10
1343.9677970432
 20
1086.8298659707
 30
0.0
 11
1343.818632021
 21
1308.2224591244
 31
0.0
  0
LINE
  5
9B
330
1F
100
AcDbEntity
  8
0
  6
Continuous
 62
     7
370
    25
100
AcDbLine
 10
1143.818677416
 20
1308.0877075627
 30
0.0
 11
1143.9678424382
 21
1086.695114409
 31
0.0
  0
LINE
  5
9C
330
1F
100
AcDbEntity
  8
0
  6
Continuous
 62
     7
370
    25
100
AcDbLine
 10
1228.4861332934
 20
1278.2267541007
 30
0.0
 11
1227.9577387356
 21
2062.4765711319
 31
0.0
  0
LINE
  5
9D
330
1F
100
AcDbEntity
  8
0
  6
Continuous
 62
     7
370
    25
100
AcDbLine
 10
1187.9491482925
 20
2075.2131391418
 30
0.0
 11
1188.2460351484
 21
1634.5699511976
 31
0.0
  0
LINE
  5
9E
330
1F
100
AcDbEntity
  8
0
  6
Continuous
 62
     7
370
    25
100
AcDbLine
 10
1188.2510405634
 20
1627.1408516133
 30
0.0
 11
1188.4861423724
 21
1278.1998037883
 31
0.0
  0
LWPOLYLINE
  5
9F
330
1F
100
AcDbEntity
  8
0
  6
Continuous
 62
     7
370
    25
100
AcDbPolyline
 90
        9
 70
   128
 43
0.0
 10
1335.3351191231
 20
1980.4520989434
 10
1337.5307579154
 20
1980.9540984728
 10
1339.5061185273
 20
1981.5965153179
 10
1341.2259506021
 20
1982.3678855349
 10
1342.6595636957
 20
1983.2544440042
 10
1343.7813749483
 20
1984.2403700687
 10
1344.5713656116
 20
1985.3080698545
 10
1345.0154382836
 20
1986.4384902337
 10
1345.0995364178
 20
1986.9565232884
  0
LWPOLYLINE
  5
A0
330
1F
100
AcDbEntity
  8
0
  6
Continuous
 62
     7
370
    25
100
AcDbPolyline
 90
       18
 70
   128
 43
0.0
 10
1305.274068198
 20
1990.6890935923
 10
1305.2685714084
 20
1990.6246661169
 10
1305.3562633613
 20
1989.4382398077
 10
1305.7978317515
 20
1988.2408311111
 10
1306.5853967806
 20
1987.0538078137
 10
1307.704904332
 20
1985.8983523745
 10
1309.1363767669
 20
1984.795083923
 10
1310.8542694259
 20
1983.7636903109
 10
1312.8279264737
 20
1982.8225767817
 10
1315.0221279535
 20
1981.9885375286
 10
1317.397718288
 20
1981.2764560019
 10
1319.9123050114
 20
1980.6990393132
 10
1322.521015264
 20
1980.266591477
 10
1325.1772965495
 20
1979.9868295352
 10
1327.8337474655
 20
1979.8647458463
 10
1330.4429635824
 20
1979.9025189966
 10
1332.9583833769
 20
1980.0994749234
 10
1335.3351191231
 20
1980.4520989434
  0
LWPOLYLINE
  5
A1
330
1F
100
AcDbEntity
  8
0
  6
Continuous
 62
     7
370
    25
100
AcDbPolyline
 90
        9
 70
   128
 43
0.0
 10
1326.9568065153
 20
1891.0578758384
 10
1329.1524453076
 20
1891.5598753677
 10
1331.1278059195
 20
1892.2022922128
 10
1332.8476379943
 20
1892.9736624299
 10
1334.2812510879
 20
1893.8602208991
 10
1335.4030623405
 20
1894.8461469636
 10
1336.1930530038
 20
1895.9138467495
 10
1336.6371256758
 20
1897.0442671286
 10
1336.72122381
 20
1897.5623001834
  0
LWPOLYLINE
  5
A2
330
1F
100
AcDbEntity
  8
0
  6
Continuous
 62
     7
370
    25
100
AcDbPolyline
 90
       18
 70
   128
 43
0.0
 10
1296.8957555902
 20
1901.2948704872
 10
1296.8902588006
 20
1901.2304430119
 10
1296.9779507535
 20
1900.0440167026
 10
1297.4195191437
 20
1898.846608006
 10
1298.2070841728
 20
1897.6595847087
 10
1299.3265917242
 20
1896.5041292694
 10
1300.7580641591
 20
1895.4008608179
 10
1302.4759568181
 20
1894.3694672059
 10
1304.4496138659
 20
1893.4283536767
 10
1306.6438153457
 20
1892.5943144236
 10
1309.0194056802
 20
1891.8822328968
 10
1311.5339924036
 20
1891.3048162081
 10
1314.1427026562
 20
1890.8723683719
 10
1316.7989839417
 20
1890.5926064301
 10
1319.4554348577
 20
1890.4705227412
 10
1322.0646509746
 20
1890.5082958916
 10
1324.5800707691
 20
1890.7052518183
 10
1326.9568065153
 20
1891.0578758384
  0
LINE
  5
A3
330
1F
100
AcDbEntity
  8
0
  6
Continuous
 62
     7
370
    25
100
AcDbLine
 10
1340.4325094271
 20
1937.2363788376
 30
0.0
 11
1340.4413416672
 21
1937.3611488281
 31
0.0
  0
LINE
  5
A4
330
1F
100
AcDbEntity
  8
0
  6
Continuous
 62
     7
370
    25
100
AcDbLine
 10
1343.2800956432
 20
1967.6561098895
 30
0.0
 11
1343.2905459627
 21
1967.8098534729
 31
0.0
  0
LWPOLYLINE
  5
A5
330
1F
100
AcDbEntity
  8
0
  6
Continuous
 62
     7
370
    25
100
AcDbPolyline
 90
       19
 70
   128
 43
0.0
 10
1342.1359628316
 20
1934.7800768298
 10
1343.9151784889
 20
1934.7451451881
 10
1345.7978985816
 20
1935.0200441306
 10
1347.7385523273
 20
1935.5981197951
 10
1349.6901666738
 20
1936.4653800006
 10
1351.60550327
 20
1937.6008329247
 10
1353.4382018592
 20
1938.9769952052
 10
1355.1439024174
 20
1940.5605571685
 10
1356.681318877
 20
1942.3131890823
 10
1358.0132384464
 20
1944.1924689169
 10
1359.1074223359
 20
1946.1529091606
 10
1359.9373860904
 20
1948.1470578338
 10
1360.483040639
 20
1950.1266470524
 10
1360.731178546
 20
1952.0437613405
 10
1360.6757936935
 20
1953.8519974126
 10
1360.3182266586
 20
1955.5075873541
 10
1359.6671322643
 20
1956.9704580127
 10
1358.7382700922
 20
1958.2052009597
 10
1358.5115331581
 20
1958.4310614754
  0
LINE
  5
A6
330
1F
100
AcDbEntity
  8
0
  6
Continuous
 62
     7
370
    25
100
AcDbLine
 10
1341.3591495697
 20
1934.9012685792
 30
0.0
 11
1342.1359628316
 21
1934.7800768298
 31
0.0
  0
LWPOLYLINE
  5
A7
330
1F
100
AcDbEntity
  8
0
  6
Continuous
 62
     7
370
    25
100
AcDbPolyline
 90
       25
 70
   128
 43
0.0
 10
1188.228086884
 20
1661.2089899443
 10
1188.33795441
 20
1660.2395224026
 10
1188.7944582007
 20
1659.0169934125
 10
1189.5977554746
 20
1657.8338211169
 10
1190.7335113728
 20
1656.7111192535
 10
1192.1814583045
 20
1655.6689224636
 10
1193.9157576223
 20
1654.7258287736
 10
1195.9054607139
 20
1653.8986677128
 10
1198.1150612804
 20
1653.2021999899
 10
1200.5051289473
 20
1652.6488540878
 10
1203.0330129006
 20
1652.2485044774
 10
1205.6536029912
 20
1652.008295407
 10
1208.3201347269
 20
1651.932513413
 10
1210.9850237856
 20
1652.0225108269
 10
1213.6007151589
 20
1652.2766816428
 10
1216.1205317724
 20
1652.6904901764
 10
1218.4995074389
 20
1653.2565520047
 10
1220.6951892813
 20
1653.9647657409
 10
1222.668395305
 20
1654.8024932941
 10
1224.3839136018
 20
1655.7547853963
 10
1225.8111307072
 20
1656.8046483723
 10
1226.9245778979
 20
1657.9333473925
 10
1227.7043856825
 20
1659.1207407962
 10
1228.1366383727
 20
1660.3456395198
 10
1228.228077805
 20
1661.2359402567
  0
LWPOLYLINE
  5
A8
330
1F
100
AcDbEntity
  8
0
  6
Continuous
 62
     7
370
    25
100
AcDbPolyline
 90
       25
 70
   128
 43
0.0
 10
1188.2877528929
 20
1572.6519526828
 10
1188.3976204189
 20
1571.6824851411
 10
1188.8541242096
 20
1570.459956151
 10
1189.6574214835
 20
1569.2767838554
 10
1190.7931773817
 20
1568.154081992
 10
1192.2411243134
 20
1567.1118852021
 10
1193.9754236312
 20
1566.1687915121
 10
1195.9651267228
 20
1565.3416304513
 10
1198.1747272893
 20
1564.6451627284
 10
1200.5647949562
 20
1564.0918168263
 10
1203.0926789095
 20
1563.691467216
 10
1205.7132690001
 20
1563.4512581455
 10
1208.3798007357
 20
1563.3754761515
 10
1211.0446897944
 20
1563.4654735654
 10
1213.6603811678
 20
1563.7196443813
 10
1216.1801977813
 20
1564.133452915
 10
1218.5591734478
 20
1564.6995147432
 10
1220.7548552902
 20
1565.4077284794
 10
1222.7280613139
 20
1566.2454560326
 10
1224.4435796107
 20
1567.1977481348
 10
1225.870796716
 20
1568.2476111108
 10
1226.9842439068
 20
1569.376310131
 10
1227.7640516914
 20
1570.5637035347
 10
1228.1963043816
 20
1571.7886022583
 10
1228.2877438139
 20
1572.6789029952
  0
SPLINE
  5
A9
330
1F
100
AcDbEntity
  8
0
  6
Continuous
 62
     7
370
    25
100
AcDbSpline
210
0.0
220
0.0
230
1.0
 70
     8
 71
     3
 72
    11
 73
     7
 74
     0
 42
0.00000001
 43
0.00000001
 40
0.0
 40
0.0
 40
0.0
 40
0.0
 40
0.1172397255143157
 40
0.5364023820453633
 40
0.9645392505198792
 40
1.0
 40
1.0
 40
1.0
 40
1.0
 10
1188.247319987606
 20
1634.406125836247
 30
0.0
 10
1188.24733492589
 20
1634.100431024837
 30
0.0
 10
1188.247403272438
 20
1632.701797376558
 30
0.0
 10
1188.258745011008
 20
1630.383634919818
 30
0.0
 10
1188.241286020929
 20
1628.295971311826
 30
0.0
 10
1188.252499877405
 20
1627.347217925906
 30
0.0
 10
1188.253357629343
 20
1627.274647436254
 30
0.0
  0
LWPOLYLINE
  5
AA
330
1F
100
AcDbEntity
  8
0
  6
Continuous
 62
     7
370
    25
100
AcDbPolyline
 90
       17
 70
   128
 43
0.0
 10
1178.0364249722
 20
1638.1175801301
 10
1176.8491884939
 20
1636.960053364
 10
1175.7471653002
 20
1635.4104287523
 10
1174.9309697014
 20
1633.6457432155
 10
1174.4203575135
 20
1631.7087105383
 10
1174.2276879804
 20
1629.646216126
 10
1174.3576246214
 20
1627.5081821544
 10
1174.8070223516
 20
1625.3463592163
 10
1175.5650036083
 20
1623.2130737107
 10
1176.6132216393
 20
1621.1599612946
 10
1177.9263045818
 20
1619.2367170552
 10
1179.4724695824
 20
1617.4898926519
 10
1181.214292093
 20
1615.961769545
 10
1183.109611723
 20
1614.6893355827
 10
1185.1125527214
 20
1613.7033897201
 10
1187.174634388
 20
1613.027796537
 10
1188.260700312
 20
1612.8037318139
  0
LWPOLYLINE
  5
AB
330
1F
100
AcDbEntity
  8
0
  6
Continuous
 62
     7
370
    25
100
AcDbPolyline
 90
       36
 70
   128
 43
0.0
 10
1307.2395400736
 20
1748.2377785874
 10
1305.7629229275
 20
1748.3636816951
 10
1304.5716076406
 20
1748.6114291875
 10
1303.69442971
 20
1748.9750243968
 10
1303.1526210144
 20
1749.4456665893
 10
1302.9592959014
 20
1750.011963985
 10
1303.1191337586
 20
1750.6602094933
 10
1303.6282657494
 20
1751.374712489
 10
1304.4743684576
 20
1752.1381786007
 10
1305.636962173
 20
1752.9321283169
 10
1307.087906597
 20
1753.7373442775
 10
1308.7920819726
 20
1754.534336426
 10
1310.7082391489
 20
1755.3038137609
 10
1312.7899980071
 20
1756.0271512705
 10
1314.9869700801
 20
1756.6868407462
 10
1317.2459781925
 20
1757.2669145644
 10
1319.5123436022
 20
1757.7533321793
 10
1321.731209485
 20
1758.1343199709
 10
1323.8488687316
 20
1758.4006562222
 10
1325.8140639144
 20
1758.5458943289
 10
1327.5792279618
 20
1758.566518838
 10
1329.1016355068
 20
1758.4620305383
 10
1330.3444370449
 20
1758.2349585436
 10
1331.2775508668
 20
1757.8907990764
 10
1331.8783911792
 20
1757.437882433
 10
1332.1324147883
 20
1756.8871713507
 10
1332.0334731146
 20
1756.2519956573
 10
1331.583961017
 20
1755.5477296262
 10
1330.7947588268
 20
1754.7914198455
 10
1329.6849689911
 20
1754.0013726096
 10
1328.2814537032
 20
1753.19671082
 10
1326.6181847095
 20
1752.3969111196
 10
1324.7354210319
 20
1751.6213324658
 10
1322.6787345077
 20
1750.8887475515
 10
1320.4979067342
 20
1750.2168884166
 10
1318.2457241179
 20
1749.622017248
  0
LWPOLYLINE
  5
AC
330
1F
100
AcDbEntity
  8
0
  6
Continuous
 62
     7
370
    25
100
AcDbPolyline
 90
       22
 70
   128
 43
0.0
 10
1290.6166542933
 20
1811.3275897933
 10
1291.8762301893
 20
1810.192603739
 10
1293.4371921074
 20
1809.1186035423
 10
1295.2716846452
 20
1808.1247547623
 10
1297.3469712399
 20
1807.2287926539
 10
1299.6260183531
 20
1806.4467056823
 10
1302.0681563351
 20
1805.7924502079
 10
1304.6298051757
 20
1805.2777014352
 10
1307.2652521906
 20
1804.9116450683
 10
1309.9274677655
 20
1804.7008133916
 10
1312.5689446003
 20
1804.6489687015
 10
1315.1425454784
 20
1804.7570361677
 10
1317.6023444311
 20
1805.0230873236
 10
1319.9044462878
 20
1805.4423744801
 10
1322.0077699864
 20
1806.0074154479
 10
1323.8747816656
 20
1806.7081270577
 10
1325.4721644577
 20
1807.5320050941
 10
1326.7714130291
 20
1808.464347434
 10
1327.7493422582
 20
1809.4885164063
 10
1328.3885009746
 20
1810.5862356914
 10
1328.6774833761
 20
1811.7379164627
 10
1328.6780437065
 20
1811.7438460025
  0
ARC
  5
AD
330
1F
100
AcDbEntity
  8
0
  6
Continuous
 62
     7
370
    25
100
AcDbCircle
 10
1294.1530046467
 20
1815.280700003
 30
0.0
 40
5.304041303777875
100
AcDbArc
 50
177.8853361442
 51
228.1850064065
  0
LWPOLYLINE
  5
AE
330
1F
100
AcDbEntity
  8
0
  6
Continuous
 62
     7
370
    25
100
AcDbPolyline
 90
       22
 70
   128
 43
0.0
 10
1282.2383416855
 20
1721.9333666883
 10
1283.4979175815
 20
1720.7983806339
 10
1285.0588794996
 20
1719.7243804372
 10
1286.8933720374
 20
1718.7305316572
 10
1288.9686586321
 20
1717.8345695489
 10
1291.2477057453
 20
1717.0524825772
 10
1293.6898437273
 20
1716.3982271029
 10
1296.2514925679
 20
1715.8834783302
 10
1298.8869395828
 20
1715.5174219632
 10
1301.5491551577
 20
1715.3065902866
 10
1304.1906319925
 20
1715.2547455964
 10
1306.7642328706
 20
1715.3628130626
 10
1309.2240318233
 20
1715.6288642185
 10
1311.52613368
 20
1716.048151375
 10
1313.6294573786
 20
1716.6131923429
 10
1315.4964690578
 20
1717.3139039526
 10
1317.0938518499
 20
1718.137781989
 10
1318.3931004213
 20
1719.0701243289
 10
1319.3710296504
 20
1720.0942933012
 10
1320.0101883668
 20
1721.1920125864
 10
1320.2991707683
 20
1722.3436933577
 10
1320.2997310987
 20
1722.3496228975
  0
ARC
  5
AF
330
1F
100
AcDbEntity
  8
0
  6
Continuous
 62
     7
370
    25
100
AcDbCircle
 10
1285.7746920389
 20
1725.886476898
 30
0.0
 40
5.304041303777063
100
AcDbArc
 50
177.8853361442
 51
228.1850064065
  0
LWPOLYLINE
  5
B0
330
1F
100
AcDbEntity
  8
0
  6
Continuous
 62
     7
370
    25
100
AcDbPolyline
 90
       39
 70
   128
 43
0.0
 10
1312.9947157105
 20
1749.1641726398
 10
1311.1151822043
 20
1748.9777097804
 10
1309.4111720889
 20
1748.911809571
 10
1307.9291663183
 20
1748.9682695977
 10
1306.7095901467
 20
1749.145549778
 10
1305.7857104328
 20
1749.4388143707
 10
1305.1827282068
 20
1749.8400638823
 10
1304.9170912519
 20
1750.3383532721
 10
1304.9960454519
 20
1750.9200905044
 10
1305.417437142
 20
1751.569407304
 10
1306.1697718554
 20
1752.2685920013
 10
1307.2325278623
 20
1752.9985726604
 10
1308.5767159491
 20
1753.7394373118
 10
1310.165670169
 20
1754.4709770991
 10
1311.9560479929
 20
1755.1732375239
 10
1313.899012581
 20
1755.8270627524
 10
1315.9415649242
 20
1756.4146181369
 10
1318.0279895191
 20
1756.919876698
 10
1320.1013741416
 20
1757.3290562994
 10
1322.1051622643
 20
1757.6309955882
 10
1323.9846957706
 20
1757.8174584476
 10
1325.6887058859
 20
1757.8833586569
 10
1327.1707116565
 20
1757.8268986303
 10
1328.3902878281
 20
1757.64961845
 10
1329.3141675421
 20
1757.3563538573
 10
1329.9171497681
 20
1756.9551043457
 10
1330.1827867229
 20
1756.4568149559
 10
1330.1038325229
 20
1755.8750777236
 10
1329.6824408328
 20
1755.225760924
 10
1328.9301061194
 20
1754.5265762267
 10
1327.8673501126
 20
1753.7965955676
 10
1326.5231620257
 20
1753.0557309162
 10
1324.9342078058
 20
1752.3241911289
 10
1323.1438299819
 20
1751.6219307041
 10
1321.2008653938
 20
1750.9681054756
 10
1319.1583130507
 20
1750.3805500911
 10
1317.0718884558
 20
1749.8752915299
 10
1314.9985038332
 20
1749.4661119286
 10
1312.9947157105
 20
1749.1641726398
  0
ARC
  5
B1
330
1F
100
AcDbEntity
  8
0
  6
Continuous
 62
     7
370
    25
100
AcDbCircle
 10
1307.4723889628
 20
1790.8339911419
 30
0.0
 40
42.59684897498459
100
AcDbArc
 50
269.6868001888
 51
284.6500089532
  0
LWPOLYLINE
  5
B2
330
1F
100
AcDbEntity
  8
0
  6
Continuous
 62
     7
370
    25
100
AcDbPolyline
 90
       36
 70
   128
 43
0.0
 10
1220.2110721077
 20
2058.5785591705
 10
1219.3986571939
 20
2058.3220745966
 10
1218.8780367723
 20
2058.2564160579
 10
1218.6618123336
 20
2058.3831728034
 10
1218.7552175379
 20
2058.699276717
 10
1219.1559915348
 20
2059.19707658
 10
1219.8544336872
 20
2059.864523268
 10
1220.8336383724
 20
2060.6854613959
 10
1222.0699041792
 20
2061.640020356
 10
1223.5333075939
 20
2062.7050952804
 10
1225.1884272927
 20
2063.8549062896
 10
1226.9952015055
 20
2065.0616224875
 10
1228.9098977014
 20
2066.2960356018
 10
1230.8861711244
 20
2067.5282669629
 10
1232.8761865565
 20
2068.7284907104
 10
1234.8317761579
 20
2069.86765572
 10
1236.7056053574
 20
2070.9181887795
 10
1238.4523185748
 20
2071.8546619916
 10
1240.0296370409
 20
2072.6544082496
 10
1241.3993821457
 20
2073.2980698899
 10
1242.5283995418
 20
2073.7700672387
 10
1243.3893616375
 20
2074.058975715
 10
1243.9614290544
 20
2074.1578023594
 10
1244.2307550399
 20
2074.0641550968
 10
1244.1908206238
 20
2073.7803006366
 10
1243.842592409
 20
2073.3131096069
 10
1243.1944991748
 20
2072.6738902532
 10
1242.2622278605
 20
2071.8781147245
 10
1241.0683438666
 20
2070.9450445741
 10
1239.641744865
 20
2069.8972645382
 10
1238.016961338
 20
2068.760135878
 10
1236.233320776
 20
2067.5611825164
 10
1234.3339957652
 20
2066.329424828
 10
1232.3649590061
 20
2065.0946772085
 10
1230.3738705547
 20
2063.8868264239
 10
1228.4089242234
 20
2062.7351082088
  0
LWPOLYLINE
  5
B3
330
1F
100
AcDbEntity
  8
0
  6
Continuous
 62
     7
370
    25
100
AcDbPolyline
 90
       48
 70
   128
 43
0.0
 10
1194.3996664715
 20
2115.3078994419
 10
1196.4849288337
 20
2114.5331683243
 10
1198.7742060699
 20
2113.8945711057
 10
1201.2266459734
 20
2113.4035035685
 10
1203.7984846962
 20
2113.0687288247
 10
1206.4438277152
 20
2112.8962209374
 10
1209.1154688218
 20
2112.889058314
 10
1211.7657325169
 20
2113.0473687717
 10
1214.3473247822
 20
2113.3683272566
 10
1216.8141770425
 20
2113.8462062569
 10
1219.1222682609
 20
2114.4724780106
 10
1221.2304104948
 20
2115.2359666833
 10
1223.1009838961
 20
2116.1230478017
 10
1224.7006080382
 20
2117.1178913822
 10
1226.0007375904
 20
2118.2027444174
 10
1226.9781717101
 20
2119.3582476793
 10
1227.615468062
 20
2120.5637811848
 10
1227.9012540779
 20
2121.7978321599
 10
1227.8304298995
 20
2123.0383789358
 10
1227.4042593858
 20
2124.2632839258
 10
1226.6303475599
 20
2125.4506886714
 10
1225.5225048966
 20
2126.5794039067
 10
1224.1005008744
 20
2127.6292876817
 10
1222.3897111889
 20
2128.5816047954
 10
1220.4206649224
 20
2129.4193611266
 10
1218.2284997523
 20
2130.1276068935
 10
1215.852334918
 20
2130.6937034337
 10
1213.3345731372
 20
2131.107548741
 10
1210.7201439285
 20
2131.3617577361
 10
1208.0557018431
 20
2131.4517940534
 10
1205.3887939132
 20
2131.3760509928
 10
1202.7670111739
 20
2131.135880191
 10
1200.2371394004
 20
2130.7355675016
 10
1197.8443242143
 20
2130.182256514
 10
1195.6312654593
 20
2129.4858210759
 10
1193.6374552215
 20
2128.6586890942
 10
1191.8984730915
 20
2127.7156207587
 10
1190.4453512469
 20
2126.6734451463
 10
1189.3040206813
 20
2125.5507599053
 10
1188.4948484658
 20
2124.3675993805
 10
1188.0322742976
 20
2123.1450770996
 10
1187.9245528237
 20
2121.9050090015
 10
1188.1736063365
 20
2120.6695241309
 10
1188.77499047
 20
2119.4606697445
 10
1189.7179735102
 20
2118.3000178776
 10
1190.9857279024
 20
2117.2082803901
 10
1192.5556305394
 20
2116.2049393634
 10
1194.3996664715
 20
2115.3078994419
  0
LWPOLYLINE
  5
B4
330
1F
100
AcDbEntity
  8
0
  6
Continuous
 62
     7
370
    25
100
AcDbPolyline
 90
       19
 70
   128
 43
0.0
 10
1194.4593324804
 20
2026.7508621805
 10
1196.5445948426
 20
2025.9761310628
 10
1198.8338720787
 20
2025.3375338442
 10
1201.2863119823
 20
2024.846466307
 10
1203.8581507051
 20
2024.5116915632
 10
1206.5034937241
 20
2024.3391836759
 10
1209.1751348306
 20
2024.3320210525
 10
1211.8253985257
 20
2024.4903315102
 10
1214.406990791
 20
2024.8112899951
 10
1216.8738430514
 20
2025.2891689954
 10
1219.1819342697
 20
2025.9154407491
 10
1221.2900765036
 20
2026.6789294218
 10
1223.160649905
 20
2027.5660105402
 10
1224.7602740471
 20
2028.5608541207
 10
1226.0604035993
 20
2029.6457071559
 10
1227.0378377189
 20
2030.8012104178
 10
1227.6751340709
 20
2032.0067439233
 10
1227.9609200868
 20
2033.2407948984
 10
1227.9771822376
 20
2033.6182819413
  0
LWPOLYLINE
  5
B5
330
1F
100
AcDbEntity
  8
0
  6
Continuous
 62
     7
370
    25
100
AcDbPolyline
 90
        8
 70
   128
 43
0.0
 10
1187.9771913166
 20
2033.5913316289
 10
1187.9842188326
 20
2033.34797174
 10
1188.2332723454
 20
2032.1124868694
 10
1188.8346564789
 20
2030.903632483
 10
1189.7776395191
 20
2029.7429806161
 10
1191.0453939113
 20
2028.6512431286
 10
1192.6152965483
 20
2027.6479021019
 10
1194.4593324804
 20
2026.7508621805
  0
SPLINE
  5
B6
330
1F
100
AcDbEntity
  8
0
  6
Continuous
 62
     7
370
    25
100
AcDbSpline
210
0.0
220
0.0
230
1.0
 70
     8
 71
     3
 72
     9
 73
     5
 74
     0
 42
0.00000001
 43
0.00000001
 40
0.0
 40
0.0
 40
0.0
 40
0.0
 40
0.1774336553679569
 40
1.0
 40
1.0
 40
1.0
 40
1.0
 10
1227.892486429276
 20
2101.004379466453
 30
0.0
 10
1227.900008565739
 20
2100.981033400198
 30
0.0
 10
1227.942402645081
 20
2100.849457086748
 30
0.0
 10
1227.931732855319
 20
2100.583016386152
 30
0.0
 10
1227.922956245356
 20
2100.363851233001
 30
0.0
  0
LWPOLYLINE
  5
B7
330
1F
100
AcDbEntity
  8
0
  6
Continuous
 62
     7
370
    25
100
AcDbPolyline
 90
       39
 70
   128
 43
0.0
 10
1224.6846077853
 20
2060.9478132923
 10
1223.3307045618
 20
2060.2862472849
 10
1222.1983812382
 20
2059.786153924
 10
1221.318524643
 20
2059.4611744529
 10
1220.7151349705
 20
2059.3201734643
 10
1220.4046711181
 20
2059.3669970977
 10
1220.3956017302
 20
2059.6003681265
 10
1220.6881741963
 20
2060.0139207972
 10
1221.274407902
 20
2060.5963744711
 10
1222.1383119202
 20
2061.3318413304
 10
1223.2563212011
 20
2062.2002597562
 10
1224.5979393661
 20
2063.1779415578
 10
1226.126570569
 20
2064.2382181243
 10
1227.8005177353
 20
2065.3521678748
 10
1229.5741199501
 20
2066.4894051639
 10
1231.3989979684
 20
2067.6189091231
 10
1233.2253738748
 20
2068.7098698287
 10
1235.0034288958
 20
2069.7325287165
 10
1236.6846623253
 20
2070.658990318
 10
1238.2232144981
 20
2071.4639831759
 10
1239.5771177216
 20
2072.1255491833
 10
1240.7094410452
 20
2072.6256425441
 10
1241.5892976404
 20
2072.9506220153
 10
1242.192687313
 20
2073.0916230038
 10
1242.5031511654
 20
2073.0447993704
 10
1242.5122205532
 20
2072.8114283417
 10
1242.2196480872
 20
2072.397875671
 10
1241.6334143814
 20
2071.815421997
 10
1240.7695103633
 20
2071.0799551378
 10
1239.6515010823
 20
2070.2115367119
 10
1238.3098829173
 20
2069.2338549103
 10
1236.7812517145
 20
2068.1735783439
 10
1235.1073045481
 20
2067.0596285934
 10
1233.3337023333
 20
2065.9223913042
 10
1231.5088243151
 20
2064.792887345
 10
1229.6824484086
 20
2063.7019266395
 10
1227.9043933877
 20
2062.6792677516
 10
1226.2231599581
 20
2061.7528061501
 10
1224.6846077853
 20
2060.9478132923
  0
ARC
  5
B8
330
1F
100
AcDbEntity
  8
0
  6
Continuous
 62
     7
370
    25
100
AcDbCircle
 10
1195.5995484047
 20
2117.2816970419
 30
0.0
 40
63.6536369340835
100
AcDbArc
 50
292.7460612422
 51
301.0266020885
  0
LWPOLYLINE
  5
B9
330
1F
100
AcDbEntity
  8
0
  6
Continuous
 62
     7
370
    25
100
AcDbPolyline
 90
       26
 70
   128
 43
0.0
 10
1386.5437004937
 20
2857.8130577113
 10
1386.531474359
 20
2857.641956821
 10
1386.6514456304
 20
2856.4536544166
 10
1387.1248373991
 20
2855.2563066935
 10
1387.943201978
 20
2854.0712803501
 10
1389.0919356316
 20
2852.9197222096
 10
1390.5505391808
 20
2851.8221818544
 10
1392.2929838106
 20
2850.7982449179
 10
1394.2881755553
 20
2849.8661835792
 10
1396.500510171
 20
2849.042630495
 10
1398.8905084941
 20
2848.3422819894
 10
1401.4155209479
 20
2847.7776357982
 10
1404.0304886252
 20
2847.358768046
 10
1406.688747366
 20
2847.0931534378
 10
1409.3428604801
 20
2846.9855318726
 10
1411.945465256
 20
2847.0378238597
 10
1414.4501181499
 20
2847.2490962475
 10
1416.8121235715
 20
2847.6155788751
 10
1418.9893314782
 20
2848.1307318513
 10
1420.9428895432
 20
2848.7853622592
 10
1422.6379364767
 20
2849.5677882035
 10
1424.0442241258
 20
2850.4640472747
 10
1425.1366572543
 20
2851.4581457086
 10
1425.895741367
 20
2852.532343795
 10
1426.30793059
 20
2853.6674724435
 10
1426.3691687135
 20
2854.0804874075
  0
LWPOLYLINE
  5
BA
330
1F
100
AcDbEntity
  8
0
  6
Continuous
 62
     7
370
    25
100
AcDbPolyline
 90
       26
 70
   128
 43
0.0
 10
1378.1653878859
 20
2768.4188346063
 10
1378.1531617512
 20
2768.2477337159
 10
1378.2731330226
 20
2767.0594313116
 10
1378.7465247913
 20
2765.8620835884
 10
1379.5648893702
 20
2764.6770572451
 10
1380.7136230238
 20
2763.5254991046
 10
1382.172226573
 20
2762.4279587493
 10
1383.9146712028
 20
2761.4040218129
 10
1385.9098629475
 20
2760.4719604742
 10
1388.1221975632
 20
2759.6484073899
 10
1390.5121958863
 20
2758.9480588843
 10
1393.0372083401
 20
2758.3834126931
 10
1395.6521760174
 20
2757.9645449409
 10
1398.3104347582
 20
2757.6989303327
 10
1400.9645478723
 20
2757.5913087675
 10
1403.5671526482
 20
2757.6436007547
 10
1406.0718055421
 20
2757.8548731424
 10
1408.4338109637
 20
2758.22135577
 10
1410.6110188704
 20
2758.7365087463
 10
1412.5645769354
 20
2759.3911391541
 10
1414.2596238689
 20
2760.1735650984
 10
1415.665911518
 20
2761.0698241697
 10
1416.7583446465
 20
2762.0639226036
 10
1417.5174287592
 20
2763.1381206899
 10
1417.9296179822
 20
2764.2732493384
 10
1417.9908561057
 20
2764.6862643024
  0
LWPOLYLINE
  5
BB
330
1F
100
AcDbEntity
  8
0
  6
Continuous
 62
     7
370
    25
100
AcDbPolyline
 90
       22
 70
   128
 43
0.0
 10
1361.1088177328
 20
2822.5978233694
 10
1361.0542922042
 20
2822.5506316139
 10
1360.7678689737
 20
2822.0315181112
 10
1360.7152003513
 20
2821.2415602339
 10
1360.8975611681
 20
2820.1998787204
 10
1361.3105374249
 20
2818.9316872186
 10
1361.9441331316
 20
2817.4676819955
 10
1362.7830122583
 20
2815.8432989419
 10
1363.8068699395
 20
2814.0978558547
 10
1364.9909239489
 20
2812.2736007598
 10
1366.3065145468
 20
2810.4146893084
 10
1367.7217981827
 20
2808.5661160004
 10
1369.20251826
 20
2806.7726251035
 10
1370.7128343091
 20
2805.0776276289
 10
1372.216189497
 20
2803.5221505788
 10
1373.6761954769
 20
2802.1438438969
 10
1375.0575131587
 20
2800.9760691617
 10
1376.3267080837
 20
2800.0470920768
 10
1377.4530596971
 20
2799.3793983068
 10
1378.4093049318
 20
2798.9891492171
 10
1379.1722981044
 20
2798.8857906921
 10
1379.7235711505
 20
2799.0718244998
  0
ARC
  5
BC
330
1F
100
AcDbEntity
  8
0
  6
Continuous
 62
     7
370
    25
100
AcDbCircle
 10
1380.8197259249
 20
2797.3907007416
 30
0.0
 40
2.006921119451276
100
AcDbArc
 50
9.0061213379
 51
123.1058351409
  0
LWPOLYLINE
  5
BD
330
1F
100
AcDbEntity
  8
0
  6
Continuous
 62
     7
370
    25
100
AcDbPolyline
 90
       48
 70
   128
 43
0.0
 10
1402.6618027603
 20
3005.0355823264
 10
1404.1506076722
 20
3005.9019084327
 10
1405.9203085464
 20
3006.6503294047
 10
1407.9393250287
 20
3007.2674896523
 10
1410.1716277223
 20
3007.7423759363
 10
1412.5773811327
 20
3008.0665138997
 10
1415.1136545332
 20
3008.2341192929
 10
1417.735188065
 20
3008.2422011937
 10
1420.3952004001
 20
3008.0906153803
 10
1423.0462235554
 20
3007.7820669053
 10
1425.6409499598
 20
3007.3220618233
 10
1428.1330766591
 20
3006.7188089361
 10
1430.4781315935
 20
3005.9830733057
 10
1432.634267202
 20
3005.1279841518
 10
1434.5630071936
 20
3004.1688005606
 10
1436.2299331574
 20
3003.1226391861
 10
1437.6052987603
 20
3002.0081688028
 10
1438.6645605703
 20
3000.845277161
 10
1439.3888160355
 20
2999.6547160897
 10
1439.7651407998
 20
2998.4577311794
 10
1439.7868193389
 20
2997.2756826541
 10
1439.4534647988
 20
2996.1296641979
 10
1438.7710258992
 20
2995.0401265371
 10
1437.7516807784
 20
2994.0265124972
 10
1436.4136196741
 20
2993.1069100447
 10
1434.7807203186
 20
2992.2977295072
 10
1432.8821218395
 20
2991.6134107306
 10
1430.7517047717
 20
2991.0661653995
 10
1428.4274864581
 20
2990.66575912
 10
1425.9509426297
 20
2990.4193371515
 10
1423.3662672697
 20
2990.3312968999
 10
1420.7195839712
 20
2990.4032094457
 10
1418.0581228603
 20
2990.6337915076
 10
1415.4293777737
 20
2991.0189283434
 10
1412.8802587296
 20
2991.5517471772
 10
1410.4562548178
 20
2992.222739844
 10
1408.2006224455
 20
2993.0199324641
 10
1406.1536134258
 20
2993.9290991161
 10
1404.3517566833
 20
2994.9340156996
 10
1402.8272063941
 20
2996.0167494544
 10
1401.6071681943
 20
2997.157978971
 10
1400.7134136944
 20
2998.3373389816
 10
1400.1618919647
 20
2999.5337837789
 10
1399.9624449235
 20
3000.7259627771
 10
1400.1186317081
 20
3001.8926015137
 10
1400.6276651614
 20
3003.012881293
 10
1401.4804615695
 20
3004.0668106956
 10
1402.6618027603
 20
3005.0355823264
  0
LWPOLYLINE
  5
BE
330
1F
100
AcDbEntity
  8
0
  6
Continuous
 62
     7
370
    25
100
AcDbPolyline
 90
       55
 70
   128
 43
0.0
 10
1343.9677970432
 20
1086.8298659707
 10
1343.8834354673
 20
1084.9076340637
 10
1343.4646647825
 20
1082.1613282878
 10
1342.6964078006
 20
1079.4311842608
 10
1341.5813630524
 20
1076.7267917133
 10
1340.1234471733
 20
1074.0576499227
 10
1338.3277811459
 20
1071.4331343469
 10
1336.2006723126
 20
1068.8624636926
 10
1333.7495922207
 20
1066.3546675341
 10
1330.9831503786
 20
1063.9185545971
 10
1327.9110640141
 20
1061.562681817
 10
1324.5441239425
 20
1059.2953242829
 10
1320.8941566637
 20
1057.1244461708
 10
1316.9739828208
 20
1055.0576727692
 10
1312.7973721675
 20
1053.1022636951
 10
1308.3789952009
 20
1051.2650873943
 10
1303.7343716314
 20
1049.5525970154
 10
1298.8798158687
 20
1047.9708077433
 10
1293.8323797168
 20
1046.5252756707
 10
1288.6097924793
 20
1045.2210782816
 10
1283.2303986845
 20
1044.0627966168
 10
1277.7130936491
 20
1043.054499183
 10
1272.0772571085
 20
1042.1997276618
 10
1266.3426851438
 20
1041.5014844692
 10
1260.5295206485
 20
1040.9622222099
 10
1254.6581825746
 20
1040.5838350623
 10
1248.7492942114
 20
1040.367652125
 10
1242.8236107447
 20
1040.3144327485
 10
1236.9019463539
 20
1040.4243638678
 10
1231.005101101
 20
1040.6970593458
 10
1225.1537878702
 20
1041.1315613298
 10
1219.3685596124
 20
1041.7263436155
 10
1213.669737153
 20
1042.4793170087
 10
1208.0773378137
 20
1043.3878366627
 10
1202.6110051012
 20
1044.4487113691
 10
1197.2899397084
 20
1045.6582147669
 10
1192.1328320716
 20
1047.0120984313
 10
1187.1577967196
 20
1048.5056067964
 10
1182.3823086453
 20
1050.1334938598
 10
1177.8231419248
 20
1051.8900416087
 10
1173.4963107976
 20
1053.769080105
 10
1169.4170134157
 20
1055.7640091576
 10
1165.59957846
 20
1057.8678215054
 10
1162.05741481
 20
1060.0731274308
 10
1158.8029644447
 20
1062.3721807162
 10
1155.8476587397
 20
1064.7569058532
 10
1153.2018783141
 20
1067.2189264078
 10
1150.8749165681
 20
1069.749594443
 10
1148.8749470397
 20
1072.3400208949
 10
1147.2089946949
 20
1074.9811067962
 10
1145.8829112519
 20
1077.6635752364
 10
1144.9013546273
 20
1080.3780039473
 10
1144.2677725745
 20
1083.1148583988
 10
1143.9843905736
 20
1085.8645252901
 10
1143.9678424382
 20
1086.695114409
  0
LWPOLYLINE
  5
BF
330
1F
100
AcDbEntity
  8
0
  6
Continuous
 62
     7
370
    25
100
AcDbPolyline
 90
        9
 70
   128
 43
0.0
 10
1156.8033240806
 20
1330.9990189363
 10
1159.8754104452
 20
1333.3548917164
 10
1163.2423505168
 20
1335.6222492505
 10
1166.8923177956
 20
1337.7931273626
 10
1170.8124916384
 20
1339.8599007642
 10
1174.9891022918
 20
1341.8153098383
 10
1179.4074792583
 20
1343.6524861391
 10
1184.0521028278
 20
1345.364976518
 10
1188.4399202876
 20
1346.8032006379
  0
ARC
  5
C0
330
1F
100
AcDbEntity
  8
0
  6
Continuous
 62
     7
370
    25
100
AcDbCircle
 10
1243.9207105393
 20
1140.6804029399
 30
0.0
 40
213.925342064911
100
AcDbArc
 50
89.534791618
 51
94.1511663469
  0
LWPOLYLINE
  5
C1
330
1F
100
AcDbEntity
  8
0
  6
Continuous
 62
     7
370
    25
100
AcDbPolyline
 90
       83
 70
   128
 43
0.0
 10
1285.440625711
 20
1350.4128391866
 10
1290.4965347508
 20
1349.2593587665
 10
1295.6536423876
 20
1347.9054751021
 10
1300.6286777397
 20
1346.411966737
 10
1305.4041658139
 20
1344.7840796736
 10
1309.9633325344
 20
1343.0275319247
 10
1314.2901636616
 20
1341.1484934284
 10
1318.3694610435
 20
1339.1535643758
 10
1322.1868959992
 20
1337.049752028
 10
1325.7290596492
 20
1334.8444461026
 10
1328.9835100145
 20
1332.5453928172
 10
1331.9388157195
 20
1330.1606676802
 10
1334.5845961451
 20
1327.6986471256
 10
1336.9115578911
 20
1325.1679790904
 10
1338.9115274195
 20
1322.5775526385
 10
1340.5774797644
 20
1319.9364667372
 10
1341.9035632073
 20
1317.253998297
 10
1342.8851198319
 20
1314.5395695861
 10
1343.5187018847
 20
1311.8027151345
 10
1343.8020838856
 20
1309.0530482432
 10
1343.7342704451
 20
1306.3002272175
 10
1343.3154997602
 20
1303.5539214415
 10
1342.5472427784
 20
1300.8237774145
 10
1341.4321980302
 20
1298.119384867
 10
1339.9742821511
 20
1295.4502430764
 10
1338.1786161236
 20
1292.8257275006
 10
1336.0515072903
 20
1290.2550568463
 10
1333.6004271985
 20
1287.7472606879
 10
1330.8339853564
 20
1285.3111477509
 10
1327.7618989919
 20
1282.9552749707
 10
1324.3949589203
 20
1280.6879174366
 10
1320.7449916414
 20
1278.5170393245
 10
1316.8248177986
 20
1276.4502659229
 10
1312.6482071452
 20
1274.4948568489
 10
1308.2298301787
 20
1272.657680548
 10
1303.5852066092
 20
1270.9451901691
 10
1298.7306508464
 20
1269.3634008971
 10
1293.6832146945
 20
1267.9178688244
 10
1288.4606274571
 20
1266.6136714353
 10
1283.0812336623
 20
1265.4553897705
 10
1277.5639286269
 20
1264.4470923368
 10
1271.9280920863
 20
1263.5923208155
 10
1266.1935201216
 20
1262.8940776229
 10
1260.3803556263
 20
1262.3548153636
 10
1254.5090175524
 20
1261.976428216
 10
1248.6001291892
 20
1261.7602452788
 10
1242.6744457225
 20
1261.7070259023
 10
1236.7527813317
 20
1261.8169570216
 10
1230.8559360788
 20
1262.0896524996
 10
1225.004622848
 20
1262.5241544835
 10
1219.2193945902
 20
1263.1189367693
 10
1213.5205721308
 20
1263.8719101624
 10
1207.9281727915
 20
1264.7804298164
 10
1202.461840079
 20
1265.8413045229
 10
1197.1407746862
 20
1267.0508079207
 10
1191.9836670494
 20
1268.404691585
 10
1187.0086316974
 20
1269.8981999502
 10
1182.2331436231
 20
1271.5260870135
 10
1177.6739769026
 20
1273.2826347624
 10
1173.3471457754
 20
1275.1616732588
 10
1169.2678483935
 20
1277.1566023114
 10
1165.4504134378
 20
1279.2604146591
 10
1161.9082497878
 20
1281.4657205845
 10
1158.6537994225
 20
1283.7647738699
 10
1155.6984937175
 20
1286.149499007
 10
1153.0527132919
 20
1288.6115195616
 10
1150.7257515459
 20
1291.1421875967
 10
1148.7257820175
 20
1293.7326140486
 10
1147.0598296727
 20
1296.37369995
 10
1145.7337462297
 20
1299.0561683902
 10
1144.7521896051
 20
1301.770597101
 10
1144.1186075523
 20
1304.5074515526
 10
1143.8352255514
 20
1307.2571184439
 10
1143.9030389919
 20
1310.0099394697
 10
1144.3218096768
 20
1312.7562452456
 10
1145.0900666586
 20
1315.4863892726
 10
1146.2051114068
 20
1318.1907818201
 10
1147.6630272859
 20
1320.8599236107
 10
1149.4586933134
 20
1323.4844391865
 10
1151.5858021467
 20
1326.0551098408
 10
1154.0368822385
 20
1328.5629059992
 10
1156.8033240806
 20
1330.9990189363
 10
1156.8033240806
 20
1330.9990189363
  0
ARC
  5
C2
330
1F
100
AcDbEntity
  8
0
  6
Continuous
 62
     7
370
    25
100
AcDbCircle
 10
1214.6190726232
 20
1259.9867332629
 30
0.0
 40
87.97916584863857
100
AcDbArc
 50
107.309861854
 51
127.4234183471
  0
ARC
  5
C3
330
1F
100
AcDbEntity
  8
0
  6
Continuous
 62
     7
370
    25
100
AcDbCircle
 10
1243.9021562719
 20
1149.5237428353
 30
0.0
 40
202.7595710360335
100
AcDbArc
 50
89.5654068777
 51
94.3744941929
  0
LWPOLYLINE
  5
C4
330
1F
100
AcDbEntity
  8
0
  6
Continuous
 62
     7
370
    25
100
AcDbPolyline
 90
       81
 70
   128
 43
0.0
 10
1285.2048676699
 20
1347.8973676458
 10
1286.8031430372
 20
1347.5302555899
 10
1291.8880050422
 20
1346.2425076818
 10
1296.7940459067
 20
1344.8130720535
 10
1301.5030148365
 20
1343.2472662995
 10
1305.997394158
 20
1341.55091532
 10
1310.2604644849
 20
1339.7303296521
 10
1314.2763669155
 20
1337.7922819942
 10
1318.0301620291
 20
1335.7439820106
 10
1321.5078854613
 20
1333.593049512
 10
1324.6965998524
 20
1331.3474861084
 10
1327.5844429756
 20
1329.0156454433
 10
1330.1606718647
 20
1326.606202117
 10
1332.415702779
 20
1324.128119417
 10
1334.3411468555
 20
1321.5906159738
 10
1335.9298413157
 20
1319.0031314667
 10
1337.1758761119
 20
1316.375291508
 10
1338.0746159128
 20
1313.7168718351
 10
1338.6227173473
 20
1311.0377619437
 10
1338.818141442
 20
1308.3479282986
 10
1338.6601612066
 20
1305.6573772576
 10
1338.1493643378
 20
1302.9761178472
 10
1337.2876510336
 20
1300.3141245287
 10
1336.078226924
 20
1297.681300092
 10
1334.5255911461
 20
1295.0874388168
 10
1332.6355196072
 20
1292.5421900376
 10
1330.4150434973
 20
1290.055022247
 10
1327.8724231335
 20
1287.6351878724
 10
1325.0171172305
 20
1285.2916888568
 10
1321.8597477138
 20
1283.0332431703
 10
1318.4120602055
 20
1280.8682523793
 10
1314.6868803294
 20
1278.8047703916
 10
1310.6980659994
 20
1276.8504734959
 10
1306.4604558668
 20
1275.0126318049
 10
1301.9898141196
 20
1273.2980822105
 10
1297.3027718387
 20
1271.7132029496
 10
1292.4167651293
 20
1270.2638898773
 10
1287.3499702572
 20
1268.9555345335
 10
1282.1212360322
 20
1267.7930040858
 10
1276.750013689
 20
1266.780623224
 10
1271.2562845274
 20
1265.9221580713
 10
1265.6604855809
 20
1265.2208021745
 10
1259.983433589
 20
1264.6791646235
 10
1254.246247558
 20
1264.2992603457
 10
1248.4702701967
 20
1264.08250261
 10
1242.6769885203
 20
1264.0296977692
 10
1236.8879539172
 20
1264.1410422609
 10
1231.1247019762
 20
1264.4161218764
 10
1225.4086723732
 20
1264.8539133012
 10
1219.7611291137
 20
1265.4527879227
 10
1214.2030814296
 20
1266.2105178878
 10
1208.7552056232
 20
1267.1242843913
 10
1203.4377681505
 20
1268.1906881619
 10
1198.270550228
 20
1269.4057621074
 10
1193.2727742458
 20
1270.7649860729
 10
1188.4630322589
 20
1272.2633036561
 10
1183.8592168232
 20
1273.8951410172
 10
1179.4784544347
 20
1275.6544276138
 10
1175.3370418171
 20
1277.5346187845
 10
1171.4503852974
 20
1279.5287200944
 10
1167.8329434931
 20
1281.6293133558
 10
1164.4981735254
 20
1283.8285842238
 10
1161.4584809574
 20
1286.1183512663
 10
1158.7251736453
 20
1288.4900963995
 10
1156.3084196717
 20
1290.9349965757
 10
1154.2172095202
 20
1293.4439566058
 10
1152.4593226299
 20
1296.0076429935
 10
1151.0412984554
 20
1298.6165186571
 10
1149.9684121399
 20
1301.2608784079
 10
1149.2446548909
 20
1303.9308850539
 10
1148.8727191328
 20
1306.616605995
 10
1148.8539884913
 20
1309.3080501728
 10
1149.1885326453
 20
1311.9952052383
 10
1149.8751070689
 20
1314.6680747981
 10
1150.9111576599
 20
1317.316715602
 10
1152.2928302421
 20
1319.9312745321
 10
1154.0149849029
 20
1322.5020252575
 10
1156.0712151136
 20
1325.0194044167
 10
1158.453871563
 20
1327.4740471939
 10
1161.1540906125
 20
1329.8568221566
 10
1161.1540906125
 20
1329.8568221566
  0
ARC
  5
C5
330
1F
100
AcDbEntity
  8
0
  6
Continuous
 62
     7
370
    25
100
AcDbCircle
 10
1214.6339891255
 20
1237.8474739475
 30
0.0
 40
87.97916584865501
100
AcDbArc
 50
107.309861854
 51
127.4234183471
  0
ARC
  5
C6
330
1F
100
AcDbEntity
  8
0
  6
Continuous
 62
     7
370
    25
100
AcDbCircle
 10
1243.9051827276
 20
1127.5840323757
 30
0.0
 40
202.559696617481
100
AcDbArc
 50
90.1526327025
 51
94.3754460733
  0
LWPOLYLINE
  5
C7
330
1F
100
AcDbEntity
  8
0
  6
Continuous
 62
     7
370
    25
100
AcDbPolyline
 90
       16
 70
   128
 43
0.0
 10
1283.1716555477
 20
1326.203570031
 10
1286.8180595395
 20
1325.3909962746
 10
1291.9029215444
 20
1324.1032483664
 10
1296.8089624089
 20
1322.6738127381
 10
1301.5179313388
 20
1321.1080069841
 10
1306.0123106603
 20
1319.4116560046
 10
1310.2753809871
 20
1317.5910703368
 10
1314.2912834178
 20
1315.6530226788
 10
1318.0450785313
 20
1313.6047226952
 10
1321.5228019635
 20
1311.4537901966
 10
1324.7115163546
 20
1309.208226793
 10
1327.5993594778
 20
1306.8763861279
 10
1330.1755883669
 20
1304.4669428016
 10
1332.4306192813
 20
1301.9888601017
 10
1334.3560633577
 20
1299.4513566584
 10
1335.788484924
 20
1297.1474140661
  0
ARC
  5
C8
330
1F
100
AcDbEntity
  8
0
  6
Continuous
 62
     7
370
    25
100
AcDbCircle
 10
1184.5977646767
 20
1277.9359747711
 30
0.0
 40
37.89260704778081
100
AcDbArc
 50
128.1916330918
 51
149.7531345973
  0
LINE
  5
C9
330
1F
100
AcDbEntity
  8
0
  6
Continuous
 62
     7
370
    25
100
AcDbLine
 10
1211.8265892368
 20
2066.1140461394
 30
0.0
 11
1211.6587859071
 21
2066.0996808675
 31
0.0
  0
LWPOLYLINE
  5
CA
330
1F
100
AcDbEntity
  8
0
  6
Continuous
 62
     7
370
    25
100
AcDbPolyline
 90
       15
 70
   128
 43
0.0
 10
1211.6587859071
 20
2066.0996808675
 10
1209.0062048166
 20
2065.9500588745
 10
1206.3347604464
 20
2065.9659772329
 10
1203.6921247845
 20
2066.147151879
 10
1201.125455727
 20
2066.4903497471
 10
1198.6805555439
 20
2066.9894464631
 10
1196.401053537
 20
2067.6355356343
 10
1194.3276274736
 20
2068.417087784
 10
1192.497277691
 20
2069.3201560957
 10
1190.9426668242
 20
2070.3286252939
 10
1189.6915369411
 20
2071.424499222
 10
1188.7662144841
 20
2072.5882219836
 10
1188.1832118544
 20
2073.7990269187
 10
1187.9529327477
 20
2075.0353071843
 10
1187.9491482925
 20
2075.2131391418
  0
SPLINE
  5
CB
330
1F
100
AcDbEntity
  8
0
  6
Continuous
 62
     8
370
    25
100
AcDbSpline
210
0.0
220
0.0
230
1.0
 70
     8
 71
     3
 72
    19
 73
    15
 74
     0
 42
0.00000001
 43
0.00000001
 40
0.0
 40
0.0
 40
0.0
 40
0.0
 40
0.0941617004110554
 40
0.204329293963623
 40
0.3170506148621374
 40
0.4297414657418971
 40
0.5127157655785949
 40
0.59631048456351
 40
0.6795513230063486
 40
0.7650669050728202
 40
0.822004992274032
 40
0.880459997194739
 40
0.9919850640755069
 40
1.0
 40
1.0
 40
1.0
 40
1.0
 10
1340.441341667243
 20
1937.361148828117
 30
0.0
 10
1340.497576725314
 20
1938.054442432377
 30
0.0
 10
1340.61960584821
 20
1939.558877803122
 30
0.0
 10
1340.673510716819
 20
1942.196391006484
 30
0.0
 10
1340.702544747014
 20
1945.157319479523
 30
0.0
 10
1340.740158771594
 20
1948.07872128371
 30
0.0
 10
1340.835695712079
 20
1950.880985942236
 30
0.0
 10
1341.006145915291
 20
1953.528847205395
 30
0.0
 10
1341.309413713194
 20
1956.361712332071
 30
0.0
 10
1341.732596276946
 20
1959.038532942767
 30
0.0
 10
1342.206644139919
 20
1961.475269606852
 30
0.0
 10
1342.754548896195
 20
1964.202107769472
 30
0.0
 10
1343.193908843552
 20
1966.316895971887
 30
0.0
 10
1343.274680081252
 20
1967.571960158818
 30
0.0
 10
1343.280095643235
 20
1967.65610988948
 30
0.0
  0
SPLINE
  5
CC
330
1F
100
AcDbEntity
  8
0
  6
Continuous
 62
     8
370
    25
100
AcDbSpline
210
0.0
220
0.0
230
1.0
 70
     8
 71
     3
 72
    23
 73
    19
 74
     0
 42
0.00000001
 43
0.00000001
 40
0.0
 40
0.0
 40
0.0
 40
0.0
 40
0.0090044353853873
 40
0.0957350806268223
 40
0.1748770520446346
 40
0.2146497146312437
 40
0.2557428449517454
 40
0.314483787947013
 40
0.37561144178784
 40
0.435994820176465
 40
0.4969770997173077
 40
0.5789754772563852
 40
0.6609986515164651
 40
0.7448183124684217
 40
0.828606418622514
 40
0.9064208317388285
 40
0.9854958114607454
 40
1.0
 40
1.0
 40
1.0
 40
1.0
 10
1343.553181269665
 20
1970.457351727115
 30
0.0
 10
1343.576929636066
 20
1970.357679259197
 30
0.0
 10
1343.829422066167
 20
1969.297962425879
 30
0.0
 10
1343.680086822129
 20
1966.951769072039
 30
0.0
 10
1343.169604255008
 20
1963.880109651968
 30
0.0
 10
1342.690376199754
 20
1961.33948943802
 30
0.0
 10
1342.320706656819
 20
1959.107020339613
 30
0.0
 10
1342.026173683267
 20
1956.596278899987
 30
0.0
 10
1341.891991085599
 20
1953.966121572508
 30
0.0
 10
1341.899281132163
 20
1951.479486893865
 30
0.0
 10
1342.008162534085
 20
1948.875897196646
 30
0.0
 10
1342.197434478817
 20
1946.174420884495
 30
0.0
 10
1342.424276171005
 20
1943.406585628509
 30
0.0
 10
1342.611478840043
 20
1940.812365785899
 30
0.0
 10
1342.697970882681
 20
1938.48988335679
 30
0.0
 10
1342.622859625246
 20
1936.487225923745
 30
0.0
 10
1342.401259984523
 20
1935.318100497422
 30
0.0
 10
1342.171564241866
 20
1934.852276629485
 30
0.0
 10
1342.135962831637
 20
1934.780076829763
 30
0.0
  0
ARC
  5
CD
330
1F
100
AcDbEntity
  8
0
  6
Continuous
 62
     8
370
    25
100
AcDbCircle
 10
1341.2240346226
 20
1933.0449341598
 30
0.0
 40
1.960187017496259
100
AcDbArc
 50
62.2752086352
 51
120.5380811305
  0
SPLINE
  5
CE
330
1F
100
AcDbEntity
  8
0
  6
Continuous
 62
     8
370
    25
100
AcDbSpline
210
0.0
220
0.0
230
1.0
 70
     8
 71
     3
 72
    19
 73
    15
 74
     0
 42
0.00000001
 43
0.00000001
 40
0.0
 40
0.0
 40
0.0
 40
0.0
 40
0.0188215139203984
 40
0.1280755556666028
 40
0.238443145192445
 40
0.4304492179154954
 40
0.528164030038018
 40
0.6258253081335547
 40
0.714127399914458
 40
0.804072284911027
 40
0.8582182638950993
 40
0.9137042384162034
 40
0.9663389765879468
 40
1.0
 40
1.0
 40
1.0
 40
1.0
 10
1188.259681141261
 20
1614.316397827426
 30
0.0
 10
1188.203026222806
 20
1614.40563697461
 30
0.0
 10
1187.817504091428
 20
1615.012886392009
 30
0.0
 10
1187.589269286771
 20
1616.578490709846
 30
0.0
 10
1187.258704562979
 20
1619.346354132083
 30
0.0
 10
1187.300087356219
 20
1622.422038521161
 30
0.0
 10
1187.451401575328
 20
1625.672059394355
 30
0.0
 10
1187.601623895722
 20
1628.240318623933
 30
0.0
 10
1187.750552419232
 20
1630.943394162889
 30
0.0
 10
1187.857394232179
 20
1633.440899135009
 30
0.0
 10
1187.933454515985
 20
1635.746140823666
 30
0.0
 10
1188.005771337712
 20
1637.696262433499
 30
0.0
 10
1188.087419505407
 20
1639.430054968908
 30
0.0
 10
1188.198486120052
 20
1640.44568800086
 30
0.0
 10
1188.241809405544
 20
1640.841851690005
 30
0.0
  0
SPLINE
  5
CF
330
1F
100
AcDbEntity
  8
0
  6
Continuous
 62
     8
370
    25
100
AcDbSpline
210
0.0
220
0.0
230
1.0
 70
     8
 71
     3
 72
    28
 73
    24
 74
     0
 42
0.00000001
 43
0.00000001
 40
0.0
 40
0.0
 40
0.0
 40
0.0
 40
0.0080467187186259
 40
0.0446812467251624
 40
0.0905828107844893
 40
0.1382614499950656
 40
0.1843742119790533
 40
0.2318424321936764
 40
0.2779644845432555
 40
0.3254287580195174
 40
0.376115677264123
 40
0.4205216290368821
 40
0.4661131357897112
 40
0.5440341892600052
 40
0.6151373820175952
 40
0.6508701701161941
 40
0.6877893005579443
 40
0.7405636820616005
 40
0.7954823462798282
 40
0.8497323341940093
 40
0.9045203903835465
 40
0.9781898522319319
 40
1.0
 40
1.0
 40
1.0
 40
1.0
 10
1325.130128313664
 20
1785.175639082695
 30
0.0
 10
1325.114228989732
 20
1785.263407077857
 30
0.0
 10
1325.025944355929
 20
1785.750758951767
 30
0.0
 10
1324.667585344
 20
1786.440340543325
 30
0.0
 10
1323.944705788326
 20
1787.172741211705
 30
0.0
 10
1322.815152083276
 20
1787.584059299021
 30
0.0
 10
1321.348630958337
 20
1787.757776116218
 30
0.0
 10
1319.59519494763
 20
1787.746336992529
 30
0.0
 10
1317.559636394609
 20
1787.599163663386
 30
0.0
 10
1315.257338112031
 20
1787.337418287545
 30
0.0
 10
1312.820941096886
 20
1786.978192825822
 30
0.0
 10
1310.342768924934
 20
1786.52621688186
 30
0.0
 10
1307.386512268254
 20
1785.855458036094
 30
0.0
 10
1304.08935442047
 20
1784.808750098331
 30
0.0
 10
1301.465673444753
 20
1783.249643867214
 30
0.0
 10
1299.936723923561
 20
1781.601581053546
 30
0.0
 10
1298.938494337502
 20
1779.918951133121
 30
0.0
 10
1298.256137496351
 20
1777.706707106552
 30
0.0
 10
1297.978999652153
 20
1775.049123614451
 30
0.0
 10
1298.033974016505
 20
1772.283826326784
 30
0.0
 10
1298.380806814598
 20
1769.180586776986
 30
0.0
 10
1298.812557999333
 20
1766.621424949409
 30
0.0
 10
1299.245146645779
 20
1765.024612701645
 30
0.0
 10
1299.343961694768
 20
1764.659857219071
 30
0.0
  0
SPLINE
  5
D0
330
1F
100
AcDbEntity
  8
0
  6
Continuous
 62
     8
370
    25
100
AcDbSpline
210
0.0
220
0.0
230
1.0
 70
     8
 71
     3
 72
    33
 73
    29
 74
     0
 42
0.00000001
 43
0.00000001
 40
0.0
 40
0.0
 40
0.0
 40
0.0
 40
0.0198876081551637
 40
0.0760771112880441
 40
0.1322880440176644
 40
0.1898019678667593
 40
0.2473003449645893
 40
0.2896364134581109
 40
0.332289039097704
 40
0.3747611038781248
 40
0.4183938136057722
 40
0.4474453966186444
 40
0.4772709582320924
 40
0.5341745160747173
 40
0.5644565162483614
 40
0.5954365646887526
 40
0.6297029864953682
 40
0.6649555817434999
 40
0.7038861889548496
 40
0.7392878540118979
 40
0.7758107359150777
 40
0.8115542929579304
 40
0.8484186819479378
 40
0.8848488310892685
 40
0.9225823001833879
 40
0.9513537067048491
 40
0.9809037032586178
 40
1.0
 40
1.0
 40
1.0
 40
1.0
 10
1301.998190896021
 20
1753.804825267026
 30
0.0
 10
1301.781051052396
 20
1754.197306666552
 30
0.0
 10
1300.950414611874
 20
1755.698686363762
 30
0.0
 10
1299.869849812425
 20
1758.521041151949
 30
0.0
 10
1298.688475300341
 20
1762.204899006505
 30
0.0
 10
1297.791977101194
 20
1766.003240842222
 30
0.0
 10
1297.240934387297
 20
1769.524496227951
 30
0.0
 10
1296.996990774893
 20
1772.707386367874
 30
0.0
 10
1297.027775505084
 20
1775.520621354157
 30
0.0
 10
1297.396832408005
 20
1778.27424642446
 30
0.0
 10
1298.152375052679
 20
1780.570629296644
 30
0.0
 10
1299.230328246986
 20
1782.383464458319
 30
0.0
 10
1300.830171893212
 20
1784.170439127024
 30
0.0
 10
1302.991308005633
 20
1785.566501316523
 30
0.0
 10
1305.50261123269
 20
1786.630029714459
 30
0.0
 10
1307.666711379006
 20
1787.339138395803
 30
0.0
 10
1310.025907092847
 20
1787.945012525229
 30
0.0
 10
1312.585065165194
 20
1788.463997444171
 30
0.0
 10
1315.099653148943
 20
1788.855964085227
 30
0.0
 10
1317.476093376034
 20
1789.116366049136
 30
0.0
 10
1319.560296476335
 20
1789.228555056864
 30
0.0
 10
1321.38538310373
 20
1789.173251390639
 30
0.0
 10
1322.880929330713
 20
1788.909970025242
 30
0.0
 10
1324.041323807188
 20
1788.369883443393
 30
0.0
 10
1324.776366509356
 20
1787.549068029542
 30
0.0
 10
1325.188627321593
 20
1786.453074328806
 30
0.0
 10
1325.372958315071
 20
1785.362593202648
 30
0.0
 10
1325.389005791632
 20
1784.51245789019
 30
0.0
 10
1325.395305292654
 20
1784.178733877581
 30
0.0
  0
SPLINE
  5
D1
330
1F
100
AcDbEntity
  8
0
  6
Continuous
 62
     8
370
    25
100
AcDbSpline
210
0.0
220
0.0
230
1.0
 70
     8
 71
     3
 72
    15
 73
    11
 74
     0
 42
0.00000001
 43
0.00000001
 40
0.0
 40
0.0
 40
0.0
 40
0.0
 40
0.0050193363024357
 40
0.1375740117500903
 40
0.2680084659303244
 40
0.4773986415187092
 40
0.68670179362618
 40
0.871393658680157
 40
0.982529993854232
 40
1.0
 40
1.0
 40
1.0
 40
1.0
 10
1316.459345348942
 20
1749.262007907779
 30
0.0
 10
1316.445974984985
 20
1749.246531682181
 30
0.0
 10
1316.079509281713
 20
1748.822346827057
 30
0.0
 10
1315.175768231912
 20
1748.287544580259
 30
0.0
 10
1313.548732452651
 20
1747.682840247676
 30
0.0
 10
1311.505629513585
 20
1747.308251687629
 30
0.0
 10
1309.15771221425
 20
1747.171308971406
 30
0.0
 10
1307.142693846226
 20
1747.447322204908
 30
0.0
 10
1306.051077341713
 20
1748.056436537206
 30
0.0
 10
1305.697531564625
 20
1748.398126901577
 30
0.0
 10
1305.649505574342
 20
1748.444542441466
 30
0.0
  0
SPLINE
  5
D2
330
1F
100
AcDbEntity
  8
0
  6
Continuous
 62
     8
370
    25
100
AcDbSpline
210
0.0
220
0.0
230
1.0
 70
     8
 71
     3
 72
    28
 73
    24
 74
     0
 42
0.00000001
 43
0.00000001
 40
0.0
 40
0.0
 40
0.0
 40
0.0
 40
0.0091190962988872
 40
0.0535769176253343
 40
0.0965746408635919
 40
0.1408362575524756
 40
0.1838426435676158
 40
0.2281005801307293
 40
0.2753634642372214
 40
0.3167696767976303
 40
0.359281356970985
 40
0.4319386376758905
 40
0.4982386221489304
 40
0.5315575661264892
 40
0.5659827118916186
 40
0.6151920446735543
 40
0.666400808214765
 40
0.7169860663006482
 40
0.7680730447301269
 40
0.836765940045491
 40
0.905479608437239
 40
0.9756982562683844
 40
1.0
 40
1.0
 40
1.0
 40
1.0
 10
1228.054786750281
 20
2100.297647242196
 30
0.0
 10
1228.042019933116
 20
2100.338245869371
 30
0.0
 10
1227.967011764631
 20
2100.57677271815
 30
0.0
 10
1227.610613741866
 20
2100.579071120036
 30
0.0
 10
1226.897704798509
 20
2100.399176962404
 30
0.0
 10
1225.865965344926
 20
2099.931519392237
 30
0.0
 10
1224.520916395816
 20
2099.26994718289
 30
0.0
 10
1222.853175153108
 20
2098.426795893793
 30
0.0
 10
1220.949867528006
 20
2097.455806082857
 30
0.0
 10
1218.894611198382
 20
2096.38429130139
 30
0.0
 10
1216.32526115572
 20
2094.978940130492
 30
0.0
 10
1213.299191037326
 20
2093.122905982643
 30
0.0
 10
1210.808141930067
 20
2090.944041498349
 30
0.0
 10
1209.392819818804
 20
2088.95949503065
 30
0.0
 10
1208.521930068955
 20
2087.077403906147
 30
0.0
 10
1208.042206299815
 20
2084.764324409486
 30
0.0
 10
1208.055837509949
 20
2082.124147359763
 30
0.0
 10
1208.4496863054
 20
2079.466251763221
 30
0.0
 10
1209.18483934643
 20
2076.550800050529
 30
0.0
 10
1210.269902622086
 20
2073.394378604518
 30
0.0
 10
1211.752424204941
 20
2070.04988047545
 30
0.0
 10
1213.04289851613
 20
2067.482182931134
 30
0.0
 10
1213.926704284626
 20
2066.117397418856
 30
0.0
 10
1214.153935900358
 20
2065.76650310685
 30
0.0
  0
SPLINE
  5
D3
330
1F
100
AcDbEntity
  8
0
  6
Continuous
 62
     8
370
    25
100
AcDbSpline
210
0.0
220
0.0
230
1.0
 70
     8
 71
     3
 72
    32
 73
    28
 74
     0
 42
0.00000001
 43
0.00000001
 40
0.0
 40
0.0
 40
0.0
 40
0.0
 40
0.0097535950491411
 40
0.0618368459457471
 40
0.115079507376752
 40
0.1704159839896533
 40
0.2257735648713704
 40
0.2824143558473141
 40
0.3390398360910076
 40
0.3807331904268449
 40
0.4227382961776918
 40
0.4645655822077048
 40
0.5075358931515781
 40
0.5361464370134403
 40
0.5655192095184057
 40
0.6215589006027474
 40
0.6513811823630603
 40
0.6818909151495215
 40
0.7156371300684431
 40
0.7503545470898932
 40
0.788694139279956
 40
0.8235583630452797
 40
0.8595267821909616
 40
0.8947277075966589
 40
0.931032449326982
 40
0.9669095435094393
 40
1.0
 40
1.0
 40
1.0
 40
1.0
 10
1217.734119321791
 20
2058.37144818362
 30
0.0
 10
1217.587547898451
 20
2058.485440834602
 30
0.0
 10
1216.65829930042
 20
2059.208143177914
 30
0.0
 10
1215.080632370932
 20
2060.887346595257
 30
0.0
 10
1213.148311744174
 20
2063.594586339971
 30
0.0
 10
1211.415538874782
 20
2066.618909468949
 30
0.0
 10
1209.883929026735
 20
2069.893901650426
 30
0.0
 10
1208.57294051721
 20
2073.331451354942
 30
0.0
 10
1207.63442991734
 20
2076.595307034036
 30
0.0
 10
1207.04714378868
 20
2079.609326561275
 30
0.0
 10
1206.792096816955
 20
2082.336646307499
 30
0.0
 10
1206.911081938692
 20
2085.092882149981
 30
0.0
 10
1207.494732850939
 20
2087.50610047658
 30
0.0
 10
1208.459812277246
 20
2089.534447686387
 30
0.0
 10
1209.955162039107
 20
2091.671423518006
 30
0.0
 10
1212.006162829992
 20
2093.574250398276
 30
0.0
 10
1214.324167851746
 20
2095.245313797649
 30
0.0
 10
1216.268695721391
 20
2096.484893419263
 30
0.0
 10
1218.313629296315
 20
2097.674648542764
 30
0.0
 10
1220.431863237615
 20
2098.831650034177
 30
0.0
 10
1222.393810767421
 20
2099.854415236468
 30
0.0
 10
1224.118374283431
 20
2100.714881872834
 30
0.0
 10
1225.502617453667
 20
2101.356414908622
 30
0.0
 10
1226.582006763546
 20
2101.772873964819
 30
0.0
 10
1227.325412946737
 20
2101.891914523029
 30
0.0
 10
1227.76588072304
 20
2101.709864551619
 30
0.0
 10
1227.851436826897
 20
2101.233120200906
 30
0.0
 10
1227.892486429276
 20
2101.004379466453
 30
0.0
  0
SPLINE
  5
D4
330
1F
100
AcDbEntity
  8
0
  6
Continuous
 62
     8
370
    25
100
AcDbSpline
210
0.0
220
0.0
230
1.0
 70
     8
 71
     3
 72
    14
 73
    10
 74
     0
 42
0.00000001
 43
0.00000001
 40
0.0
 40
0.0
 40
0.0
 40
0.0
 40
0.0439175820280293
 40
0.1885167592774902
 40
0.4206459716431391
 40
0.6526787100838516
 40
0.8574274622392534
 40
0.9806328126176633
 40
0.9999999999999999
 40
0.9999999999999999
 40
0.9999999999999999
 40
0.9999999999999999
 10
1225.363729662729
 20
2061.049860022858
 30
0.0
 10
1225.292120798515
 20
2060.92910600723
 30
0.0
 10
1224.984738870964
 20
2060.410767914728
 30
0.0
 10
1224.089317749472
 20
2059.690358120685
 30
0.0
 10
1222.653134577855
 20
2058.762275157078
 30
0.0
 10
1220.815472617548
 20
2058.041504686026
 30
0.0
 10
1219.114830408657
 20
2057.789473988088
 30
0.0
 10
1218.118641151231
 20
2058.099127302558
 30
0.0
 10
1217.780106224121
 20
2058.338879957838
 30
0.0
 10
1217.734119321791
 20
2058.37144818362
 30
0.0
  0
LWPOLYLINE
  5
D5
330
1F
100
AcDbEntity
  8
0
  6
Continuous
 62
     8
370
    25
100
AcDbPolyline
 90
        3
 70
   128
 43
0.0
 10
1218.2987743668
 20
2058.9626416284
 10
1218.0680563407
 20
2058.7603080308
 10
1217.7341193218
 20
2058.3714481836
  0
SPLINE
  5
D6
330
1F
100
AcDbEntity
  8
0
  6
Continuous
 62
     8
370
    25
100
AcDbSpline
210
0.0
220
0.0
230
1.0
 70
     8
 71
     3
 72
    26
 73
    22
 74
     0
 42
0.00000001
 43
0.00000001
 40
0.0
 40
0.0
 40
0.0
 40
0.0
 40
0.0332455728754724
 40
0.075427223328023
 40
0.1189448215957061
 40
0.1615338418206801
 40
0.2054583512474969
 40
0.2488654569454243
 40
0.2938254892242841
 40
0.3281070805268618
 40
0.3633163743128044
 40
0.3984530556324299
 40
0.4343790147380557
 40
0.4902075700890698
 40
0.5472314067477354
 40
0.6652641371741501
 40
0.7856517894853567
 40
0.8522957560389215
 40
0.9195158005146943
 40
0.9595387924116122
 40
1.0
 40
1.0
 40
1.0
 40
1.0
 10
1385.064944384967
 20
2841.605122891738
 30
0.0
 10
1385.046479732145
 20
2841.373890015507
 30
0.0
 10
1385.004587312444
 20
2840.849271177938
 30
0.0
 10
1385.325074899773
 20
2839.644625753096
 30
0.0
 10
1385.927820788615
 20
2838.128787465102
 30
0.0
 10
1386.814266449937
 20
2836.350901227978
 30
0.0
 10
1387.897746421528
 20
2834.375658726317
 30
0.0
 10
1389.112007119883
 20
2832.179352272163
 30
0.0
 10
1390.222827011718
 20
2829.985501313445
 30
0.0
 10
1391.119522703968
 20
2827.836753000858
 30
0.0
 10
1391.754861671598
 20
2825.819718043427
 30
0.0
 10
1392.162819043502
 20
2823.761475518856
 30
0.0
 10
1392.360380672356
 20
2821.339912149439
 30
0.0
 10
1392.208941866992
 20
2818.595895706125
 30
0.0
 10
1391.460453704791
 20
2814.561277111119
 30
0.0
 10
1389.850552837698
 20
2809.788223092218
 30
0.0
 10
1387.797458746305
 20
2805.353259292844
 30
0.0
 10
1385.973356871508
 20
2802.047922664914
 30
0.0
 10
1384.703158400609
 20
2800.052035970896
 30
0.0
 10
1383.63345308012
 20
2798.590616139615
 30
0.0
 10
1383.080091970786
 20
2798.001184578206
 30
0.0
 10
1382.801904961916
 20
2797.704864146149
 30
0.0
  0
SPLINE
  5
D7
330
1F
100
AcDbEntity
  8
0
  6
Continuous
 62
     8
370
    25
100
AcDbSpline
210
0.0
220
0.0
230
1.0
 70
     8
 71
     3
 72
    11
 73
     7
 74
     0
 42
0.00000001
 43
0.00000001
 40
0.0
 40
0.0
 40
0.0
 40
0.0
 40
0.1416295523957482
 40
0.4056355463445371
 40
0.6654187460297043
 40
1.0
 40
1.0
 40
1.0
 40
1.0
 10
1382.801904961916
 20
2797.704864146149
 30
0.0
 10
1382.699979706264
 20
2797.632232506906
 30
0.0
 10
1382.408059650996
 20
2797.424211128829
 30
0.0
 10
1381.940155297756
 20
2797.598333596478
 30
0.0
 10
1381.473997584723
 20
2798.181308153708
 30
0.0
 10
1381.334734232163
 20
2798.720249189725
 30
0.0
 10
1381.256339727167
 20
2799.023631342775
 30
0.0
  0
SPLINE
  5
D8
330
1F
100
AcDbEntity
  8
0
  6
Continuous
 62
     8
370
    25
100
AcDbSpline
210
0.0
220
0.0
230
1.0
 70
     8
 71
     3
 72
    28
 73
    24
 74
     0
 42
0.00000001
 43
0.00000001
 40
0.0
 40
0.0
 40
0.0
 40
0.0
 40
0.0771357265487479
 40
0.1410701728952597
 40
0.20565625701767
 40
0.318016420161406
 40
0.3751982169449034
 40
0.4323486861150526
 40
0.4840222467359524
 40
0.5366571546262676
 40
0.568342876572172
 40
0.6008127514097931
 40
0.6316141093258815
 40
0.6634188697632212
 40
0.7032689327514997
 40
0.7446617875413929
 40
0.7846952048613389
 40
0.8259053815570435
 40
0.8659468644333949
 40
0.9071536147148693
 40
0.9511581484594828
 40
0.9897097754347991
 40
1.0
 40
1.0
 40
1.0
 40
1.0
 10
1379.723571150528
 20
2799.071824499809
 30
0.0
 10
1380.36660574311
 20
2799.684833374854
 30
0.0
 10
1381.542623720926
 20
2800.805938624758
 30
0.0
 10
1383.360005061494
 20
2803.203056612577
 30
0.0
 10
1385.450671337697
 20
2806.289178318838
 30
0.0
 10
1387.39677770624
 20
2809.676066699547
 30
0.0
 10
1389.062980446672
 20
2813.229130612595
 30
0.0
 10
1390.105638526152
 20
2815.992887632634
 30
0.0
 10
1390.869381947814
 20
2818.842071899724
 30
0.0
 10
1391.18780548823
 20
2821.400601098208
 30
0.0
 10
1391.114574387448
 20
2823.692510201206
 30
0.0
 10
1390.800523551184
 20
2825.591356334794
 30
0.0
 10
1390.232729496171
 20
2827.47802413142
 30
0.0
 10
1389.404658556132
 20
2829.44247968014
 30
0.0
 10
1388.332157139002
 20
2831.480471214199
 30
0.0
 10
1387.160991368388
 20
2833.48726509695
 30
0.0
 10
1386.088708133212
 20
2835.335261853886
 30
0.0
 10
1385.225436339271
 20
2836.979581275844
 30
0.0
 10
1384.616911288237
 20
2838.434609835552
 30
0.0
 10
1384.293773444651
 20
2839.696905381305
 30
0.0
 10
1384.32604710089
 20
2840.639863726259
 30
0.0
 10
1384.529125316292
 20
2841.193471564911
 30
0.0
 10
1384.765947677982
 20
2841.310899137693
 30
0.0
 10
1384.815842495786
 20
2841.335639315551
 30
0.0
  0
ENDSEC
  0
SECTION
  2
OBJECTS
  0
DICTIONARY
  5
C
330
0
100
AcDbDictionary
281
     1
  3
ACAD_GROUP
350
D
  3
ACAD_LAYOUT
350
1A
  3
ACAD_MLINESTYLE
350
17
  3
ACAD_PLOTSETTINGS
350
19
  3
ACAD_PLOTSTYLENAME
350
E
  3
ACAD_SCALELIST
350
47
  3
DWGPROPS
350
D9
  0
DICTIONARY
  5
D
102
{ACAD_REACTORS
330
C
102
}
330
C
100
AcDbDictionary
281
     1
  0
DICTIONARY
  5
1A
102
{ACAD_REACTORS
330
C
102
}
330
C
100
AcDbDictionary
281
     1
  3
Layout1
350
1E
  3
Layout2
350
26
  3
Model
350
22
  0
DICTIONARY
  5
17
102
{ACAD_REACTORS
330
C
102
}
330
C
100
AcDbDictionary
281
     1
  3
Standard
350
18
  0
DICTIONARY
  5
19
102
{ACAD_REACTORS
330
C
102
}
330
C
100
AcDbDictionary
281
     1
  0
ACDBDICTIONARYWDFLT
  5
E
102
{ACAD_REACTORS
330
C
102
}
330
C
100
AcDbDictionary
281
     1
  3
Normal
350
F
100
AcDbDictionaryWithDefault
340
F
  0
DICTIONARY
  5
47
102
{ACAD_REACTORS
330
C
102
}
330
C
100
AcDbDictionary
281
     1
  3
A0
350
48
  3
A1
350
49
  3
A2
350
4A
  3
A3
350
4B
  3
A4
350
4C
  3
A5
350
4D
  3
A6
350
4E
  3
A7
350
4F
  3
A8
350
50
  3
A9
350
51
  3
B0
350
52
  3
B1
350
53
  3
B2
350
54
  3
B3
350
55
  3
B4
350
56
  3
B5
350
57
  3
B6
350
58
  3
B7
350
59
  3
B8
350
5A
  3
B9
350
5B
  3
C0
350
5C
  3
C1
350
5D
  3
C2
350
5E
  3
C3
350
5F
  3
C4
350
60
  3
C5
350
61
  3
C6
350
62
  3
C7
350
63
  3
C8
350
64
  3
C9
350
65
  3
D0
350
66
  3
D1
350
67
  3
D2
350
68
  0
XRECORD
  5
D9
102
{ACAD_REACTORS
330
C
102
}
330
C
100
AcDbXrecord
280
     1
  1
DWGPROPS COOKIE
  2

  3

  4

  6

  7

  8
9222
  9

300
=
301
=
302
=
303
=
304
=
305
=
306
=
307
=
308
=
309
=
 40
0.0
 41
2459920.223633229
 42
2459920.223633576
  1

 90
        0
  0
LAYOUT
  5
1E
102
{ACAD_REACTORS
330
1A
102
}
330
1A
100
AcDbPlotSettings
  1

  2
none_device
  4

  6

 40
0.0
 41
0.0
 42
0.0
 43
0.0
 44
0.0
 45
0.0
 46
0.0
 47
0.0
 48
0.0
 49
0.0
140
0.0
141
0.0
142
1.0
143
1.0
 70
   688
 72
     1
 73
     0
 74
     5
  7

 75
    16
147
1.0
148
0.0
149
0.0
100
AcDbLayout
  1
Layout1
 70
     1
 71
     1
 10
0.0
 20
0.0
 11
420.0
 21
297.0
 12
0.0
 22
0.0
 32
0.0
 14
1.0000000000E+20
 24
1.0000000000E+20
 34
1.0000000000E+20
 15
-1.0000000000E+20
 25
-1.0000000000E+20
 35
-1.0000000000E+20
146
0.0
 13
0.0
 23
0.0
 33
0.0
 16
1.0
 26
0.0
 36
0.0
 17
0.0
 27
1.0
 37
0.0
 76
     0
330
1B
  0
LAYOUT
  5
26
102
{ACAD_REACTORS
330
1A
102
}
330
1A
100
AcDbPlotSettings
  1

  2
none_device
  4

  6

 40
0.0
 41
0.0
 42
0.0
 43
0.0
 44
0.0
 45
0.0
 46
0.0
 47
0.0
 48
0.0
 49
0.0
140
0.0
141
0.0
142
1.0
143
1.0
 70
   688
 72
     1
 73
     0
 74
     5
  7

 75
    16
147
1.0
148
0.0
149
0.0
100
AcDbLayout
  1
Layout2
 70
     1
 71
     2
 10
0.0
 20
0.0
 11
0.0
 21
0.0
 12
0.0
 22
0.0
 32
0.0
 14
0.0
 24
0.0
 34
0.0
 15
0.0
 25
0.0
 35
0.0
146
0.0
 13
0.0
 23
0.0
 33
0.0
 16
1.0
 26
0.0
 36
0.0
 17
0.0
 27
1.0
 37
0.0
 76
     0
330
23
  0
LAYOUT
  5
22
102
{ACAD_REACTORS
330
1A
102
}
330
1A
100
AcDbPlotSettings
  1

  2
none_device
  4
Letter_(8.50_x_11.00_Inches)
  6

 40
6.35
 41
6.35
 42
6.35000508
 43
6.35000508
 44
215.9
 45
279.4
 46
0.0
 47
0.0
 48
0.0
 49
0.0
140
0.0
141
0.0
142
1.0
143
1.0
 70
  1712
 72
     1
 73
     0
 74
     0
  7

 75
     0
147
1.0
148
0.0
149
0.0
100
AcDbLayout
  1
Model
 70
     1
 71
     0
 10
0.0
 20
0.0
 11
2520.0
 21
3564.0
 12
0.0
 22
0.0
 32
0.0
 14
0.0
 24
0.0
 34
0.0
 15
2520.0
 25
3564.0
 35
0.0
146
0.0
 13
0.0
 23
0.0
 33
0.0
 16
1.0
 26
0.0
 36
0.0
 17
0.0
 27
1.0
 37
0.0
 76
     0
330
1F
331
29
  0
MLINESTYLE
  5
18
102
{ACAD_REACTORS
330
17
102
}
330
17
100
AcDbMlineStyle
  2
Standard
 70
     0
  3

 62
   256
 51
90.0
 52
90.0
 71
     2
 49
0.5
 62
   256
  6
BYLAYER
 49
-0.5
 62
   256
  6
BYLAYER
  0
ACDBPLACEHOLDER
  5
F
102
{ACAD_REACTORS
330
E
102
}
330
E
  0
SCALE
  5
48
102
{ACAD_REACTORS
330
47
102
}
330
47
100
AcDbScale
 70
     0
300
1:1
140
1.0
141
1.0
290
     1
  0
SCALE
  5
49
102
{ACAD_REACTORS
330
47
102
}
330
47
100
AcDbScale
 70
     0
300
1:2
140
1.0
141
2.0
290
     0
  0
SCALE
  5
4A
102
{ACAD_REACTORS
330
47
102
}
330
47
100
AcDbScale
 70
     0
300
1:4
140
1.0
141
4.0
290
     0
  0
SCALE
  5
4B
102
{ACAD_REACTORS
330
47
102
}
330
47
100
AcDbScale
 70
     0
300
1:5
140
1.0
141
5.0
290
     0
  0
SCALE
  5
4C
102
{ACAD_REACTORS
330
47
102
}
330
47
100
AcDbScale
 70
     0
300
1:8
140
1.0
141
8.0
290
     0
  0
SCALE
  5
4D
102
{ACAD_REACTORS
330
47
102
}
330
47
100
AcDbScale
 70
     0
300
1:10
140
1.0
141
10.0
290
     0
  0
SCALE
  5
4E
102
{ACAD_REACTORS
330
47
102
}
330
47
100
AcDbScale
 70
     0
300
1:16
140
1.0
141
16.0
290
     0
  0
SCALE
  5
4F
102
{ACAD_REACTORS
330
47
102
}
330
47
100
AcDbScale
 70
     0
300
1:20
140
1.0
141
20.0
290
     0
  0
SCALE
  5
50
102
{ACAD_REACTORS
330
47
102
}
330
47
100
AcDbScale
 70
     0
300
1:30
140
1.0
141
30.0
290
     0
  0
SCALE
  5
51
102
{ACAD_REACTORS
330
47
102
}
330
47
100
AcDbScale
 70
     0
300
1:40
140
1.0
141
40.0
290
     0
  0
SCALE
  5
52
102
{ACAD_REACTORS
330
47
102
}
330
47
100
AcDbScale
 70
     0
300
1:50
140
1.0
141
50.0
290
     0
  0
SCALE
  5
53
102
{ACAD_REACTORS
330
47
102
}
330
47
100
AcDbScale
 70
     0
300
1:100
140
1.0
141
100.0
290
     0
  0
SCALE
  5
54
102
{ACAD_REACTORS
330
47
102
}
330
47
100
AcDbScale
 70
     0
300
2:1
140
2.0
141
1.0
290
     0
  0
SCALE
  5
55
102
{ACAD_REACTORS
330
47
102
}
330
47
100
AcDbScale
 70
     0
300
4:1
140
4.0
141
1.0
290
     0
  0
SCALE
  5
56
102
{ACAD_REACTORS
330
47
102
}
330
47
100
AcDbScale
 70
     0
300
8:1
140
8.0
141
1.0
290
     0
  0
SCALE
  5
57
102
{ACAD_REACTORS
330
47
102
}
330
47
100
AcDbScale
 70
     0
300
10:1
140
10.0
141
1.0
290
     0
  0
SCALE
  5
58
102
{ACAD_REACTORS
330
47
102
}
330
47
100
AcDbScale
 70
     0
300
100:1
140
100.0
141
1.0
290
     0
  0
SCALE
  5
59
102
{ACAD_REACTORS
330
47
102
}
330
47
100
AcDbScale
 70
     0
300
1/128" = 1'-0"
140
0.0078125
141
12.0
290
     0
  0
SCALE
  5
5A
102
{ACAD_REACTORS
330
47
102
}
330
47
100
AcDbScale
 70
     0
300
1/64" = 1'-0"
140
0.015625
141
12.0
290
     0
  0
SCALE
  5
5B
102
{ACAD_REACTORS
330
47
102
}
330
47
100
AcDbScale
 70
     0
300
1/32" = 1'-0"
140
0.03125
141
12.0
290
     0
  0
SCALE
  5
5C
102
{ACAD_REACTORS
330
47
102
}
330
47
100
AcDbScale
 70
     0
300
1/16" = 1'-0"
140
0.0625
141
12.0
290
     0
  0
SCALE
  5
5D
102
{ACAD_REACTORS
330
47
102
}
330
47
100
AcDbScale
 70
     0
300
3/32" = 1'-0"
140
0.09375
141
12.0
290
     0
  0
SCALE
  5
5E
102
{ACAD_REACTORS
330
47
102
}
330
47
100
AcDbScale
 70
     0
300
1/8" = 1'-0"
140
0.125
141
12.0
290
     0
  0
SCALE
  5
5F
102
{ACAD_REACTORS
330
47
102
}
330
47
100
AcDbScale
 70
     0
300
3/16" = 1'-0"
140
0.1875
141
12.0
290
     0
  0
SCALE
  5
60
102
{ACAD_REACTORS
330
47
102
}
330
47
100
AcDbScale
 70
     0
300
1/4" = 1'-0"
140
0.25
141
12.0
290
     0
  0
SCALE
  5
61
102
{ACAD_REACTORS
330
47
102
}
330
47
100
AcDbScale
 70
     0
300
3/8" = 1'-0"
140
0.375
141
12.0
290
     0
  0
SCALE
  5
62
102
{ACAD_REACTORS
330
47
102
}
330
47
100
AcDbScale
 70
     0
300
1/2" = 1'-0"
140
0.5
141
12.0
290
     0
  0
SCALE
  5
63
102
{ACAD_REACTORS
330
47
102
}
330
47
100
AcDbScale
 70
     0
300
3/4" = 1'-0"
140
0.75
141
12.0
290
     0
  0
SCALE
  5
64
102
{ACAD_REACTORS
330
47
102
}
330
47
100
AcDbScale
 70
     0
300
1" = 1'-0"
140
1.0
141
12.0
290
     0
  0
SCALE
  5
65
102
{ACAD_REACTORS
330
47
102
}
330
47
100
AcDbScale
 70
     0
300
1-1/2" = 1'-0"
140
1.5
141
12.0
290
     0
  0
SCALE
  5
66
102
{ACAD_REACTORS
330
47
102
}
330
47
100
AcDbScale
 70
     0
300
3" = 1'-0"
140
3.0
141
12.0
290
     0
  0
SCALE
  5
67
102
{ACAD_REACTORS
330
47
102
}
330
47
100
AcDbScale
 70
     0
300
6" = 1'-0"
140
6.0
141
12.0
290
     0
  0
SCALE
  5
68
102
{ACAD_REACTORS
330
47
102
}
330
47
100
AcDbScale
 70
     0
300
1'-0" = 1'-0"
140
12.0
141
12.0
290
     0
  0
ENDSEC
  0
EOF
