  0
SECTION
  2
HEADER
  9
$ACADVER
  1
AC1015
  9
$ACADMAINTVER
 70
     6
  9
$DWGCODEPAGE
  3
DOS932
  9
$INSBASE
 10
0.0
 20
0.0
 30
0.0
  9
$EXTMIN
 10
0.0
 20
0.0
 30
0.0
  9
$EXTMAX
 10
2.1
 20
2.97
 30
0.0
  9
$LIMMIN
 10
0.0
 20
0.0
  9
$LIMMAX
 10
2.1
 20
2.97
  9
$ORTHOMODE
 70
     0
  9
$REGENMODE
 70
     1
  9
$FILLMODE
 70
     1
  9
$QTEXTMODE
 70
     0
  9
$MIRRTEXT
 70
     1
  9
$LTSCALE
 40
0.01
  9
$ATTMODE
 70
     1
  9
$TEXTSIZE
 40
0.035
  9
$TRACEWID
 40
1.0
  9
$TEXTSTYLE
  7
Standard
  9
$CLAYER
  8
0
  9
$CELTYPE
  6
ByLayer
  9
$CECOLOR
 62
   256
  9
$CELTSCALE
 40
1.0
  9
$DISPSILH
 70
     0
  9
$DIMSCALE
 40
1.0
  9
$DIMASZ
 40
0.03302
  9
$DIMEXO
 40
0.01
  9
$DIMDLI
 40
3.75
  9
$DIMRND
 40
0.0
  9
$DIMDLE
 40
0.0
  9
$DIMEXE
 40
0.01
  9
$DIMTP
 40
0.0
  9
$DIMTM
 40
0.0
  9
$DIMTXT
 40
0.035
  9
$DIMCEN
 40
2.5
  9
$DIMTSZ
 40
0.0
  9
$DIMTOL
 70
     0
  9
$DIMLIM
 70
     0
  9
$DIMTIH
 70
     1
  9
$DIMTOH
 70
     1
  9
$DIMSE1
 70
     0
  9
$DIMSE2
 70
     0
  9
$DIMTAD
 70
     1
  9
$DIMZIN
 70
     1
  9
$DIMBLK
  1

  9
$DIMASO
 70
     1
  9
$DIMSHO
 70
     1
  9
$DIMPOST
  1

  9
$DIMAPOST
  1

  9
$DIMALT
 70
     0
  9
$DIMALTD
 70
     3
  9
$DIMALTF
 40
0.0393700787
  9
$DIMLFAC
 40
1.0
  9
$DIMTOFL
 70
     1
  9
$DIMTVP
 40
0.0
  9
$DIMTIX
 70
     0
  9
$DIMSOXD
 70
     0
  9
$DIMSAH
 70
     0
  9
$DIMBLK1
  1

  9
$DIMBLK2
  1

  9
$DIMSTYLE
  2
ISO-25
  9
$DIMCLRD
 70
     0
  9
$DIMCLRE
 70
     0
  9
$DIMCLRT
 70
     0
  9
$DIMTFAC
 40
1.0
  9
$DIMGAP
 40
0.01524
  9
$DIMJUST
 70
     0
  9
$DIMSD1
 70
     0
  9
$DIMSD2
 70
     0
  9
$DIMTOLJ
 70
     0
  9
$DIMTZIN
 70
     1
  9
$DIMALTZ
 70
     0
  9
$DIMALTTZ
 70
     0
  9
$DIMUPT
 70
     0
  9
$DIMDEC
 70
     2
  9
$DIMTDEC
 70
     2
  9
$DIMALTU
 70
     2
  9
$DIMALTTD
 70
     3
  9
$DIMTXSTY
  7
Standard
  9
$DIMAUNIT
 70
     0
  9
$DIMADEC
 70
     2
  9
$DIMALTRND
 40
0.0
  9
$DIMAZIN
 70
     0
  9
$DIMDSEP
 70
    44
  9
$DIMATFIT
 70
     3
  9
$DIMFRAC
 70
     0
  9
$DIMLDRBLK
  1

  9
$DIMLUNIT
 70
     2
  9
$DIMLWD
 70
    -2
  9
$DIMLWE
 70
    -2
  9
$DIMTMOVE
 70
     0
  9
$LUNITS
 70
     2
  9
$LUPREC
 70
     2
  9
$SKETCHINC
 40
1.0
  9
$FILLETRAD
 40
10.0
  9
$AUNITS
 70
     0
  9
$AUPREC
 70
     2
  9
$MENU
  1
.
  9
$ELEVATION
 40
0.0
  9
$PELEVATION
 40
0.0
  9
$THICKNESS
 40
0.0
  9
$LIMCHECK
 70
     0
  9
$CHAMFERA
 40
0.0
  9
$CHAMFERB
 40
0.0
  9
$CHAMFERC
 40
0.0
  9
$CHAMFERD
 40
0.0
  9
$SKPOLY
 70
     0
  9
$TDCREATE
 40
2459916.717326875
  9
$TDUCREATE
 40
2459916.342326875
  9
$TDUPDATE
 40
2459916.717327164
  9
$TDUUPDATE
 40
2459916.342327164
  9
$TDINDWG
 40
0.0000000116
  9
$TDUSRTIMER
 40
0.0000000116
  9
$USRTIMER
 70
     1
  9
$ANGBASE
 50
0.0
  9
$ANGDIR
 70
     0
  9
$PDMODE
 70
     0
  9
$PDSIZE
 40
-1.0
  9
$PLINEWID
 40
0.0
  9
$SPLFRAME
 70
     0
  9
$SPLINETYPE
 70
     6
  9
$SPLINESEGS
 70
     8
  9
$HANDSEED
  5
C5
  9
$SURFTAB1
 70
     6
  9
$SURFTAB2
 70
     6
  9
$SURFTYPE
 70
     6
  9
$SURFU
 70
     6
  9
$SURFV
 70
     6
  9
$UCSBASE
  2

  9
$UCSNAME
  2

  9
$UCSORG
 10
0.0
 20
0.0
 30
0.0
  9
$UCSXDIR
 10
1.0
 20
0.0
 30
0.0
  9
$UCSYDIR
 10
0.0
 20
1.0
 30
0.0
  9
$UCSORTHOREF
  2

  9
$UCSORTHOVIEW
 70
     0
  9
$UCSORGTOP
 10
0.0
 20
0.0
 30
0.0
  9
$UCSORGBOTTOM
 10
0.0
 20
0.0
 30
0.0
  9
$UCSORGLEFT
 10
0.0
 20
0.0
 30
0.0
  9
$UCSORGRIGHT
 10
0.0
 20
0.0
 30
0.0
  9
$UCSORGFRONT
 10
0.0
 20
0.0
 30
0.0
  9
$UCSORGBACK
 10
0.0
 20
0.0
 30
0.0
  9
$PUCSBASE
  2

  9
$PUCSNAME
  2

  9
$PUCSORG
 10
0.0
 20
0.0
 30
0.0
  9
$PUCSXDIR
 10
1.0
 20
0.0
 30
0.0
  9
$PUCSYDIR
 10
0.0
 20
1.0
 30
0.0
  9
$PUCSORTHOREF
  2

  9
$PUCSORTHOVIEW
 70
     0
  9
$PUCSORGTOP
 10
0.0
 20
0.0
 30
0.0
  9
$PUCSORGBOTTOM
 10
0.0
 20
0.0
 30
0.0
  9
$PUCSORGLEFT
 10
0.0
 20
0.0
 30
0.0
  9
$PUCSORGRIGHT
 10
0.0
 20
0.0
 30
0.0
  9
$PUCSORGFRONT
 10
0.0
 20
0.0
 30
0.0
  9
$PUCSORGBACK
 10
0.0
 20
0.0
 30
0.0
  9
$USERI1
 70
     0
  9
$USERI2
 70
     0
  9
$USERI3
 70
     0
  9
$USERI4
 70
     0
  9
$USERI5
 70
     0
  9
$USERR1
 40
0.0
  9
$USERR2
 40
0.0
  9
$USERR3
 40
0.0
  9
$USERR4
 40
0.0
  9
$USERR5
 40
0.0
  9
$WORLDVIEW
 70
     1
  9
$SHADEDGE
 70
     3
  9
$SHADEDIF
 70
    70
  9
$TILEMODE
 70
     1
  9
$MAXACTVP
 70
    64
  9
$PINSBASE
 10
0.0
 20
0.0
 30
0.0
  9
$PLIMCHECK
 70
     0
  9
$PEXTMIN
 10
1.0000000000E+20
 20
1.0000000000E+20
 30
1.0000000000E+20
  9
$PEXTMAX
 10
-1.0000000000E+20
 20
-1.0000000000E+20
 30
-1.0000000000E+20
  9
$PLIMMIN
 10
0.0
 20
0.0
  9
$PLIMMAX
 10
420.0
 20
297.0
  9
$UNITMODE
 70
     0
  9
$VISRETAIN
 70
     1
  9
$PLINEGEN
 70
     0
  9
$PSLTSCALE
 70
     1
  9
$TREEDEPTH
 70
  3020
  9
$CMLSTYLE
  2
Standard
  9
$CMLJUST
 70
     0
  9
$CMLSCALE
 40
20.0
  9
$PROXYGRAPHICS
 70
     1
  9
$MEASUREMENT
 70
     1
  9
$CELWEIGHT
370
    -1
  9
$ENDCAPS
280
     0
  9
$JOINSTYLE
280
     0
  9
$LWDISPLAY
290
     1
  9
$INSUNITS
 70
     4
  9
$HYPERLINKBASE
  1

  9
$STYLESHEET
  1

  9
$XEDIT
290
     1
  9
$CEPSNTYPE
380
     0
  9
$PSTYLEMODE
290
     1
  9
$FINGERPRINTGUID
  2
{6f94a9de-46aa-4b27-8279-543e962aac4c}
  9
$VERSIONGUID
  2
{FAEB1C32-E019-11D5-929B-00C0DF256EC4}
  9
$EXTNAMES
290
     1
  9
$PSVPSCALE
 40
0.0
  9
$OLESTARTUP
290
     0
  0
ENDSEC
  0
SECTION
  2
CLASSES
  0
CLASS
  1
ACDBDICTIONARYWDFLT
  2
AcDbDictionaryWithDefault
  3
ObjectDBX Classes
 90
        0
280
     0
281
     0
  0
CLASS
  1
VISUALSTYLE
  2
AcDbVisualStyle
  3
ObjectDBX Classes
 90
     4095
280
     0
281
     0
  0
CLASS
  1
MATERIAL
  2
AcDbMaterial
  3
ObjectDBX Classes
 90
     1153
280
     0
281
     0
  0
CLASS
  1
SCALE
  2
AcDbScale
  3
ObjectDBX Classes
 90
     1153
280
     0
281
     0
  0
CLASS
  1
TABLESTYLE
  2
AcDbTableStyle
  3
ObjectDBX Classes
 90
     4095
280
     0
281
     0
  0
CLASS
  1
MLEADERSTYLE
  2
AcDbMLeaderStyle
  3
ACDB_MLEADERSTYLE_CLASS
 90
     4095
280
     0
281
     0
  0
CLASS
  1
SUN
  2
AcDbSun
  3
SCENEOE
 90
     1153
280
     0
281
     0
  0
CLASS
  1
ACDBPLACEHOLDER
  2
AcDbPlaceHolder
  3
ObjectDBX Classes
 90
        0
280
     0
281
     0
  0
CLASS
  1
LAYOUT
  2
AcDbLayout
  3
ObjectDBX Classes
 90
        0
280
     0
281
     0
  0
ENDSEC
  0
SECTION
  2
TABLES
  0
TABLE
  2
VPORT
  5
8
330
0
100
AcDbSymbolTable
 70
     1
  0
VPORT
  5
29
330
8
100
AcDbSymbolTableRecord
100
AcDbViewportTableRecord
  2
*Active
 70
     0
 10
0.0
 20
0.0
 11
1.0
 21
1.0
 12
1.05
 22
1.485
 13
0.0
 23
0.0
 14
10.0
 24
10.0
 15
10.0
 25
10.0
 16
0.0
 26
0.0
 36
1.0
 17
0.0
 27
0.0
 37
0.0
 40
2.97
 41
0.7070707071
 42
50.0
 43
0.0
 44
0.0
 50
0.0
 51
0.0
 71
     0
 72
  2000
 73
     1
 74
     3
 75
     0
 76
     0
 77
     0
 78
     0
281
     0
 65
     1
110
0.0
120
0.0
130
0.0
111
1.0
121
0.0
131
0.0
112
0.0
122
1.0
132
0.0
 79
     0
146
0.0
  0
ENDTAB
  0
TABLE
  2
LTYPE
  5
5
330
0
100
AcDbSymbolTable
 70
     6
  0
LTYPE
  5
14
330
5
100
AcDbSymbolTableRecord
100
AcDbLinetypeTableRecord
  2
ByBlock
 70
     0
  3

 72
    65
 73
     0
 40
0.0
  0
LTYPE
  5
15
330
5
100
AcDbSymbolTableRecord
100
AcDbLinetypeTableRecord
  2
ByLayer
 70
     0
  3

 72
    65
 73
     0
 40
0.0
  0
LTYPE
  5
16
330
5
100
AcDbSymbolTableRecord
100
AcDbLinetypeTableRecord
  2
Continuous
 70
     0
  3
Solid line
 72
    65
 73
     0
 40
0.0
  0
LTYPE
  5
6E
330
5
100
AcDbSymbolTableRecord
100
AcDbLinetypeTableRecord
  2
HIDDEN
 70
     0
  3
Hidden __ __ __ __ __ __ __ __ __ __ __ __ __ __
 72
    65
 73
     2
 40
1.905
 49
1.27
 74
     0
 49
-0.635
 74
     0
  0
LTYPE
  5
6F
330
5
100
AcDbSymbolTableRecord
100
AcDbLinetypeTableRecord
  2
PHANTOM
 70
     0
  3
Phantom ______  __  __  ______  __  __  ______
 72
    65
 73
     6
 40
12.7
 49
6.35
 74
     0
 49
-1.27
 74
     0
 49
1.27
 74
     0
 49
-1.27
 74
     0
 49
1.27
 74
     0
 49
-1.27
 74
     0
  0
LTYPE
  5
70
330
5
100
AcDbSymbolTableRecord
100
AcDbLinetypeTableRecord
  2
CENTER
 70
     0
  3
Center ____ _ ____ _ ____ _ ____ _ ____ _ ____
 72
    65
 73
     4
 40
10.16
 49
6.35
 74
     0
 49
-1.27
 74
     0
 49
1.27
 74
     0
 49
-1.27
 74
     0
  0
LTYPE
  5
71
330
5
100
AcDbSymbolTableRecord
100
AcDbLinetypeTableRecord
  2
CENTERX2
 70
     0
  3
Center (2x) ________  __  ________  __  _____
 72
    65
 73
     4
 40
20.32
 49
12.7
 74
     0
 49
-2.54
 74
     0
 49
2.54
 74
     0
 49
-2.54
 74
     0
  0
LTYPE
  5
72
330
5
100
AcDbSymbolTableRecord
100
AcDbLinetypeTableRecord
  2
DOT2
 70
     0
  3
Dot (.5x) ........................................
 72
    65
 73
     2
 40
0.635
 49
0.0
 74
     0
 49
-0.635
 74
     0
  0
ENDTAB
  0
TABLE
  2
LAYER
  5
2
330
0
100
AcDbSymbolTable
 70
     1
  0
LAYER
  5
10
330
2
100
AcDbSymbolTableRecord
100
AcDbLayerTableRecord
  2
0
 70
     0
 62
     7
  6
Continuous
370
    -3
390
F
  0
ENDTAB
  0
TABLE
  2
STYLE
  5
3
330
0
100
AcDbSymbolTable
 70
     2
  0
STYLE
  5
11
330
3
100
AcDbSymbolTableRecord
100
AcDbTextStyleTableRecord
  2
Standard
 70
     0
 40
0.0
 41
1.0
 50
0.0
 71
     0
 42
0.035
  3
txt
  4
bigfont
  0
STYLE
  5
76
330
3
100
AcDbSymbolTableRecord
100
AcDbTextStyleTableRecord
  2
SLDTEXTSTYLE0
 70
     0
 40
0.0
 41
0.7
 50
0.0
 71
     0
 42
0.035
  3
TXT
  4
bigfont
  0
ENDTAB
  0
TABLE
  2
VIEW
  5
6
330
0
100
AcDbSymbolTable
 70
     0
  0
ENDTAB
  0
TABLE
  2
UCS
  5
7
330
0
100
AcDbSymbolTable
 70
     0
  0
ENDTAB
  0
TABLE
  2
APPID
  5
9
330
0
100
AcDbSymbolTable
 70
     1
  0
APPID
  5
12
330
9
100
AcDbSymbolTableRecord
100
AcDbRegAppTableRecord
  2
ACAD
 70
     0
  0
ENDTAB
  0
TABLE
  2
DIMSTYLE
  5
A
330
0
100
AcDbSymbolTable
 70
     1
100
AcDbDimStyleTable
  0
DIMSTYLE
105
27
330
A
100
AcDbSymbolTableRecord
100
AcDbDimStyleTableRecord
  2
ISO-25
 70
     0
 41
2.5
 42
0.625
 43
3.75
 44
1.25
 73
     0
 74
     0
 77
     1
 78
     8
140
2.5
141
2.5
143
0.0393700787
147
0.625
171
     3
172
     1
178
     0
271
     2
272
     2
274
     3
278
    44
283
     0
284
     8
340
11
  0
ENDTAB
  0
TABLE
  2
BLOCK_RECORD
  5
1
330
0
100
AcDbSymbolTable
 70
     2
  0
BLOCK_RECORD
  5
1F
330
1
100
AcDbSymbolTableRecord
100
AcDbBlockTableRecord
  2
*Model_Space
340
22
  0
BLOCK_RECORD
  5
1B
330
1
100
AcDbSymbolTableRecord
100
AcDbBlockTableRecord
  2
*Paper_Space
340
1E
  0
BLOCK_RECORD
  5
23
330
1
100
AcDbSymbolTableRecord
100
AcDbBlockTableRecord
  2
*Paper_Space0
340
26
  0
BLOCK_RECORD
  5
73
330
1
100
AcDbSymbolTableRecord
100
AcDbBlockTableRecord
  2
SW_NOTE_0
340
0
102
{BLKREFS
331
7A
102
}
  0
ENDTAB
  0
ENDSEC
  0
SECTION
  2
BLOCKS
  0
BLOCK
  5
20
330
1F
100
AcDbEntity
  8
0
100
AcDbBlockBegin
  2
*Model_Space
 70
     0
 10
0.0
 20
0.0
 30
0.0
  3
*Model_Space
  1

  0
ENDBLK
  5
21
330
1F
100
AcDbEntity
  8
0
100
AcDbBlockEnd
  0
BLOCK
  5
1C
330
1B
100
AcDbEntity
 67
     1
  8
0
100
AcDbBlockBegin
  2
*Paper_Space
 70
     0
 10
0.0
 20
0.0
 30
0.0
  3
*Paper_Space
  1

  0
ENDBLK
  5
1D
330
1B
100
AcDbEntity
 67
     1
  8
0
100
AcDbBlockEnd
  0
BLOCK
  5
24
330
23
100
AcDbEntity
  8
0
100
AcDbBlockBegin
  2
*Paper_Space0
 70
     0
 10
0.0
 20
0.0
 30
0.0
  3
*Paper_Space0
  1

  0
ENDBLK
  5
25
330
23
100
AcDbEntity
  8
0
100
AcDbBlockEnd
  0
BLOCK
  5
74
330
73
100
AcDbEntity
  8
0
100
AcDbBlockBegin
  2
SW_NOTE_0
 70
     0
 10
0.0
 20
0.0
 30
0.0
  3
SW_NOTE_0
  1

  0
MTEXT
  5
77
330
73
100
AcDbEntity
  8
0
  6
Continuous
 62
     0
370
     0
100
AcDbMText
 10
0.0
 20
0.0682131679
 30
0.0
 40
0.0529166667
 41
0.0
 71
     1
 72
     1
  1
HOA-D09K
  7
SLDTEXTSTYLE0
 73
     1
 44
1.0
  0
MTEXT
  5
78
330
73
100
AcDbEntity
  8
0
  6
Continuous
 62
     0
370
     0
100
AcDbMText
 10
0.0
 20
-0.0123423884
 30
0.0
 40
0.0529166667
 41
0.0
 71
     1
 72
     1
  1
HOA-D09O
  7
SLDTEXTSTYLE0
 73
     1
 44
1.0
  0
MTEXT
  5
79
330
73
100
AcDbEntity
  8
0
  6
Continuous
 62
     0
370
     0
100
AcDbMText
 10
0.0
 20
-0.0928979448
 30
0.0
 40
0.0529166667
 41
0.0
 71
     1
 72
     1
  1
HOA-D09W
  7
SLDTEXTSTYLE0
 73
     1
 44
1.0
  0
ENDBLK
  5
75
330
73
100
AcDbEntity
  8
0
100
AcDbBlockEnd
  0
ENDSEC
  0
SECTION
  2
ENTITIES
  0
INSERT
  5
7A
330
1F
100
AcDbEntity
  8
0
  6
Continuous
 62
     7
370
     0
100
AcDbBlockReference
  2
SW_NOTE_0
 10
1.5260063134
 20
0.5154715411
 30
0.0
  0
SPLINE
  5
7B
330
1F
100
AcDbEntity
  8
0
  6
Continuous
 62
     7
370
    25
100
AcDbSpline
210
0.0
220
0.0
230
1.0
 70
     8
 71
     3
 72
    28
 73
    24
 74
     0
 42
0.00000001
 43
0.00000001
 40
0.0
 40
0.0
 40
0.0
 40
0.0
 40
0.0005784592859507
 40
0.0496418850559914
 40
0.099846451471749
 40
0.1499255218582994
 40
0.2007220508069945
 40
0.2505175577726121
 40
0.30031306782798
 40
0.3497916104994306
 40
0.3992065082580183
 40
0.4494110746737759
 40
0.4998345537831785
 40
0.550258032892581
 40
0.6004625993083387
 40
0.6498774970669263
 40
0.699356039738377
 40
0.7491515497937449
 40
0.7989470567593624
 40
0.8501446574584094
 40
0.899559562926736
 40
0.9497641293424935
 40
1.0
 40
1.0
 40
1.0
 40
1.0
 10
1.047931911937717
 20
2.608174126012775
 30
0.0
 10
1.047932713804702
 20
2.608180384172312
 30
0.0
 10
1.048001527962699
 20
2.608717443294584
 30
0.0
 10
1.047756440987532
 20
2.609804476716812
 30
0.0
 10
1.047161469761111
 20
2.61138635434062
 30
0.0
 10
1.046107525333618
 20
2.612921723042897
 30
0.0
 10
1.04452658866307
 20
2.614288186712562
 30
0.0
 10
1.042675323009038
 20
2.615522373136682
 30
0.0
 10
1.040574854117172
 20
2.616610315277496
 30
0.0
 10
1.038118301392788
 20
2.617388639166427
 30
0.0
 10
1.035584266026377
 20
2.618099961809714
 30
0.0
 10
1.032803005021151
 20
2.618414383702325
 30
0.0
 10
1.029973766105483
 20
2.618634897767356
 30
0.0
 10
1.027144608183697
 20
2.618414367498457
 30
0.0
 10
1.024363106517798
 20
2.61810002587457
 30
0.0
 10
1.021829939698826
 20
2.61738840297678
 30
0.0
 10
1.019370149407741
 20
2.616611201185377
 30
0.0
 10
1.017281842096496
 20
2.615519043227284
 30
0.0
 10
1.015379765002547
 20
2.614297467867546
 30
0.0
 10
1.013976490120319
 20
2.612872620363901
 30
0.0
 10
1.012762221946755
 20
2.61139002975495
 30
0.0
 10
1.012125586220717
 20
2.609789118496562
 30
0.0
 10
1.01209785047634
 20
2.608697874241058
 30
0.0
 10
1.012083978281955
 20
2.608152082059417
 30
0.0
  0
LWPOLYLINE
  5
7C
330
1F
100
AcDbEntity
  8
0
  6
Continuous
 62
     7
370
    25
100
AcDbPolyline
 90
        4
 70
   128
 43
0.0
 10
1.0118964077
 20
2.4265237586
 10
1.0120685938
 20
2.4264653488
 10
1.0121079743
 20
2.4264482516
 10
1.0121079743
 20
2.4264482516
  0
SPLINE
  5
7D
330
1F
100
AcDbEntity
  8
0
  6
Continuous
 62
     7
370
    25
100
AcDbSpline
210
0.0
220
0.0
230
1.0
 70
     8
 71
     3
 72
    10
 73
     6
 74
     0
 42
0.00000001
 43
0.00000001
 40
0.0
 40
0.0
 40
0.0
 40
0.0
 40
0.0133775397503613
 40
0.2806919670160233
 40
1.0
 40
1.0
 40
1.0
 40
1.0
 10
1.012046136415481
 20
2.42646943301637
 30
0.0
 10
1.012071531805509
 20
2.42640307020109
 30
0.0
 10
1.012604386284975
 20
2.425010623644756
 30
0.0
 10
1.011540283096046
 20
2.409764145315406
 30
0.0
 10
1.011854728356704
 20
2.399875980105725
 30
0.0
 10
1.012083978156945
 20
2.392666903733193
 30
0.0
  0
LINE
  5
7E
330
1F
100
AcDbEntity
  8
0
  6
Continuous
 62
     7
370
    25
100
AcDbLine
 10
1.0479319119
 20
2.3926888745
 30
0.0
 11
1.0479319119
 21
2.608174126
 31
0.0
  0
SPLINE
  5
7F
330
1F
100
AcDbEntity
  8
0
  6
Continuous
 62
     7
370
    25
100
AcDbSpline
210
0.0
220
0.0
230
1.0
 70
     8
 71
     3
 72
    10
 73
     6
 74
     0
 42
0.00000001
 43
0.00000001
 40
0.0
 40
0.0
 40
0.0
 40
0.0
 40
0.9071048457167699
 40
0.9755362821286927
 40
1.0
 40
1.0
 40
1.0
 40
1.0
 10
1.012083978281955
 20
2.608152082059417
 30
0.0
 10
1.012256355025342
 20
2.562527272677132
 30
0.0
 10
1.012441735765136
 20
2.513460555496877
 30
0.0
 10
1.012020345570295
 20
2.465145118506503
 30
0.0
 10
1.012106361354178
 20
2.460897762045649
 30
0.0
 10
1.012129013406221
 20
2.459779230826676
 30
0.0
  0
SPLINE
  5
80
330
1F
100
AcDbEntity
  8
0
  6
Continuous
 62
     7
370
    25
100
AcDbSpline
210
0.0
220
0.0
230
1.0
 70
     8
 71
     3
 72
     9
 73
     5
 74
     0
 42
0.00000001
 43
0.00000001
 40
0.0
 40
0.0
 40
0.0
 40
0.0
 40
0.0037728870989033
 40
1.0
 40
1.0
 40
1.0
 40
1.0
 10
1.012093379397045
 20
2.461806503555483
 30
0.0
 10
1.012068290041493
 20
2.46179310232105
 30
0.0
 10
1.005418381126907
 20
2.458241118367691
 30
0.0
 10
0.9987607027004548
 20
2.454716770787364
 30
0.0
 10
0.9921281429430466
 20
2.451205720172557
 30
0.0
  0
SPLINE
  5
81
330
1F
100
AcDbEntity
  8
0
  6
Continuous
 62
     7
370
    25
100
AcDbSpline
210
0.0
220
0.0
230
1.0
 70
     8
 71
     3
 72
    22
 73
    18
 74
     0
 42
0.00000001
 43
0.00000001
 40
0.0
 40
0.0
 40
0.0
 40
0.0
 40
0.0671000309721205
 40
0.1328290280936103
 40
0.199437048436984
 40
0.266688137497239
 40
0.3323786377230162
 40
0.4004880256912542
 40
0.4660623880951567
 40
0.5333133888698495
 40
0.5995410894730355
 40
0.6666040569383027
 40
0.7335136207515547
 40
0.7986237149269707
 40
0.8656496518427879
 40
0.9327484926771433
 40
0.9999999999999999
 40
0.9999999999999999
 40
0.9999999999999999
 40
0.9999999999999999
 10
0.9908000646375003
 20
2.449946348823031
 30
0.0
 10
0.9905557149980065
 20
2.449514257766267
 30
0.0
 10
0.9900720084384306
 20
2.448658904433543
 30
0.0
 10
0.9899144147234222
 20
2.44659586111624
 30
0.0
 10
0.989979398099654
 20
2.444495323106077
 30
0.0
 10
0.9903036023370999
 20
2.441994456118004
 30
0.0
 10
0.9910419312113263
 20
2.439299794440274
 30
0.0
 10
0.9920823221384313
 20
2.436629840018112
 30
0.0
 10
0.9934088872181694
 20
2.433947820400236
 30
0.0
 10
0.9948370328984407
 20
2.431379876096229
 30
0.0
 10
0.9966126794851786
 20
2.429064878278265
 30
0.0
 10
0.9983430627649993
 20
2.427069389725816
 30
0.0
 10
1.000192579765889
 20
2.425428864116099
 30
0.0
 10
1.002014087765066
 20
2.424250930748498
 30
0.0
 10
1.003687020079454
 20
2.423360410742835
 30
0.0
 10
1.005275726445341
 20
2.42324938554991
 30
0.0
 10
1.006137278981957
 20
2.42349240561695
 30
0.0
 10
1.006568544754767
 20
2.423614053726109
 30
0.0
  0
LWPOLYLINE
  5
82
330
1F
100
AcDbEntity
  8
0
  6
Continuous
 62
     7
370
    25
100
AcDbPolyline
 90
        4
 70
   128
 43
0.0
 10
1.0066637094
 20
2.426068105
 10
1.0066392547
 20
2.4260226187
 10
1.0065959072
 20
2.425989896
 10
1.0065959072
 20
2.425989896
  0
SPLINE
  5
83
330
1F
100
AcDbEntity
  8
0
  6
Continuous
 62
     7
370
    25
100
AcDbSpline
210
0.0
220
0.0
230
1.0
 70
     8
 71
     3
 72
    27
 73
    23
 74
     0
 42
0.00000001
 43
0.00000001
 40
0.0
 40
0.0
 40
0.0
 40
0.0
 40
0.0502616005636096
 40
0.099574144828606
 40
0.149678779894434
 40
0.1991825882040938
 40
0.2507739684006459
 40
0.3005949033737979
 40
0.3500987116834578
 40
0.4002033543606604
 40
0.4504335659105468
 40
0.4995220345872255
 40
0.5497835909432238
 40
0.5990961352082202
 40
0.6492007778854229
 40
0.7004245220395232
 40
0.7502454564974539
 40
0.8000663940467125
 40
0.8495702023563725
 40
0.8996748374222004
 40
0.9489873816871969
 40
1.0
 40
1.0
 40
1.0
 40
1.0
 10
1.012083978281955
 20
1.631487522426991
 30
0.0
 10
1.012085396828612
 20
1.63093973153384
 30
0.0
 10
1.012088207136453
 20
1.629854493317811
 30
0.0
 10
1.01290167780989
 20
1.628285447625559
 30
0.0
 10
1.013924934683233
 20
1.626783881110073
 30
0.0
 10
1.015348415792132
 20
1.625351433700688
 30
0.0
 10
1.017258673390991
 20
1.624133779891323
 30
0.0
 10
1.01937297019641
 20
1.623033155419397
 30
0.0
 10
1.021828052372982
 20
1.622228447354343
 30
0.0
 10
1.024435240507262
 20
1.621606843135277
 30
0.0
 10
1.027186239274205
 20
1.621240405411756
 30
0.0
 10
1.02999196347488
 20
1.621137454240102
 30
0.0
 10
1.032803889400944
 20
1.621168120715252
 30
0.0
 10
1.035519204582798
 20
1.62163134921848
 30
0.0
 10
1.038155758534476
 20
1.622226305795746
 30
0.0
 10
1.040614137074351
 20
1.623068662751197
 30
0.0
 10
1.042739233753623
 20
1.624158429590211
 30
0.0
 10
1.044615390793614
 20
1.625368922222266
 30
0.0
 10
1.046021534076283
 20
1.626783733044855
 30
0.0
 10
1.047050707843147
 20
1.628285314082438
 30
0.0
 10
1.047845297809916
 20
1.629863042255585
 30
0.0
 10
1.047902716231159
 20
1.630954559519372
 30
0.0
 10
1.047931911937717
 20
1.63150956638035
 30
0.0
  0
LINE
  5
84
330
1F
100
AcDbEntity
  8
0
  6
Continuous
 62
     7
370
    25
100
AcDbLine
 10
1.0120941619
 20
2.3927844078
 30
0.0
 11
1.0120839783
 21
2.3926668305
 31
0.0
  0
LINE
  5
85
330
1F
100
AcDbEntity
  8
0
  6
Continuous
 62
     7
370
    25
100
AcDbLine
 10
1.0479319119
 20
1.6315095664
 30
0.0
 11
1.0479319119
 21
2.3926888745
 31
0.0
  0
LINE
  5
86
330
1F
100
AcDbEntity
  8
0
  6
Continuous
 62
     7
370
    25
100
AcDbLine
 10
1.0120839783
 20
2.3926668305
 30
0.0
 11
1.0120839783
 21
1.6314875224
 31
0.0
  0
SPLINE
  5
87
330
1F
100
AcDbEntity
  8
0
  6
Continuous
 62
     7
370
    25
100
AcDbSpline
210
0.0
220
0.0
230
1.0
 70
     8
 71
     3
 72
    11
 73
     7
 74
     0
 42
0.00000001
 43
0.00000001
 40
0.0
 40
0.0
 40
0.0
 40
0.0
 40
0.0563187152481932
 40
0.5270519379249506
 40
0.8372530777764603
 40
1.0
 40
1.0
 40
1.0
 40
1.0
 10
1.042950705373817
 20
1.616492639317364
 30
0.0
 10
1.04296390939114
 20
1.616560863231108
 30
0.0
 10
1.043087477602662
 20
1.617199328540422
 30
0.0
 10
1.042480658013751
 20
1.614202433488562
 30
0.0
 10
1.042918789936452
 20
1.616049075408792
 30
0.0
 10
1.042967710626989
 20
1.616509903551228
 30
0.0
 10
1.042984544804897
 20
1.616668479868312
 30
0.0
  0
SPLINE
  5
88
330
1F
100
AcDbEntity
  8
0
  6
Continuous
 62
     7
370
    25
100
AcDbSpline
210
0.0
220
0.0
230
1.0
 70
    11
 71
     3
 72
    10
 73
     6
 74
     0
 42
0.00000001
 43
0.00000001
 40
0.0
 40
0.0
 40
0.0
 40
0.0
 40
0.1602098933435668
 40
0.5002993732302515
 40
0.9999999999999999
 40
0.9999999999999999
 40
0.9999999999999999
 40
0.9999999999999999
 10
1.044540179926018
 20
1.618056410395531
 30
0.0
 10
1.044337441798721
 20
1.617945281081969
 30
0.0
 10
1.043704336340001
 20
1.617598249292845
 30
0.0
 10
1.041889570066526
 20
1.616241963649995
 30
0.0
 10
1.043551362777039
 20
1.617379526148885
 30
0.0
 10
1.044540179926018
 20
1.618056410395531
 30
0.0
  0
LWPOLYLINE
  5
89
330
1F
100
AcDbEntity
  8
0
  6
Continuous
 62
     7
370
    25
100
AcDbPolyline
 90
        4
 70
   128
 43
0.0
 10
1.0120839783
 20
1.6320590076
 10
1.0120132676
 20
1.6315283413
 10
1.0120156473
 20
1.6315095664
 10
1.0120156473
 20
1.6315095664
  0
SPLINE
  5
8A
330
1F
100
AcDbEntity
  8
0
  6
Continuous
 62
     7
370
    25
100
AcDbSpline
210
0.0
220
0.0
230
1.0
 70
     8
 71
     3
 72
    11
 73
     7
 74
     0
 42
0.00000001
 43
0.00000001
 40
0.0
 40
0.0
 40
0.0
 40
0.0
 40
0.0408864627825589
 40
0.0978133930708741
 40
0.8836662674650307
 40
1.0
 40
1.0
 40
1.0
 40
1.0
 10
1.047931407671376
 20
1.5438907722837
 30
0.0
 10
1.04793205581755
 20
1.544438446530817
 30
0.0
 10
1.047933606388868
 20
1.545748657117948
 30
0.0
 10
1.04785895097421
 20
1.558360760148241
 30
0.0
 10
1.047786449716076
 20
1.571451863127231
 30
0.0
 10
1.047781960473992
 20
1.583822529484156
 30
0.0
 10
1.0477813816023
 20
1.585417682615662
 30
0.0
  0
LWPOLYLINE
  5
8B
330
1F
100
AcDbEntity
  8
0
  6
Continuous
 62
     7
370
    25
100
AcDbPolyline
 90
        6
 70
   128
 43
0.0
 10
1.0477932028
 20
1.6084548385
 10
1.0479317186
 20
1.6235599747
 10
1.0479303643
 20
1.6241484865
 10
1.0479313652
 20
1.6314038716
 10
1.0479318684
 20
1.6315011507
 10
1.0479319119
 20
1.6315095664
  0
LINE
  5
8C
330
1F
100
AcDbEntity
  8
0
  6
Continuous
 62
     7
370
    25
100
AcDbLine
 10
1.0120156473
 20
1.6315095664
 30
0.0
 11
1.0120156473
 21
1.5438947507
 31
0.0
  0
SPLINE
  5
8D
330
1F
100
AcDbEntity
  8
0
  6
Continuous
 62
     7
370
    25
100
AcDbSpline
210
0.0
220
0.0
230
1.0
 70
     8
 71
     3
 72
    18
 73
    14
 74
     0
 42
0.00000001
 43
0.00000001
 40
0.0
 40
0.0
 40
0.0
 40
0.0
 40
0.0355418902566575
 40
0.1322118994927015
 40
0.2294267298932295
 40
0.3255479818789377
 40
0.4217249210959243
 40
0.5174053315648854
 40
0.6131418327516477
 40
0.7107363083072277
 40
0.8091398289865952
 40
0.9052066158749327
 40
1.0
 40
1.0
 40
1.0
 40
1.0
 10
1.047782505163995
 20
1.583494982342286
 30
0.0
 10
1.048067974796971
 20
1.583415891892338
 30
0.0
 10
1.049129890248024
 20
1.583121684168894
 30
0.0
 10
1.051032301414818
 20
1.58289752329646
 30
0.0
 10
1.0535440033617
 20
1.583376962851384
 30
0.0
 10
1.055855756028734
 20
1.584419655741237
 30
0.0
 10
1.058146721028577
 20
1.585908016399981
 30
0.0
 10
1.060231570141301
 20
1.587716212333278
 30
0.0
 10
1.06194040404755
 20
1.590052189776547
 30
0.0
 10
1.063264600689746
 20
1.592722896470826
 30
0.0
 10
1.06427098162862
 20
1.59555366841443
 30
0.0
 10
1.06479548730481
 20
1.598491105777629
 30
0.0
 10
1.064726824979279
 20
1.600405038410345
 30
0.0
 10
1.064692722871099
 20
1.601355619929156
 30
0.0
  0
SPLINE
  5
8E
330
1F
100
AcDbEntity
  8
0
  6
Continuous
 62
     7
370
    25
100
AcDbSpline
210
0.0
220
0.0
230
1.0
 70
     8
 71
     3
 72
    12
 73
     8
 74
     0
 42
0.00000001
 43
0.00000001
 40
0.0
 40
0.0
 40
0.0
 40
0.0
 40
0.1436221686603185
 40
0.2825262559446129
 40
0.2841873778613854
 40
0.8110520370483993
 40
1.0
 40
1.0
 40
1.0
 40
1.0
 10
1.060520793692919
 20
1.610949075182846
 30
0.0
 10
1.059881142679561
 20
1.611511509469498
 30
0.0
 10
1.058622853603433
 20
1.612617901711759
 30
0.0
 10
1.05711993747113
 20
1.613201056003055
 30
0.0
 10
1.053370139011214
 20
1.613961848850581
 30
0.0
 10
1.05155049743689
 20
1.6148141759229
 30
0.0
 10
1.048631620662567
 20
1.615644746247767
 30
0.0
 10
1.047861145536035
 20
1.615863985984701
 30
0.0
  0
SPLINE
  5
8F
330
1F
100
AcDbEntity
  8
0
  6
Continuous
 62
     7
370
    25
100
AcDbSpline
210
0.0
220
0.0
230
1.0
 70
     8
 71
     3
 72
    27
 73
    23
 74
     0
 42
0.00000001
 43
0.00000001
 40
0.0
 40
0.0
 40
0.0
 40
0.0
 40
0.050963900349468
 40
0.1002293502522678
 40
0.1502861344950103
 40
0.1997426657818885
 40
0.2495160234442667
 40
0.299289378018269
 40
0.3504642025800788
 40
0.4005209944269269
 40
0.4497864443297267
 40
0.4999999999999995
 40
0.5502135556702722
 40
0.599479005573072
 40
0.6495357974199202
 40
0.70071062198173
 40
0.7504839765557324
 40
0.8002573342181106
 40
0.8497138655049887
 40
0.8997706497477312
 40
0.949036099650531
 40
1.0
 40
1.0
 40
1.0
 40
1.0
 10
1.012015647310336
 20
1.460607589481843
 30
0.0
 10
1.012044843025895
 20
1.460052582572619
 30
0.0
 10
1.01210226146484
 20
1.458961065213948
 30
0.0
 10
1.012896851301551
 20
1.457383337737932
 30
0.0
 10
1.013926025564759
 20
1.455881754039862
 30
0.0
 10
1.015332167003592
 20
1.454466953100555
 30
0.0
 10
1.017208330949857
 20
1.453256423449659
 30
0.0
 10
1.01933340157527
 20
1.452166796263906
 30
0.0
 10
1.021791879266414
 20
1.451323907840216
 30
0.0
 10
1.024428070789264
 20
1.450730893945217
 30
0.0
 10
1.027144719805292
 20
1.450260515856199
 30
0.0
 10
1.029973779624027
 20
1.450256702284733
 30
0.0
 10
1.032802839442761
 20
1.450260515856199
 30
0.0
 10
1.035519488458789
 20
1.450730893945217
 30
0.0
 10
1.038155679981639
 20
1.451323907840216
 30
0.0
 10
1.040614157672783
 20
1.452166796263905
 30
0.0
 10
1.042739228298196
 20
1.453256423449659
 30
0.0
 10
1.044615392244461
 20
1.454466953100555
 30
0.0
 10
1.046021533683294
 20
1.455881754039862
 30
0.0
 10
1.047050707946502
 20
1.457383337737932
 30
0.0
 10
1.047845297783214
 20
1.458961065213948
 30
0.0
 10
1.047902716222158
 20
1.460052582572619
 30
0.0
 10
1.047931911937717
 20
1.460607589481843
 30
0.0
  0
LINE
  5
90
330
1F
100
AcDbEntity
  8
0
  6
Continuous
 62
     7
370
    25
100
AcDbLine
 10
1.0479319119
 20
1.4606075895
 30
0.0
 11
1.0479319119
 21
1.5438947507
 31
0.0
  0
LINE
  5
91
330
1F
100
AcDbEntity
  8
0
  6
Continuous
 62
     7
370
    25
100
AcDbLine
 10
1.0120156473
 20
1.5438947507
 30
0.0
 11
1.0120156473
 21
1.4606075895
 31
0.0
  0
LINE
  5
92
330
1F
100
AcDbEntity
  8
0
  6
Continuous
 62
     7
370
    25
100
AcDbLine
 10
1.0472824048
 20
1.405136567
 30
0.0
 11
1.0471940118
 21
1.4051719254
 31
0.0
  0
SPLINE
  5
93
330
1F
100
AcDbEntity
  8
0
  6
Continuous
 62
     7
370
    25
100
AcDbSpline
210
0.0
220
0.0
230
1.0
 70
    11
 71
     3
 72
    10
 73
     6
 74
     0
 42
0.00000001
 43
0.00000001
 40
0.0
 40
0.0
 40
0.0
 40
0.0
 40
0.1497728817180303
 40
0.5001333542450168
 40
0.9999999999999999
 40
0.9999999999999999
 40
0.9999999999999999
 40
0.9999999999999999
 10
1.032802206553844
 20
1.443072420177551
 30
0.0
 10
1.032538021586818
 20
1.443074955502303
 30
0.0
 10
1.031655834423266
 20
1.443083421657573
 30
0.0
 10
1.02864397561544
 20
1.442930769583322
 30
0.0
 10
1.03126263870543
 20
1.443019974629477
 30
0.0
 10
1.032802206553844
 20
1.443072420177551
 30
0.0
  0
SPLINE
  5
94
330
1F
100
AcDbEntity
  8
0
  6
Continuous
 62
     7
370
    25
100
AcDbSpline
210
0.0
220
0.0
230
1.0
 70
     8
 71
     3
 72
     9
 73
     5
 74
     0
 42
0.00000001
 43
0.00000001
 40
0.0
 40
0.0
 40
0.0
 40
0.0
 40
0.7593227393934209
 40
1.0
 40
1.0
 40
1.0
 40
1.0
 10
1.047931911937717
 20
1.372992773838254
 30
0.0
 10
1.04790942119314
 20
1.380973837672608
 30
0.0
 10
1.047879801713292
 20
1.391484603938781
 30
0.0
 10
1.047873080077302
 20
1.402180343768511
 30
0.0
 10
1.047871462332365
 20
1.40475456513089
 30
0.0
  0
LWPOLYLINE
  5
95
330
1F
100
AcDbEntity
  8
0
  6
Continuous
 62
     7
370
    25
100
AcDbPolyline
 90
        6
 70
   128
 43
0.0
 10
1.0478956569
 20
1.43977148
 10
1.0479342916
 20
1.4508440189
 10
1.0479303909
 20
1.4533283866
 10
1.0479319136
 20
1.4605261345
 10
1.0479319119
 20
1.4606075895
 10
1.0479319119
 20
1.4606075895
  0
LINE
  5
96
330
1F
100
AcDbEntity
  8
0
  6
Continuous
 62
     7
370
    25
100
AcDbLine
 10
1.0120156473
 20
1.4606075895
 30
0.0
 11
1.0120156473
 21
1.3729927738
 31
0.0
  0
SPLINE
  5
97
330
1F
100
AcDbEntity
  8
0
  6
Continuous
 62
     7
370
    25
100
AcDbSpline
210
0.0
220
0.0
230
1.0
 70
     8
 71
     3
 72
    16
 73
    12
 74
     0
 42
0.00000001
 43
0.00000001
 40
0.0
 40
0.0
 40
0.0
 40
0.0
 40
0.0928268954430791
 40
0.2028430983474172
 40
0.3176460712763169
 40
0.4323846208030608
 40
0.5454392004991409
 40
0.6586259520434088
 40
0.7726548217916882
 40
0.8859061545027903
 40
0.9999999999999999
 40
0.9999999999999999
 40
0.9999999999999999
 40
0.9999999999999999
 10
1.052729220059607
 20
1.401713353558881
 30
0.0
 10
1.052978054884437
 20
1.401574122054997
 30
0.0
 10
1.053521802756261
 20
1.401269876722859
 30
0.0
 10
1.054707622043596
 20
1.401478086113117
 30
0.0
 10
1.056181893117049
 20
1.401921203591445
 30
0.0
 10
1.057820127276566
 20
1.403081670301273
 30
0.0
 10
1.05948371513822
 20
1.404566601002938
 30
0.0
 10
1.06143157556478
 20
1.406332020396619
 30
0.0
 10
1.063033755645372
 20
1.408592876461
 30
0.0
 10
1.064813027940583
 20
1.410955794291426
 30
0.0
 10
1.065815816137184
 20
1.41265859656205
 30
0.0
 10
1.06631906833928
 20
1.413513152883447
 30
0.0
  0
SPLINE
  5
98
330
1F
100
AcDbEntity
  8
0
  6
Continuous
 62
     7
370
    25
100
AcDbSpline
210
0.0
220
0.0
230
1.0
 70
     8
 71
     3
 72
    11
 73
     7
 74
     0
 42
0.00000001
 43
0.00000001
 40
0.0
 40
0.0
 40
0.0
 40
0.0
 40
0.2684287601244861
 40
0.5368574076393637
 40
0.8042257274546887
 40
1.0
 40
1.0
 40
1.0
 40
1.0
 10
1.070137445056733
 20
1.423229069335967
 30
0.0
 10
1.070201102815455
 20
1.4238755794865
 30
0.0
 10
1.070328418306193
 20
1.425168599516347
 30
0.0
 10
1.070222218731813
 20
1.426735635398412
 30
0.0
 10
1.069665198802633
 20
1.427727434684856
 30
0.0
 10
1.069195750338295
 20
1.428039439119942
 30
0.0
 10
1.068997310520581
 20
1.42817132602112
 30
0.0
  0
SPLINE
  5
99
330
1F
100
AcDbEntity
  8
0
  6
Continuous
 62
     7
370
    25
100
AcDbSpline
210
0.0
220
0.0
230
1.0
 70
     8
 71
     3
 72
     9
 73
     5
 74
     0
 42
0.00000001
 43
0.00000001
 40
0.0
 40
0.0
 40
0.0
 40
0.0
 40
0.5544974328227258
 40
1.0
 40
1.0
 40
1.0
 40
1.0
 10
1.047227542521711
 20
1.405172144988915
 30
0.0
 10
1.048230566223417
 20
1.404509146329335
 30
0.0
 10
1.05003945413224
 20
1.403313471434673
 30
0.0
 10
1.051900236664519
 20
1.402206508422551
 30
0.0
 10
1.052729220059607
 20
1.401713353558881
 30
0.0
  0
SPLINE
  5
9A
330
1F
100
AcDbEntity
  8
0
  6
Continuous
 62
     7
370
    25
100
AcDbSpline
210
0.0
220
0.0
230
1.0
 70
     8
 71
     3
 72
     9
 73
     5
 74
     0
 42
0.00000001
 43
0.00000001
 40
0.0
 40
0.0
 40
0.0
 40
0.0
 40
0.2512087837967236
 40
0.9999999999999999
 40
0.9999999999999999
 40
0.9999999999999999
 40
0.9999999999999999
 10
1.068997310520581
 20
1.42817132602112
 30
0.0
 10
1.067224032998258
 20
1.429255044538754
 30
0.0
 10
1.060165054026575
 20
1.433569059762488
 30
0.0
 10
1.05315180986469
 20
1.437885563523904
 30
0.0
 10
1.047900354239182
 20
1.441117723625161
 30
0.0
  0
LINE
  5
9B
330
1F
100
AcDbEntity
  8
0
  6
Continuous
 62
     7
370
    25
100
AcDbLine
 10
1.0479319119
 20
1.0282038176
 30
0.0
 11
1.0479319119
 21
1.3729927738
 31
0.0
  0
LINE
  5
9C
330
1F
100
AcDbEntity
  8
0
  6
Continuous
 62
     7
370
    25
100
AcDbLine
 10
1.0120156473
 20
1.3729927738
 30
0.0
 11
1.0120156473
 21
1.0282932739
 31
0.0
  0
SPLINE
  5
9D
330
1F
100
AcDbEntity
  8
0
  6
Continuous
 62
     7
370
    25
100
AcDbSpline
210
0.0
220
0.0
230
1.0
 70
     8
 71
     3
 72
    40
 73
    36
 74
     0
 42
0.00000001
 43
0.00000001
 40
0.0
 40
0.0
 40
0.0
 40
0.0
 40
0.0015476905892503
 40
0.0325725941920583
 40
0.0638994189389769
 40
0.0952262477154873
 40
0.1264718450031741
 40
0.1577595986228296
 40
0.1891194503155017
 40
0.2202291902768714
 40
0.2515169322409324
 40
0.2828046742049934
 40
0.313914414166363
 40
0.3452742658590351
 40
0.3765620194786906
 40
0.4078076167663774
 40
0.4391344455428878
 40
0.4701138118829207
 40
0.5014616579251371
 40
0.5324865615279452
 40
0.5638133862748638
 40
0.595140215051374
 40
0.6263858123390609
 40
0.6576735659587163
 40
0.6890334176513885
 40
0.7201431576127582
 40
0.7514308995768192
 40
0.7827186415408802
 40
0.8138283815022499
 40
0.845188233194922
 40
0.8764759868145774
 40
0.9077215841022642
 40
0.9390484128787746
 40
0.9703752376256932
 40
1.0
 40
1.0
 40
1.0
 40
1.0
 10
1.103357484895668
 20
1.057297608334793
 30
0.0
 10
1.103362365321425
 20
1.057229022182991
 30
0.0
 10
1.103465078440416
 20
1.055785562550053
 30
0.0
 10
1.103090012963198
 20
1.052948696118103
 30
0.0
 10
1.102091849026968
 20
1.048831528876267
 30
0.0
 10
1.1002844458936
 20
1.044792146211227
 30
0.0
 10
1.097918845311272
 20
1.040851695859573
 30
0.0
 10
1.094742996452296
 20
1.037106383257114
 30
0.0
 10
1.091143435484775
 20
1.033494920391999
 30
0.0
 10
1.086729502362789
 20
1.030200206138678
 30
0.0
 10
1.081991953518979
 20
1.027062388176293
 30
0.0
 10
1.076556506312768
 20
1.024327477390708
 30
0.0
 10
1.070849298997563
 20
1.021779297526522
 30
0.0
 10
1.064593287334475
 20
1.01970158089193
 30
0.0
 10
1.05810587520857
 20
1.017867211514423
 30
0.0
 10
1.051278723075693
 20
1.016505273711199
 30
0.0
 10
1.044312480530351
 20
1.015451975612903
 30
0.0
 10
1.037164578577915
 20
1.014924381336675
 30
0.0
 10
1.030000709098781
 20
1.014633281135126
 30
0.0
 10
1.022797408124243
 20
1.014864393191379
 30
0.0
 10
1.015664796213674
 20
1.015463905431849
 30
0.0
 10
1.008667809096853
 20
1.016501041360832
 30
0.0
 10
1.00184195937436
 20
1.017868345959778
 30
0.0
 10
0.9953541977529513
 20
1.019701275888488
 30
0.0
 10
0.9890982804635724
 20
1.021779378586816
 30
0.0
 10
0.9833910456415634
 20
1.024327455617991
 30
0.0
 10
0.9779556146892092
 20
1.027062393980203
 30
0.0
 10
0.9732180284403945
 20
1.030200204761794
 30
0.0
 10
0.9688042283010754
 20
1.033494920138844
 30
0.0
 10
0.9652041698261565
 20
1.037106385677862
 30
0.0
 10
0.9620301754693921
 20
1.040851686466743
 30
0.0
 10
0.9596576607444325
 20
1.044792181357941
 30
0.0
 10
0.9578761195394485
 20
1.048831397292683
 30
0.0
 10
0.9567980517820485
 20
1.052887639758022
 30
0.0
 10
0.9566594284943384
 20
1.055591569456141
 30
0.0
 10
0.956592052365973
 20
1.056905780924077
 30
0.0
  0
SPLINE
  5
9E
330
1F
100
AcDbEntity
  8
0
  6
Continuous
 62
     7
370
    25
100
AcDbSpline
210
0.0
220
0.0
230
1.0
 70
     8
 71
     3
 72
    39
 73
    35
 74
     0
 42
0.00000001
 43
0.00000001
 40
0.0
 40
0.0
 40
0.0
 40
0.0
 40
0.0313104259841817
 40
0.0628030934072877
 40
0.0931232165956955
 40
0.1252454726755537
 40
0.1562805812739265
 40
0.187438357172143
 40
0.2183194349331531
 40
0.250113456185885
 40
0.2805277952069801
 40
0.3127685880652386
 40
0.3439263639634551
 40
0.3749614725618279
 40
0.4070837286416861
 40
0.4374038518300939
 40
0.4688965192531999
 40
0.5002069452373815
 40
0.5315173712215632
 40
0.5630100386446691
 40
0.593330161833077
 40
0.6254524179129352
 40
0.656487526511308
 40
0.6876453024095246
 40
0.7183094513659588
 40
0.7501034726186908
 40
0.7818974938714228
 40
0.8125616428278571
 40
0.8437194187260736
 40
0.8747545273244464
 40
0.9068767834043046
 40
0.9371969065927124
 40
0.9686895740158185
 40
1.0
 40
1.0
 40
1.0
 40
1.0
 10
1.053025461044742
 20
1.036596663320809
 30
0.0
 10
1.052984369757981
 20
1.036161229835978
 30
0.0
 10
1.0529019480138
 20
1.035287828438173
 30
0.0
 10
1.05267146971711
 20
1.033993050799891
 30
0.0
 10
1.052044563118116
 20
1.032730361371928
 30
0.0
 10
1.051286877933172
 20
1.03150530828403
 30
0.0
 10
1.050404792735848
 20
1.030286896725166
 30
0.0
 10
1.049128739671342
 20
1.029215771018422
 30
0.0
 10
1.047910805896099
 20
1.028109424776642
 30
0.0
 10
1.046341103228422
 20
1.027174891863062
 30
0.0
 10
1.044690973857824
 20
1.026262214117082
 30
0.0
 10
1.042789637207408
 20
1.025546677580773
 30
0.0
 10
1.040902937301182
 20
1.024802884338574
 30
0.0
 10
1.038793461080786
 20
1.024292456231778
 30
0.0
 10
1.036671075690509
 20
1.023856325920913
 30
0.0
 10
1.034483873589101
 20
1.023490700688856
 30
0.0
 10
1.032240991486709
 20
1.023371609398287
 30
0.0
 10
1.029973772670817
 20
1.023248126511769
 30
0.0
 10
1.027706595655124
 20
1.023371628177893
 30
0.0
 10
1.02546358899018
 20
1.023490626233997
 30
0.0
 10
1.023276836366298
 20
1.023856600184868
 30
0.0
 10
1.02115271293315
 20
1.024291378614508
 30
0.0
 10
1.019049596590881
 20
1.024806754456531
 30
0.0
 10
1.017170880665682
 20
1.025519834766574
 30
0.0
 10
1.015361779000858
 20
1.026302577523091
 30
0.0
 10
1.013689174704553
 20
1.027195759887082
 30
0.0
 10
1.012141960782442
 20
1.028161335199161
 30
0.0
 10
1.010786096406026
 20
1.029205706997311
 30
0.0
 10
1.009550748176021
 20
1.030290266706424
 30
0.0
 10
1.008658458855807
 20
1.031504369927617
 30
0.0
 10
1.007903561767139
 20
1.032730600192657
 30
0.0
 10
1.007275935976542
 20
1.03399298596686
 30
0.0
 10
1.007045649964986
 20
1.035287844790884
 30
0.0
 10
1.006963202375317
 20
1.036161235276327
 30
0.0
 10
1.006922098203312
 20
1.036596663320809
 30
0.0
  0
SPLINE
  5
9F
330
1F
100
AcDbEntity
  8
0
  6
Continuous
 62
     7
370
    25
100
AcDbSpline
210
0.0
220
0.0
230
1.0
 70
     8
 71
     3
 72
    39
 73
    35
 74
     0
 42
0.00000001
 43
0.00000001
 40
0.0
 40
0.0
 40
0.0
 40
0.0
 40
0.0313752390207897
 40
0.0623869617140982
 40
0.0937404845400646
 40
0.1248587355105189
 40
0.1563377153877672
 40
0.187512222301945
 40
0.2187506617648786
 40
0.2499735200704929
 40
0.2811963783761072
 40
0.3124348178390408
 40
0.3436093247532186
 40
0.3750883046304668
 40
0.4062065556009211
 40
0.4375600784268875
 40
0.4688234355559464
 40
0.499966702334483
 40
0.5313419413552727
 40
0.5625398502296113
 40
0.5937330886716276
 40
0.6251331219047189
 40
0.6563185511361543
 40
0.6874930580503321
 40
0.7187314975132657
 40
0.7499683807540184
 40
0.7812052639947711
 40
0.8124437034577047
 40
0.8436182103718826
 40
0.8750971902491308
 40
0.9062154412195852
 40
0.9374086796616015
 40
0.9688567332214635
 40
1.0
 40
1.0
 40
1.0
 40
1.0
 10
0.9278675600160793
 20
0.8488739272593382
 30
0.0
 10
0.9279888697484128
 20
0.8469384480075209
 30
0.0
 10
0.9282300837076629
 20
0.8430899141397297
 30
0.0
 10
0.9297911166779995
 20
0.8373662886951448
 30
0.0
 10
0.9321526067840552
 20
0.8317567755185185
 30
0.0
 10
0.9355037608991101
 20
0.8262835164486126
 30
0.0
 10
0.9397871318723959
 20
0.8210421261403894
 30
0.0
 10
0.9450142408925775
 20
0.8160915776309166
 30
0.0
 10
0.9508902579176587
 20
0.8114011535877206
 30
0.0
 10
0.9577852867524552
 20
0.8072003993646727
 30
0.0
 10
0.9650619943019154
 20
0.8032199716071704
 30
0.0
 10
0.9731869513368987
 20
0.7998278688895002
 30
0.0
 10
0.9817623868477579
 20
0.7968101363328364
 30
0.0
 10
0.9908420836423869
 20
0.7943380997208228
 30
0.0
 10
1.000321743343384
 20
0.7924009212156986
 30
0.0
 10
1.01006989803116
 20
0.7910437270950081
 30
0.0
 10
1.019968795153201
 20
0.7901080096901665
 30
0.0
 10
1.030002318232953
 20
0.7898199225555992
 30
0.0
 10
1.040006364937292
 20
0.7901882278610173
 30
0.0
 10
1.049952584017358
 20
0.790955462850177
 30
0.0
 10
1.059667629139834
 20
0.7924247222574153
 30
0.0
 10
1.069112012580664
 20
0.7943731651450274
 30
0.0
 10
1.078216224063614
 20
0.7968134219005152
 30
0.0
 10
1.086767396918102
 20
0.7998246999334129
 30
0.0
 10
1.094855300130033
 20
0.8032393638845543
 30
0.0
 10
1.102284582198769
 20
0.807129882184967
 30
0.0
 10
1.109022650584989
 20
0.8114188734230575
 30
0.0
 10
1.114942882087059
 20
0.8160865752438129
 30
0.0
 10
1.120155828138819
 20
0.8210437745801319
 30
0.0
 10
1.124452580403518
 20
0.8262819722660262
 30
0.0
 10
1.127759064493983
 20
0.831751922154213
 30
0.0
 10
1.130272932220781
 20
0.8373565796310012
 30
0.0
 10
1.131785202471038
 20
0.8430908831555096
 30
0.0
 10
1.131982053164746
 20
0.8469525139277478
 30
0.0
 10
1.132079999231974
 20
0.8488739272593381
 30
0.0
  0
SPLINE
  5
A0
330
1F
100
AcDbEntity
  8
0
  6
Continuous
 62
     7
370
    25
100
AcDbSpline
210
0.0
220
0.0
230
1.0
 70
     8
 71
     3
 72
    21
 73
    17
 74
     0
 42
0.00000001
 43
0.00000001
 40
0.0
 40
0.0
 40
0.0
 40
0.0
 40
0.0738951642931821
 40
0.147729031538954
 40
0.2215356840674603
 40
0.2955941106678626
 40
0.3692164018810282
 40
0.4436678588754718
 40
0.5167344613630805
 40
0.5910303122831457
 40
0.6643238256403396
 40
0.7383822488870528
 40
0.8128337058814965
 40
0.886455997094662
 40
0.9605144236950645
 40
1.0
 40
1.0
 40
1.0
 40
1.0
 10
1.105068521294895
 20
1.057091843948321
 30
0.0
 10
1.104971264358174
 20
1.058509073125722
 30
0.0
 10
1.104776831160689
 20
1.061342355869578
 30
0.0
 10
1.103691153204803
 20
1.065553012999297
 30
0.0
 10
1.10195967454368
 20
1.069695540214846
 30
0.0
 10
1.099353225981929
 20
1.073675964315692
 30
0.0
 10
1.096273571598531
 20
1.077555098937213
 30
0.0
 10
1.092445913444451
 20
1.08118388964045
 30
0.0
 10
1.088126405365261
 20
1.084642324398079
 30
0.0
 10
1.083079695866574
 20
1.087722244869226
 30
0.0
 10
1.077714097593685
 20
1.090643633624516
 30
0.0
 10
1.071737304996362
 20
1.09314741897778
 30
0.0
 10
1.065421953095404
 20
1.095368975437531
 30
0.0
 10
1.058695615236573
 20
1.0971305097408
 30
0.0
 10
1.052892911992737
 20
1.098455610983853
 30
0.0
 10
1.049211977838912
 20
1.098942141940994
 30
0.0
 10
1.047931911937717
 20
1.099111335863538
 30
0.0
  0
SPLINE
  5
A1
330
1F
100
AcDbEntity
  8
0
  6
Continuous
 62
     7
370
    25
100
AcDbSpline
210
0.0
220
0.0
230
1.0
 70
     8
 71
     3
 72
    21
 73
    17
 74
     0
 42
0.00000001
 43
0.00000001
 40
0.0
 40
0.0
 40
0.0
 40
0.0
 40
0.0394901788389282
 40
0.1135572378681298
 40
0.1871881106731023
 40
0.2616482459089157
 40
0.3347233652159133
 40
0.4090278762395291
 40
0.4823299328653901
 40
0.5563969885405118
 40
0.6308571237763253
 40
0.7044879965812977
 40
0.7776457380102046
 40
0.8523218830688795
 40
0.9261643565682708
 40
1.0
 40
1.0
 40
1.0
 40
1.0
 10
1.012015647310336
 20
1.099111335863538
 30
0.0
 10
1.010735575610974
 20
1.098942146567996
 30
0.0
 10
1.007054624784046
 20
1.098455628916176
 30
0.0
 10
1.001252131153652
 20
1.097130360399271
 30
0.0
 10
0.9945249198166612
 20
1.095369523141261
 30
0.0
 10
0.9882410230368938
 20
1.093155286769226
 30
0.0
 10
0.9822497193953157
 20
1.090662888816847
 30
0.0
 10
0.976914428495505
 20
1.087749206533258
 30
0.0
 10
0.9718548896935528
 20
1.084651619508225
 30
0.0
 10
0.9675138219261785
 20
1.081201946110659
 30
0.0
 10
0.9636802552892049
 20
1.077553633785051
 30
0.0
 10
0.9605871309376713
 20
1.073695873938397
 30
0.0
 10
0.9580713992667309
 20
1.069698268653113
 30
0.0
 10
0.9562500170826906
 20
1.065572378655412
 30
0.0
 10
0.9551384111996669
 20
1.061343883686881
 30
0.0
 10
0.9550597769898439
 20
1.058509146825937
 30
0.0
 10
0.9550204617033363
 20
1.057091843948321
 30
0.0
  0
SPLINE
  5
A2
330
1F
100
AcDbEntity
  8
0
  6
Continuous
 62
     7
370
    25
100
AcDbSpline
210
0.0
220
0.0
230
1.0
 70
     8
 71
     3
 72
    15
 73
    11
 74
     0
 42
0.00000001
 43
0.00000001
 40
0.0
 40
0.0
 40
0.0
 40
0.0
 40
0.1316559304726922
 40
0.2646003252409425
 40
0.3964675073430629
 40
0.5280176852781999
 40
0.6610928188389005
 40
0.792880814748247
 40
0.9249390809299378
 40
1.0
 40
1.0
 40
1.0
 40
1.0
 10
1.132079999231974
 20
0.8530382854135772
 30
0.0
 10
1.131982062396999
 20
0.8549597035678218
 30
0.0
 10
1.131785230258149
 20
0.8588213440325666
 30
0.0
 10
1.130272820182009
 20
0.8645555745161888
 30
0.0
 10
1.127759480283244
 20
0.8701605077146567
 30
0.0
 10
1.124451024310708
 20
0.8756294275502456
 30
0.0
 10
1.120161687202566
 20
0.8808714986935777
 30
0.0
 10
1.114921240409658
 20
0.8858143324599287
 30
0.0
 10
1.109941089416737
 20
0.889855991052114
 30
0.0
 10
1.106364641878364
 20
0.8920654069030886
 30
0.0
 10
1.105068521294895
 20
0.8928661090890331
 30
0.0
  0
SPLINE
  5
A3
330
1F
100
AcDbEntity
  8
0
  6
Continuous
 62
     7
370
    25
100
AcDbSpline
210
0.0
220
0.0
230
1.0
 70
     8
 71
     3
 72
    15
 73
    11
 74
     0
 42
0.00000001
 43
0.00000001
 40
0.0
 40
0.0
 40
0.0
 40
0.0
 40
0.0776349967558433
 40
0.2093437723521354
 40
0.3407829929430516
 40
0.4722682646510341
 40
0.6046583584558345
 40
0.7361765556742345
 40
0.8677144445588402
 40
1.0
 40
1.0
 40
1.0
 40
1.0
 10
0.9550204617033364
 20
0.8929563452158139
 30
0.0
 10
0.9536756463630764
 20
0.8921262886594089
 30
0.0
 10
0.9500493344134231
 20
0.8898880304247889
 30
0.0
 10
0.9450297675726981
 20
0.8858136159362717
 30
0.0
 10
0.9397867164233986
 20
0.8808909843795074
 30
0.0
 10
0.9355679493379296
 20
0.8756315050156561
 30
0.0
 10
0.9321862225440324
 20
0.8701804324455266
 30
0.0
 10
0.929658880510178
 20
0.8645715925701543
 30
0.0
 10
0.9282652742437174
 20
0.8588305681464572
 30
0.0
 10
0.928000381657448
 20
0.8549726906884945
 30
0.0
 10
0.9278675600160793
 20
0.8530382854135774
 30
0.0
  0
LINE
  5
A4
330
1F
100
AcDbEntity
  8
0
  6
Continuous
 62
     7
370
    25
100
AcDbLine
 10
1.1320799992
 20
0.8488739273
 30
0.0
 11
1.1320799992
 21
0.8530382854
 31
0.0
  0
LINE
  5
A5
330
1F
100
AcDbEntity
  8
0
  6
Continuous
 62
     7
370
    25
100
AcDbLine
 10
1.1050685213
 20
0.8530382854
 30
0.0
 11
1.1050685213
 21
1.0570918439
 31
0.0
  0
LINE
  5
A6
330
1F
100
AcDbEntity
  8
0
  6
Continuous
 62
     7
370
    25
100
AcDbLine
 10
0.9550204617
 20
1.0570918439
 30
0.0
 11
0.9550204617
 21
0.8530382854
 31
0.0
  0
LINE
  5
A7
330
1F
100
AcDbEntity
  8
0
  6
Continuous
 62
     7
370
    25
100
AcDbLine
 10
0.92786756
 20
0.8530382854
 30
0.0
 11
0.92786756
 21
0.8488739273
 31
0.0
  0
LWPOLYLINE
  5
A8
330
1F
100
AcDbEntity
  8
0
  6
Continuous
 62
     7
370
    25
100
AcDbPolyline
 90
        4
 70
   128
 43
0.0
 10
0.9921281429
 20
2.4512057202
 10
0.9917193019
 20
2.4510484381
 10
0.9908000646
 20
2.4499463488
 10
1.0121027152
 20
2.4612753733
  0
LINE
  5
A9
330
1F
100
AcDbEntity
  8
0
  6
Continuous
 62
     7
370
    25
100
AcDbLine
 10
1.011942557
 20
2.426635424
 30
0.0
 11
1.0065685448
 21
2.4236140537
 31
0.0
  0
LWPOLYLINE
  5
AA
330
1F
100
AcDbEntity
  8
0
  6
Continuous
 62
     7
370
    25
100
AcDbPolyline
 90
       16
 70
   128
 43
0.0
 10
1.0121077866
 20
2.4609868572
 10
1.0115890029
 20
2.4599087418
 10
1.0113061607
 20
2.4580309494
 10
1.0115182924
 20
2.4560307132
 10
1.0122961105
 20
2.4537038061
 10
1.0133567708
 20
2.4512136341
 10
1.0147709836
 20
2.4486825611
 10
1.0166094617
 20
2.4448450011
 10
1.017387279
 20
2.4433344652
 10
1.0178822537
 20
2.4404358449
 10
1.0175287005
 20
2.4372920876
 10
1.0163973299
 20
2.4341074733
 10
1.0150538269
 20
2.4312086721
 10
1.0137103236
 20
2.4288813662
 10
1.0125789527
 20
2.4272480447
 10
1.011942557
 20
2.426635424
  0
LWPOLYLINE
  5
AB
330
1F
100
AcDbEntity
  8
0
  6
Continuous
 62
   144
370
    18
100
AcDbPolyline
 90
       23
 70
   128
 43
0.0
 10
1.0120839782
 20
2.3926668291
 10
1.0122253999
 20
2.391034013
 10
1.0129325062
 20
2.3894828375
 10
1.0139931662
 20
2.3879724826
 10
1.0147709841
 20
2.3872785358
 10
1.0154073793
 20
2.3865845885
 10
1.017316568
 20
2.385319156
 10
1.019437888
 20
2.3842578254
 10
1.0218420516
 20
2.3834414175
 10
1.0244583469
 20
2.3828291113
 10
1.0252361637
 20
2.3827066499
 10
1.0272160633
 20
2.3824617279
 10
1.0299737796
 20
2.3823392665
 10
1.0328022066
 20
2.3824209076
 10
1.0354892124
 20
2.3828291113
 10
1.0381055076
 20
2.3834414175
 10
1.0405803819
 20
2.3842986458
 10
1.042701702
 20
2.3853599764
 10
1.0445401799
 20
2.3865845885
 10
1.0459543931
 20
2.3879724826
 10
1.0470150531
 20
2.3894828375
 10
1.0477221593
 20
2.391034013
 10
1.0479319119
 20
2.3926888745
  0
LWPOLYLINE
  5
AC
330
1F
100
AcDbEntity
  8
0
  6
Continuous
 62
   144
370
    18
100
AcDbPolyline
 90
        3
 70
   128
 43
0.0
 10
1.0473686059
 20
1.5414643017
 10
1.0477221593
 20
1.5422398892
 10
1.0479314077
 20
1.5438907723
  0
LWPOLYLINE
  5
AD
330
1F
100
AcDbEntity
  8
0
  6
Continuous
 62
   144
370
    18
100
AcDbPolyline
 90
       19
 70
   128
 43
0.0
 10
1.0120156473
 20
1.5438947507
 10
1.0122253999
 20
1.5422398892
 10
1.0129325062
 20
1.5406887138
 10
1.0139931662
 20
1.5391783589
 10
1.0154073793
 20
1.5377904648
 10
1.0172458573
 20
1.5365658527
 10
1.0193671773
 20
1.5355045221
 10
1.0218420516
 20
1.5346472938
 10
1.0244583469
 20
1.5340349876
 10
1.0271453527
 20
1.5336267838
 10
1.0299737796
 20
1.5335451428
 10
1.0328022066
 20
1.5336267838
 10
1.0354892124
 20
1.5340349876
 10
1.0381055076
 20
1.5346472938
 10
1.0405803819
 20
1.5355045221
 10
1.042701702
 20
1.5365658527
 10
1.0439037838
 20
1.5374230811
 10
1.0445401799
 20
1.5377904648
 10
1.0459543931
 20
1.5391783589
  0
LWPOLYLINE
  5
AE
330
1F
100
AcDbEntity
  8
0
  6
Continuous
 62
     7
370
    25
100
AcDbPolyline
 90
        3
 70
   128
 43
0.0
 10
1.0470857636
 20
1.593804685
 10
1.0475807389
 20
1.5895176704
 10
1.0473686059
 20
1.5414643017
  0
LINE
  5
AF
330
1F
100
AcDbEntity
  8
0
  6
Continuous
 62
     7
370
    25
100
AcDbLine
 10
1.0469443422
 20
1.5969891922
 30
0.0
 11
1.0470857636
 21
1.593804685
 31
0.0
  0
LWPOLYLINE
  5
B0
330
1F
100
AcDbEntity
  8
0
  6
Continuous
 62
     7
370
    25
100
AcDbPolyline
 90
        3
 70
   128
 43
0.0
 10
1.04772216
 20
1.6043786065
 10
1.0473686059
 20
1.6020516091
 10
1.0469443422
 20
1.5969891922
  0
LWPOLYLINE
  5
B1
330
1F
100
AcDbEntity
  8
0
  6
Continuous
 62
     7
370
    25
100
AcDbPolyline
 90
        4
 70
   128
 43
0.0
 10
1.04772216
 20
1.6043786065
 10
1.0477221593
 20
1.6225058348
 10
1.0473686059
 20
1.6217302473
 10
1.0470150531
 20
1.6209546594
  0
LINE
  5
B2
330
1F
100
AcDbEntity
  8
0
  6
Continuous
 62
     7
370
    25
100
AcDbLine
 10
1.0459543931
 20
1.6194443045
 30
0.0
 11
1.0470150531
 21
1.6209546594
 31
0.0
  0
LINE
  5
B3
330
1F
100
AcDbEntity
  8
0
  6
Continuous
 62
     7
370
    25
100
AcDbLine
 10
1.0459543931
 20
1.5391783589
 30
0.0
 11
1.0459543931
 21
1.6194443045
 31
0.0
  0
LINE
  5
B4
330
1F
100
AcDbEntity
  8
0
  6
Continuous
 62
     7
370
    25
100
AcDbLine
 10
1.0479342916
 20
1.6003368225
 30
0.0
 11
1.0477928712
 21
1.5973156919
 31
0.0
  0
ARC
  5
B5
330
1F
100
AcDbEntity
  8
0
  6
Continuous
 62
     7
370
    25
100
AcDbCircle
 10
1.0153213892
 20
1.5910192674
 30
0.0
 40
0.0330763073030147
100
AcDbArc
 50
348.9260683479
 51
10.9738268912
  0
LWPOLYLINE
  5
B6
330
1F
100
AcDbEntity
  8
0
  6
Continuous
 62
     7
370
    25
100
AcDbPolyline
 90
        7
 70
   128
 43
0.0
 10
1.0478499377
 20
1.6146417679
 10
1.0605207937
 20
1.6109490752
 10
1.0621471385
 20
1.6091120443
 10
1.0634906421
 20
1.6067851816
 10
1.0643391707
 20
1.6041724677
 10
1.0646927229
 20
1.6013556199
 10
1.0483585557
 20
1.6061338889
  0
LWPOLYLINE
  5
B7
330
1F
100
AcDbEntity
  8
0
  6
Continuous
 62
     7
370
    25
100
AcDbPolyline
 90
        3
 70
   128
 43
0.0
 10
1.0479342916
 20
1.6003368225
 10
1.0482171345
 20
1.6032762428
 10
1.0483585557
 20
1.6061338889
  0
LWPOLYLINE
  5
B8
330
1F
100
AcDbEntity
  8
0
  6
Continuous
 62
   144
370
    18
100
AcDbPolyline
 90
        3
 70
   128
 43
0.0
 10
1.0459543931
 20
1.5391783589
 10
1.0470150531
 20
1.5406887138
 10
1.0473686059
 20
1.5414643017
  0
ARC
  5
B9
330
1F
100
AcDbEntity
  8
0
  6
Continuous
 62
   144
370
    18
100
AcDbCircle
 10
1.0375422825
 20
1.3745507606
 30
0.0
 40
0.0105057947584781
100
AcDbArc
 50
279.6733961717
 51
351.4717025022
  0
LWPOLYLINE
  5
BA
330
1F
100
AcDbEntity
  8
0
  6
Continuous
 62
   144
370
    18
100
AcDbPolyline
 90
       14
 70
   128
 43
0.0
 10
1.0120156473
 20
1.3729927738
 10
1.0122253999
 20
1.3713379123
 10
1.0129325062
 20
1.3697867369
 10
1.0139931662
 20
1.368276382
 10
1.0154073793
 20
1.3668884879
 10
1.0172458573
 20
1.3656638758
 10
1.0193671773
 20
1.3646025452
 10
1.0218420516
 20
1.3637453169
 10
1.0244583469
 20
1.3631330107
 10
1.0271453527
 20
1.3627248069
 10
1.0299737796
 20
1.3626431659
 10
1.0319536785
 20
1.3627248069
 10
1.0328022066
 20
1.3627248069
 10
1.0354892124
 20
1.3631330107
  0
LWPOLYLINE
  5
BB
330
1F
100
AcDbEntity
  8
0
  6
Continuous
 62
     7
370
    25
100
AcDbPolyline
 90
        5
 70
   128
 43
0.0
 10
1.0393075888
 20
1.4248633166
 10
1.0379640862
 20
1.4201682833
 10
1.0381762182
 20
1.416942907
 10
1.0400146953
 20
1.4121252273
 10
1.0393075888
 20
1.3641943415
  0
LWPOLYLINE
  5
BC
330
1F
100
AcDbEntity
  8
0
  6
Continuous
 62
     7
370
    25
100
AcDbPolyline
 90
        3
 70
   128
 43
0.0
 10
1.0405803819
 20
1.4449501584
 10
1.0407925139
 20
1.4267004202
 10
1.0393075888
 20
1.4248633166
  0
LINE
  5
BD
330
1F
100
AcDbEntity
  8
0
  6
Continuous
 62
   144
370
    18
100
AcDbLine
 10
1.0381055076
 20
1.4440929301
 30
0.0
 11
1.0405803819
 21
1.4449501584
 31
0.0
  0
LINE
  5
BE
330
1F
100
AcDbEntity
  8
0
  6
Continuous
 62
     7
370
    25
100
AcDbLine
 10
1.0354892124
 20
1.4434806239
 30
0.0
 11
1.0381055076
 21
1.4440929301
 31
0.0
  0
LINE
  5
BF
330
1F
100
AcDbEntity
  8
0
  6
Continuous
 62
     7
370
    25
100
AcDbLine
 10
1.0354892124
 20
1.3631330107
 30
0.0
 11
1.0354892124
 21
1.4434806239
 31
0.0
  0
LWPOLYLINE
  5
C0
330
1F
100
AcDbEntity
  8
0
  6
Continuous
 62
     7
370
    25
100
AcDbPolyline
 90
       11
 70
   128
 43
0.0
 10
1.0432673868
 20
1.4276393168
 10
1.04149962
 20
1.4252306465
 10
1.0400146963
 20
1.4227402985
 10
1.0394490109
 20
1.4198824498
 10
1.0398732749
 20
1.4166979209
 10
1.0411460666
 20
1.4133500469
 10
1.0427724118
 20
1.4102879157
 10
1.0444694681
 20
1.4077564814
 10
1.0456008391
 20
1.4065315392
 10
1.0469443432
 20
1.4052656592
 10
1.0472275425
 20
1.405172145
  0
ARC
  5
C1
330
1F
100
AcDbEntity
  8
0
  6
Continuous
 62
     7
370
    25
100
AcDbCircle
 10
1.0441457674
 20
1.4382177944
 30
0.0
 40
0.0045350781243786
100
AcDbArc
 50
338.2692485154
 51
34.1443320043
  0
LWPOLYLINE
  5
C2
330
1F
100
AcDbEntity
  8
0
  6
Continuous
 62
     7
370
    25
100
AcDbPolyline
 90
        7
 70
   128
 43
0.0
 10
1.0432673868
 20
1.4276393168
 10
1.0663190683
 20
1.4135131529
 10
1.0676625716
 20
1.4160850775
 10
1.0687939418
 20
1.4186161234
 10
1.0695717593
 20
1.421024676
 10
1.0701374451
 20
1.4232290693
 10
1.0483585557
 20
1.4365387026
  0
LWPOLYLINE
  5
C3
330
1F
100
AcDbEntity
  8
0
  6
Continuous
 62
   144
370
    18
100
AcDbPolyline
 90
        3
 70
   128
 43
0.0
 10
1.0354892124
 20
1.3631330107
 10
1.0381055076
 20
1.3637453169
 10
1.0393075888
 20
1.3641943415
  0
ENDSEC
  0
SECTION
  2
OBJECTS
  0
DICTIONARY
  5
C
330
0
100
AcDbDictionary
281
     1
  3
ACAD_GROUP
350
D
  3
ACAD_LAYOUT
350
1A
  3
ACAD_MLINESTYLE
350
17
  3
ACAD_PLOTSETTINGS
350
19
  3
ACAD_PLOTSTYLENAME
350
E
  3
ACAD_SCALELIST
350
47
  3
DWGPROPS
350
C4
  0
DICTIONARY
  5
D
102
{ACAD_REACTORS
330
C
102
}
330
C
100
AcDbDictionary
281
     1
  0
DICTIONARY
  5
1A
102
{ACAD_REACTORS
330
C
102
}
330
C
100
AcDbDictionary
281
     1
  3
Layout1
350
1E
  3
Layout2
350
26
  3
Model
350
22
  0
DICTIONARY
  5
17
102
{ACAD_REACTORS
330
C
102
}
330
C
100
AcDbDictionary
281
     1
  3
Standard
350
18
  0
DICTIONARY
  5
19
102
{ACAD_REACTORS
330
C
102
}
330
C
100
AcDbDictionary
281
     1
  0
ACDBDICTIONARYWDFLT
  5
E
102
{ACAD_REACTORS
330
C
102
}
330
C
100
AcDbDictionary
281
     1
  3
Normal
350
F
100
AcDbDictionaryWithDefault
340
F
  0
DICTIONARY
  5
47
102
{ACAD_REACTORS
330
C
102
}
330
C
100
AcDbDictionary
281
     1
  3
A0
350
48
  3
A1
350
49
  3
A2
350
4A
  3
A3
350
4B
  3
A4
350
4C
  3
A5
350
4D
  3
A6
350
4E
  3
A7
350
4F
  3
A8
350
50
  3
A9
350
51
  3
B0
350
52
  3
B1
350
53
  3
B2
350
54
  3
B3
350
55
  3
B4
350
56
  3
B5
350
57
  3
B6
350
58
  3
B7
350
59
  3
B8
350
5A
  3
B9
350
5B
  3
C0
350
5C
  3
C1
350
5D
  3
C2
350
5E
  3
C3
350
5F
  3
C4
350
60
  3
C5
350
61
  3
C6
350
62
  3
C7
350
63
  3
C8
350
64
  3
C9
350
65
  3
D0
350
66
  3
D1
350
67
  3
D2
350
68
  0
XRECORD
  5
C4
102
{ACAD_REACTORS
330
C
102
}
330
C
100
AcDbXrecord
280
     1
  1
DWGPROPS COOKIE
  2

  3

  4

  6

  7

  8
9222
  9

300
=
301
=
302
=
303
=
304
=
305
=
306
=
307
=
308
=
309
=
 40
0.0
 41
2459916.342326875
 42
2459916.342327164
  1

 90
        0
  0
LAYOUT
  5
1E
102
{ACAD_REACTORS
330
1A
102
}
330
1A
100
AcDbPlotSettings
  1

  2
none_device
  4

  6

 40
0.0
 41
0.0
 42
0.0
 43
0.0
 44
0.0
 45
0.0
 46
0.0
 47
0.0
 48
0.0
 49
0.0
140
0.0
141
0.0
142
1.0
143
1.0
 70
   688
 72
     1
 73
     0
 74
     5
  7

 75
    16
147
1.0
148
0.0
149
0.0
100
AcDbLayout
  1
Layout1
 70
     1
 71
     1
 10
0.0
 20
0.0
 11
420.0
 21
297.0
 12
0.0
 22
0.0
 32
0.0
 14
1.0000000000E+20
 24
1.0000000000E+20
 34
1.0000000000E+20
 15
-1.0000000000E+20
 25
-1.0000000000E+20
 35
-1.0000000000E+20
146
0.0
 13
0.0
 23
0.0
 33
0.0
 16
1.0
 26
0.0
 36
0.0
 17
0.0
 27
1.0
 37
0.0
 76
     0
330
1B
  0
LAYOUT
  5
26
102
{ACAD_REACTORS
330
1A
102
}
330
1A
100
AcDbPlotSettings
  1

  2
none_device
  4

  6

 40
0.0
 41
0.0
 42
0.0
 43
0.0
 44
0.0
 45
0.0
 46
0.0
 47
0.0
 48
0.0
 49
0.0
140
0.0
141
0.0
142
1.0
143
1.0
 70
   688
 72
     1
 73
     0
 74
     5
  7

 75
    16
147
1.0
148
0.0
149
0.0
100
AcDbLayout
  1
Layout2
 70
     1
 71
     2
 10
0.0
 20
0.0
 11
0.0
 21
0.0
 12
0.0
 22
0.0
 32
0.0
 14
0.0
 24
0.0
 34
0.0
 15
0.0
 25
0.0
 35
0.0
146
0.0
 13
0.0
 23
0.0
 33
0.0
 16
1.0
 26
0.0
 36
0.0
 17
0.0
 27
1.0
 37
0.0
 76
     0
330
23
  0
LAYOUT
  5
22
102
{ACAD_REACTORS
330
1A
102
}
330
1A
100
AcDbPlotSettings
  1

  2
none_device
  4
Letter_(8.50_x_11.00_Inches)
  6

 40
6.35
 41
6.35
 42
6.35000508
 43
6.35000508
 44
215.9
 45
279.4
 46
0.0
 47
0.0
 48
0.0
 49
0.0
140
0.0
141
0.0
142
1.0
143
1.0
 70
  1712
 72
     1
 73
     0
 74
     0
  7

 75
     0
147
1.0
148
0.0
149
0.0
100
AcDbLayout
  1
Model
 70
     1
 71
     0
 10
0.0
 20
0.0
 11
2.1
 21
2.97
 12
0.0
 22
0.0
 32
0.0
 14
0.0
 24
0.0
 34
0.0
 15
2.1
 25
2.97
 35
0.0
146
0.0
 13
0.0
 23
0.0
 33
0.0
 16
1.0
 26
0.0
 36
0.0
 17
0.0
 27
1.0
 37
0.0
 76
     0
330
1F
331
29
  0
MLINESTYLE
  5
18
102
{ACAD_REACTORS
330
17
102
}
330
17
100
AcDbMlineStyle
  2
Standard
 70
     0
  3

 62
   256
 51
90.0
 52
90.0
 71
     2
 49
0.5
 62
   256
  6
BYLAYER
 49
-0.5
 62
   256
  6
BYLAYER
  0
ACDBPLACEHOLDER
  5
F
102
{ACAD_REACTORS
330
E
102
}
330
E
  0
SCALE
  5
48
102
{ACAD_REACTORS
330
47
102
}
330
47
100
AcDbScale
 70
     0
300
1:1
140
1.0
141
1.0
290
     1
  0
SCALE
  5
49
102
{ACAD_REACTORS
330
47
102
}
330
47
100
AcDbScale
 70
     0
300
1:2
140
1.0
141
2.0
290
     0
  0
SCALE
  5
4A
102
{ACAD_REACTORS
330
47
102
}
330
47
100
AcDbScale
 70
     0
300
1:4
140
1.0
141
4.0
290
     0
  0
SCALE
  5
4B
102
{ACAD_REACTORS
330
47
102
}
330
47
100
AcDbScale
 70
     0
300
1:5
140
1.0
141
5.0
290
     0
  0
SCALE
  5
4C
102
{ACAD_REACTORS
330
47
102
}
330
47
100
AcDbScale
 70
     0
300
1:8
140
1.0
141
8.0
290
     0
  0
SCALE
  5
4D
102
{ACAD_REACTORS
330
47
102
}
330
47
100
AcDbScale
 70
     0
300
1:10
140
1.0
141
10.0
290
     0
  0
SCALE
  5
4E
102
{ACAD_REACTORS
330
47
102
}
330
47
100
AcDbScale
 70
     0
300
1:16
140
1.0
141
16.0
290
     0
  0
SCALE
  5
4F
102
{ACAD_REACTORS
330
47
102
}
330
47
100
AcDbScale
 70
     0
300
1:20
140
1.0
141
20.0
290
     0
  0
SCALE
  5
50
102
{ACAD_REACTORS
330
47
102
}
330
47
100
AcDbScale
 70
     0
300
1:30
140
1.0
141
30.0
290
     0
  0
SCALE
  5
51
102
{ACAD_REACTORS
330
47
102
}
330
47
100
AcDbScale
 70
     0
300
1:40
140
1.0
141
40.0
290
     0
  0
SCALE
  5
52
102
{ACAD_REACTORS
330
47
102
}
330
47
100
AcDbScale
 70
     0
300
1:50
140
1.0
141
50.0
290
     0
  0
SCALE
  5
53
102
{ACAD_REACTORS
330
47
102
}
330
47
100
AcDbScale
 70
     0
300
1:100
140
1.0
141
100.0
290
     0
  0
SCALE
  5
54
102
{ACAD_REACTORS
330
47
102
}
330
47
100
AcDbScale
 70
     0
300
2:1
140
2.0
141
1.0
290
     0
  0
SCALE
  5
55
102
{ACAD_REACTORS
330
47
102
}
330
47
100
AcDbScale
 70
     0
300
4:1
140
4.0
141
1.0
290
     0
  0
SCALE
  5
56
102
{ACAD_REACTORS
330
47
102
}
330
47
100
AcDbScale
 70
     0
300
8:1
140
8.0
141
1.0
290
     0
  0
SCALE
  5
57
102
{ACAD_REACTORS
330
47
102
}
330
47
100
AcDbScale
 70
     0
300
10:1
140
10.0
141
1.0
290
     0
  0
SCALE
  5
58
102
{ACAD_REACTORS
330
47
102
}
330
47
100
AcDbScale
 70
     0
300
100:1
140
100.0
141
1.0
290
     0
  0
SCALE
  5
59
102
{ACAD_REACTORS
330
47
102
}
330
47
100
AcDbScale
 70
     0
300
1/128" = 1'-0"
140
0.0078125
141
12.0
290
     0
  0
SCALE
  5
5A
102
{ACAD_REACTORS
330
47
102
}
330
47
100
AcDbScale
 70
     0
300
1/64" = 1'-0"
140
0.015625
141
12.0
290
     0
  0
SCALE
  5
5B
102
{ACAD_REACTORS
330
47
102
}
330
47
100
AcDbScale
 70
     0
300
1/32" = 1'-0"
140
0.03125
141
12.0
290
     0
  0
SCALE
  5
5C
102
{ACAD_REACTORS
330
47
102
}
330
47
100
AcDbScale
 70
     0
300
1/16" = 1'-0"
140
0.0625
141
12.0
290
     0
  0
SCALE
  5
5D
102
{ACAD_REACTORS
330
47
102
}
330
47
100
AcDbScale
 70
     0
300
3/32" = 1'-0"
140
0.09375
141
12.0
290
     0
  0
SCALE
  5
5E
102
{ACAD_REACTORS
330
47
102
}
330
47
100
AcDbScale
 70
     0
300
1/8" = 1'-0"
140
0.125
141
12.0
290
     0
  0
SCALE
  5
5F
102
{ACAD_REACTORS
330
47
102
}
330
47
100
AcDbScale
 70
     0
300
3/16" = 1'-0"
140
0.1875
141
12.0
290
     0
  0
SCALE
  5
60
102
{ACAD_REACTORS
330
47
102
}
330
47
100
AcDbScale
 70
     0
300
1/4" = 1'-0"
140
0.25
141
12.0
290
     0
  0
SCALE
  5
61
102
{ACAD_REACTORS
330
47
102
}
330
47
100
AcDbScale
 70
     0
300
3/8" = 1'-0"
140
0.375
141
12.0
290
     0
  0
SCALE
  5
62
102
{ACAD_REACTORS
330
47
102
}
330
47
100
AcDbScale
 70
     0
300
1/2" = 1'-0"
140
0.5
141
12.0
290
     0
  0
SCALE
  5
63
102
{ACAD_REACTORS
330
47
102
}
330
47
100
AcDbScale
 70
     0
300
3/4" = 1'-0"
140
0.75
141
12.0
290
     0
  0
SCALE
  5
64
102
{ACAD_REACTORS
330
47
102
}
330
47
100
AcDbScale
 70
     0
300
1" = 1'-0"
140
1.0
141
12.0
290
     0
  0
SCALE
  5
65
102
{ACAD_REACTORS
330
47
102
}
330
47
100
AcDbScale
 70
     0
300
1-1/2" = 1'-0"
140
1.5
141
12.0
290
     0
  0
SCALE
  5
66
102
{ACAD_REACTORS
330
47
102
}
330
47
100
AcDbScale
 70
     0
300
3" = 1'-0"
140
3.0
141
12.0
290
     0
  0
SCALE
  5
67
102
{ACAD_REACTORS
330
47
102
}
330
47
100
AcDbScale
 70
     0
300
6" = 1'-0"
140
6.0
141
12.0
290
     0
  0
SCALE
  5
68
102
{ACAD_REACTORS
330
47
102
}
330
47
100
AcDbScale
 70
     0
300
1'-0" = 1'-0"
140
12.0
141
12.0
290
     0
  0
ENDSEC
  0
EOF
