  0
SECTION
  2
HEADER
  9
$ACADVER
  1
AC1015
  9
$ACADMAINTVER
 70
     6
  9
$DWGCODEPAGE
  3
DOS932
  9
$INSBASE
 10
0.0
 20
0.0
 30
0.0
  9
$EXTMIN
 10
0.0
 20
0.0
 30
0.0
  9
$EXTMAX
 10
1.4
 20
1.98
 30
0.0
  9
$LIMMIN
 10
0.0
 20
0.0
  9
$LIMMAX
 10
1.4
 20
1.98
  9
$ORTHOMODE
 70
     0
  9
$REGENMODE
 70
     1
  9
$FILLMODE
 70
     1
  9
$QTEXTMODE
 70
     0
  9
$MIRRTEXT
 70
     1
  9
$LTSCALE
 40
0.0066666667
  9
$ATTMODE
 70
     1
  9
$TEXTSIZE
 40
0.0233333333
  9
$TRACEWID
 40
1.0
  9
$TEXTSTYLE
  7
Standard
  9
$CLAYER
  8
0
  9
$CELTYPE
  6
ByLayer
  9
$CECOLOR
 62
   256
  9
$CELTSCALE
 40
1.0
  9
$DISPSILH
 70
     0
  9
$DIMSCALE
 40
1.0
  9
$DIMASZ
 40
0.0220133333
  9
$DIMEXO
 40
0.0066666667
  9
$DIMDLI
 40
3.75
  9
$DIMRND
 40
0.0
  9
$DIMDLE
 40
0.0
  9
$DIMEXE
 40
0.0066666667
  9
$DIMTP
 40
0.0
  9
$DIMTM
 40
0.0
  9
$DIMTXT
 40
0.0233333333
  9
$DIMCEN
 40
2.5
  9
$DIMTSZ
 40
0.0
  9
$DIMTOL
 70
     0
  9
$DIMLIM
 70
     0
  9
$DIMTIH
 70
     1
  9
$DIMTOH
 70
     1
  9
$DIMSE1
 70
     0
  9
$DIMSE2
 70
     0
  9
$DIMTAD
 70
     1
  9
$DIMZIN
 70
     1
  9
$DIMBLK
  1

  9
$DIMASO
 70
     1
  9
$DIMSHO
 70
     1
  9
$DIMPOST
  1

  9
$DIMAPOST
  1

  9
$DIMALT
 70
     0
  9
$DIMALTD
 70
     3
  9
$DIMALTF
 40
0.0393700787
  9
$DIMLFAC
 40
1.0
  9
$DIMTOFL
 70
     1
  9
$DIMTVP
 40
0.0
  9
$DIMTIX
 70
     0
  9
$DIMSOXD
 70
     0
  9
$DIMSAH
 70
     0
  9
$DIMBLK1
  1

  9
$DIMBLK2
  1

  9
$DIMSTYLE
  2
ISO-25
  9
$DIMCLRD
 70
     0
  9
$DIMCLRE
 70
     0
  9
$DIMCLRT
 70
     0
  9
$DIMTFAC
 40
1.0
  9
$DIMGAP
 40
0.01016
  9
$DIMJUST
 70
     0
  9
$DIMSD1
 70
     0
  9
$DIMSD2
 70
     0
  9
$DIMTOLJ
 70
     0
  9
$DIMTZIN
 70
     1
  9
$DIMALTZ
 70
     0
  9
$DIMALTTZ
 70
     0
  9
$DIMUPT
 70
     0
  9
$DIMDEC
 70
     2
  9
$DIMTDEC
 70
     2
  9
$DIMALTU
 70
     2
  9
$DIMALTTD
 70
     3
  9
$DIMTXSTY
  7
Standard
  9
$DIMAUNIT
 70
     0
  9
$DIMADEC
 70
     2
  9
$DIMALTRND
 40
0.0
  9
$DIMAZIN
 70
     0
  9
$DIMDSEP
 70
    44
  9
$DIMATFIT
 70
     3
  9
$DIMFRAC
 70
     0
  9
$DIMLDRBLK
  1

  9
$DIMLUNIT
 70
     2
  9
$DIMLWD
 70
    -2
  9
$DIMLWE
 70
    -2
  9
$DIMTMOVE
 70
     0
  9
$LUNITS
 70
     2
  9
$LUPREC
 70
     2
  9
$SKETCHINC
 40
1.0
  9
$FILLETRAD
 40
10.0
  9
$AUNITS
 70
     0
  9
$AUPREC
 70
     2
  9
$MENU
  1
.
  9
$ELEVATION
 40
0.0
  9
$PELEVATION
 40
0.0
  9
$THICKNESS
 40
0.0
  9
$LIMCHECK
 70
     0
  9
$CHAMFERA
 40
0.0
  9
$CHAMFERB
 40
0.0
  9
$CHAMFERC
 40
0.0
  9
$CHAMFERD
 40
0.0
  9
$SKPOLY
 70
     0
  9
$TDCREATE
 40
2459920.599313993
  9
$TDUCREATE
 40
2459920.224313993
  9
$TDUPDATE
 40
2459920.599314224
  9
$TDUUPDATE
 40
2459920.224314224
  9
$TDINDWG
 40
0.0000000116
  9
$TDUSRTIMER
 40
0.0000000116
  9
$USRTIMER
 70
     1
  9
$ANGBASE
 50
0.0
  9
$ANGDIR
 70
     0
  9
$PDMODE
 70
     0
  9
$PDSIZE
 40
-1.0
  9
$PLINEWID
 40
0.0
  9
$SPLFRAME
 70
     0
  9
$SPLINETYPE
 70
     6
  9
$SPLINESEGS
 70
     8
  9
$HANDSEED
  5
A9
  9
$SURFTAB1
 70
     6
  9
$SURFTAB2
 70
     6
  9
$SURFTYPE
 70
     6
  9
$SURFU
 70
     6
  9
$SURFV
 70
     6
  9
$UCSBASE
  2

  9
$UCSNAME
  2

  9
$UCSORG
 10
0.0
 20
0.0
 30
0.0
  9
$UCSXDIR
 10
1.0
 20
0.0
 30
0.0
  9
$UCSYDIR
 10
0.0
 20
1.0
 30
0.0
  9
$UCSORTHOREF
  2

  9
$UCSORTHOVIEW
 70
     0
  9
$UCSORGTOP
 10
0.0
 20
0.0
 30
0.0
  9
$UCSORGBOTTOM
 10
0.0
 20
0.0
 30
0.0
  9
$UCSORGLEFT
 10
0.0
 20
0.0
 30
0.0
  9
$UCSORGRIGHT
 10
0.0
 20
0.0
 30
0.0
  9
$UCSORGFRONT
 10
0.0
 20
0.0
 30
0.0
  9
$UCSORGBACK
 10
0.0
 20
0.0
 30
0.0
  9
$PUCSBASE
  2

  9
$PUCSNAME
  2

  9
$PUCSORG
 10
0.0
 20
0.0
 30
0.0
  9
$PUCSXDIR
 10
1.0
 20
0.0
 30
0.0
  9
$PUCSYDIR
 10
0.0
 20
1.0
 30
0.0
  9
$PUCSORTHOREF
  2

  9
$PUCSORTHOVIEW
 70
     0
  9
$PUCSORGTOP
 10
0.0
 20
0.0
 30
0.0
  9
$PUCSORGBOTTOM
 10
0.0
 20
0.0
 30
0.0
  9
$PUCSORGLEFT
 10
0.0
 20
0.0
 30
0.0
  9
$PUCSORGRIGHT
 10
0.0
 20
0.0
 30
0.0
  9
$PUCSORGFRONT
 10
0.0
 20
0.0
 30
0.0
  9
$PUCSORGBACK
 10
0.0
 20
0.0
 30
0.0
  9
$USERI1
 70
     0
  9
$USERI2
 70
     0
  9
$USERI3
 70
     0
  9
$USERI4
 70
     0
  9
$USERI5
 70
     0
  9
$USERR1
 40
0.0
  9
$USERR2
 40
0.0
  9
$USERR3
 40
0.0
  9
$USERR4
 40
0.0
  9
$USERR5
 40
0.0
  9
$WORLDVIEW
 70
     1
  9
$SHADEDGE
 70
     3
  9
$SHADEDIF
 70
    70
  9
$TILEMODE
 70
     1
  9
$MAXACTVP
 70
    64
  9
$PINSBASE
 10
0.0
 20
0.0
 30
0.0
  9
$PLIMCHECK
 70
     0
  9
$PEXTMIN
 10
1.0000000000E+20
 20
1.0000000000E+20
 30
1.0000000000E+20
  9
$PEXTMAX
 10
-1.0000000000E+20
 20
-1.0000000000E+20
 30
-1.0000000000E+20
  9
$PLIMMIN
 10
0.0
 20
0.0
  9
$PLIMMAX
 10
420.0
 20
297.0
  9
$UNITMODE
 70
     0
  9
$VISRETAIN
 70
     1
  9
$PLINEGEN
 70
     0
  9
$PSLTSCALE
 70
     1
  9
$TREEDEPTH
 70
  3020
  9
$CMLSTYLE
  2
Standard
  9
$CMLJUST
 70
     0
  9
$CMLSCALE
 40
20.0
  9
$PROXYGRAPHICS
 70
     1
  9
$MEASUREMENT
 70
     1
  9
$CELWEIGHT
370
    -1
  9
$ENDCAPS
280
     0
  9
$JOINSTYLE
280
     0
  9
$LWDISPLAY
290
     1
  9
$INSUNITS
 70
     4
  9
$HYPERLINKBASE
  1

  9
$STYLESHEET
  1

  9
$XEDIT
290
     1
  9
$CEPSNTYPE
380
     0
  9
$PSTYLEMODE
290
     1
  9
$FINGERPRINTGUID
  2
{60d47f49-8a9e-4542-afbb-cf53cc20a1d2}
  9
$VERSIONGUID
  2
{FAEB1C32-E019-11D5-929B-00C0DF256EC4}
  9
$EXTNAMES
290
     1
  9
$PSVPSCALE
 40
0.0
  9
$OLESTARTUP
290
     0
  0
ENDSEC
  0
SECTION
  2
CLASSES
  0
CLASS
  1
ACDBDICTIONARYWDFLT
  2
AcDbDictionaryWithDefault
  3
ObjectDBX Classes
 90
        0
280
     0
281
     0
  0
CLASS
  1
VISUALSTYLE
  2
AcDbVisualStyle
  3
ObjectDBX Classes
 90
     4095
280
     0
281
     0
  0
CLASS
  1
MATERIAL
  2
AcDbMaterial
  3
ObjectDBX Classes
 90
     1153
280
     0
281
     0
  0
CLASS
  1
SCALE
  2
AcDbScale
  3
ObjectDBX Classes
 90
     1153
280
     0
281
     0
  0
CLASS
  1
TABLESTYLE
  2
AcDbTableStyle
  3
ObjectDBX Classes
 90
     4095
280
     0
281
     0
  0
CLASS
  1
MLEADERSTYLE
  2
AcDbMLeaderStyle
  3
ACDB_MLEADERSTYLE_CLASS
 90
     4095
280
     0
281
     0
  0
CLASS
  1
SUN
  2
AcDbSun
  3
SCENEOE
 90
     1153
280
     0
281
     0
  0
CLASS
  1
ACDBPLACEHOLDER
  2
AcDbPlaceHolder
  3
ObjectDBX Classes
 90
        0
280
     0
281
     0
  0
CLASS
  1
LAYOUT
  2
AcDbLayout
  3
ObjectDBX Classes
 90
        0
280
     0
281
     0
  0
ENDSEC
  0
SECTION
  2
TABLES
  0
TABLE
  2
VPORT
  5
8
330
0
100
AcDbSymbolTable
 70
     1
  0
VPORT
  5
29
330
8
100
AcDbSymbolTableRecord
100
AcDbViewportTableRecord
  2
*Active
 70
     0
 10
0.0
 20
0.0
 11
1.0
 21
1.0
 12
0.7
 22
0.99
 13
0.0
 23
0.0
 14
10.0
 24
10.0
 15
10.0
 25
10.0
 16
0.0
 26
0.0
 36
1.0
 17
0.0
 27
0.0
 37
0.0
 40
1.98
 41
0.7070707071
 42
50.0
 43
0.0
 44
0.0
 50
0.0
 51
0.0
 71
     0
 72
  2000
 73
     1
 74
     3
 75
     0
 76
     0
 77
     0
 78
     0
281
     0
 65
     1
110
0.0
120
0.0
130
0.0
111
1.0
121
0.0
131
0.0
112
0.0
122
1.0
132
0.0
 79
     0
146
0.0
  0
ENDTAB
  0
TABLE
  2
LTYPE
  5
5
330
0
100
AcDbSymbolTable
 70
     6
  0
LTYPE
  5
14
330
5
100
AcDbSymbolTableRecord
100
AcDbLinetypeTableRecord
  2
ByBlock
 70
     0
  3

 72
    65
 73
     0
 40
0.0
  0
LTYPE
  5
15
330
5
100
AcDbSymbolTableRecord
100
AcDbLinetypeTableRecord
  2
ByLayer
 70
     0
  3

 72
    65
 73
     0
 40
0.0
  0
LTYPE
  5
16
330
5
100
AcDbSymbolTableRecord
100
AcDbLinetypeTableRecord
  2
Continuous
 70
     0
  3
Solid line
 72
    65
 73
     0
 40
0.0
  0
LTYPE
  5
6E
330
5
100
AcDbSymbolTableRecord
100
AcDbLinetypeTableRecord
  2
HIDDEN
 70
     0
  3
Hidden __ __ __ __ __ __ __ __ __ __ __ __ __ __
 72
    65
 73
     2
 40
1.905
 49
1.27
 74
     0
 49
-0.635
 74
     0
  0
LTYPE
  5
6F
330
5
100
AcDbSymbolTableRecord
100
AcDbLinetypeTableRecord
  2
PHANTOM
 70
     0
  3
Phantom ______  __  __  ______  __  __  ______
 72
    65
 73
     6
 40
12.7
 49
6.35
 74
     0
 49
-1.27
 74
     0
 49
1.27
 74
     0
 49
-1.27
 74
     0
 49
1.27
 74
     0
 49
-1.27
 74
     0
  0
LTYPE
  5
70
330
5
100
AcDbSymbolTableRecord
100
AcDbLinetypeTableRecord
  2
CENTER
 70
     0
  3
Center ____ _ ____ _ ____ _ ____ _ ____ _ ____
 72
    65
 73
     4
 40
10.16
 49
6.35
 74
     0
 49
-1.27
 74
     0
 49
1.27
 74
     0
 49
-1.27
 74
     0
  0
LTYPE
  5
71
330
5
100
AcDbSymbolTableRecord
100
AcDbLinetypeTableRecord
  2
CENTERX2
 70
     0
  3
Center (2x) ________  __  ________  __  _____
 72
    65
 73
     4
 40
20.32
 49
12.7
 74
     0
 49
-2.54
 74
     0
 49
2.54
 74
     0
 49
-2.54
 74
     0
  0
LTYPE
  5
72
330
5
100
AcDbSymbolTableRecord
100
AcDbLinetypeTableRecord
  2
DOT2
 70
     0
  3
Dot (.5x) ........................................
 72
    65
 73
     2
 40
0.635
 49
0.0
 74
     0
 49
-0.635
 74
     0
  0
ENDTAB
  0
TABLE
  2
LAYER
  5
2
330
0
100
AcDbSymbolTable
 70
     1
  0
LAYER
  5
10
330
2
100
AcDbSymbolTableRecord
100
AcDbLayerTableRecord
  2
0
 70
     0
 62
     7
  6
Continuous
370
    -3
390
F
  0
ENDTAB
  0
TABLE
  2
STYLE
  5
3
330
0
100
AcDbSymbolTable
 70
     2
  0
STYLE
  5
11
330
3
100
AcDbSymbolTableRecord
100
AcDbTextStyleTableRecord
  2
Standard
 70
     0
 40
0.0
 41
1.0
 50
0.0
 71
     0
 42
0.0233333333
  3
txt
  4
bigfont
  0
STYLE
  5
76
330
3
100
AcDbSymbolTableRecord
100
AcDbTextStyleTableRecord
  2
SLDTEXTSTYLE0
 70
     0
 40
0.0
 41
0.7
 50
0.0
 71
     0
 42
0.0233333333
  3
TXT
  4
bigfont
  0
ENDTAB
  0
TABLE
  2
VIEW
  5
6
330
0
100
AcDbSymbolTable
 70
     0
  0
ENDTAB
  0
TABLE
  2
UCS
  5
7
330
0
100
AcDbSymbolTable
 70
     0
  0
ENDTAB
  0
TABLE
  2
APPID
  5
9
330
0
100
AcDbSymbolTable
 70
     1
  0
APPID
  5
12
330
9
100
AcDbSymbolTableRecord
100
AcDbRegAppTableRecord
  2
ACAD
 70
     0
  0
ENDTAB
  0
TABLE
  2
DIMSTYLE
  5
A
330
0
100
AcDbSymbolTable
 70
     1
100
AcDbDimStyleTable
  0
DIMSTYLE
105
27
330
A
100
AcDbSymbolTableRecord
100
AcDbDimStyleTableRecord
  2
ISO-25
 70
     0
 41
2.5
 42
0.625
 43
3.75
 44
1.25
 73
     0
 74
     0
 77
     1
 78
     8
140
2.5
141
2.5
143
0.0393700787
147
0.625
171
     3
172
     1
178
     0
271
     2
272
     2
274
     3
278
    44
283
     0
284
     8
340
11
  0
ENDTAB
  0
TABLE
  2
BLOCK_RECORD
  5
1
330
0
100
AcDbSymbolTable
 70
     2
  0
BLOCK_RECORD
  5
1F
330
1
100
AcDbSymbolTableRecord
100
AcDbBlockTableRecord
  2
*Model_Space
340
22
  0
BLOCK_RECORD
  5
1B
330
1
100
AcDbSymbolTableRecord
100
AcDbBlockTableRecord
  2
*Paper_Space
340
1E
  0
BLOCK_RECORD
  5
23
330
1
100
AcDbSymbolTableRecord
100
AcDbBlockTableRecord
  2
*Paper_Space0
340
26
  0
BLOCK_RECORD
  5
73
330
1
100
AcDbSymbolTableRecord
100
AcDbBlockTableRecord
  2
SW_NOTE_0
340
0
102
{BLKREFS
331
7A
102
}
  0
ENDTAB
  0
ENDSEC
  0
SECTION
  2
BLOCKS
  0
BLOCK
  5
20
330
1F
100
AcDbEntity
  8
0
100
AcDbBlockBegin
  2
*Model_Space
 70
     0
 10
0.0
 20
0.0
 30
0.0
  3
*Model_Space
  1

  0
ENDBLK
  5
21
330
1F
100
AcDbEntity
  8
0
100
AcDbBlockEnd
  0
BLOCK
  5
1C
330
1B
100
AcDbEntity
 67
     1
  8
0
100
AcDbBlockBegin
  2
*Paper_Space
 70
     0
 10
0.0
 20
0.0
 30
0.0
  3
*Paper_Space
  1

  0
ENDBLK
  5
1D
330
1B
100
AcDbEntity
 67
     1
  8
0
100
AcDbBlockEnd
  0
BLOCK
  5
24
330
23
100
AcDbEntity
  8
0
100
AcDbBlockBegin
  2
*Paper_Space0
 70
     0
 10
0.0
 20
0.0
 30
0.0
  3
*Paper_Space0
  1

  0
ENDBLK
  5
25
330
23
100
AcDbEntity
  8
0
100
AcDbBlockEnd
  0
BLOCK
  5
74
330
73
100
AcDbEntity
  8
0
100
AcDbBlockBegin
  2
SW_NOTE_0
 70
     0
 10
0.0
 20
0.0
 30
0.0
  3
SW_NOTE_0
  1

  0
MTEXT
  5
77
330
73
100
AcDbEntity
  8
0
  6
Continuous
 62
     0
370
     0
100
AcDbMText
 10
0.0
 20
0.0454754453
 30
0.0
 40
0.0352777778
 41
0.0
 71
     1
 72
     1
  1
HOA-D10K
  7
SLDTEXTSTYLE0
 73
     1
 44
1.0
  0
MTEXT
  5
78
330
73
100
AcDbEntity
  8
0
  6
Continuous
 62
     0
370
     0
100
AcDbMText
 10
0.0
 20
-0.008228259
 30
0.0
 40
0.0352777778
 41
0.0
 71
     1
 72
     1
  1
HOA-D10O
  7
SLDTEXTSTYLE0
 73
     1
 44
1.0
  0
MTEXT
  5
79
330
73
100
AcDbEntity
  8
0
  6
Continuous
 62
     0
370
     0
100
AcDbMText
 10
0.0
 20
-0.0619319632
 30
0.0
 40
0.0352777778
 41
0.0
 71
     1
 72
     1
  1
HOA-D10W
  7
SLDTEXTSTYLE0
 73
     1
 44
1.0
  0
ENDBLK
  5
75
330
73
100
AcDbEntity
  8
0
100
AcDbBlockEnd
  0
ENDSEC
  0
SECTION
  2
ENTITIES
  0
INSERT
  5
7A
330
1F
100
AcDbEntity
  8
0
  6
Continuous
 62
     7
370
     0
100
AcDbBlockReference
  2
SW_NOTE_0
 10
1.0158700249
 20
0.2876187797
 30
0.0
  0
SPLINE
  5
7B
330
1F
100
AcDbEntity
  8
0
  6
Continuous
 62
     7
370
    25
100
AcDbSpline
210
0.0
220
0.0
230
1.0
 70
     8
 71
     3
 72
    22
 73
    18
 74
     0
 42
0.00000001
 43
0.00000001
 40
0.0
 40
0.0
 40
0.0
 40
0.0
 40
0.0655100165031471
 40
0.1341844048565337
 40
0.1986050018707348
 40
0.2666141645981746
 40
0.3333852904015556
 40
0.3996615835314854
 40
0.4648617964234225
 40
0.533278439221926
 40
0.5994414595739891
 40
0.6666282611881013
 40
0.7333976286122369
 40
0.7987549012962787
 40
0.8657522501799816
 40
0.9319915364246943
 40
1.0
 40
1.0
 40
1.0
 40
1.0
 10
0.6683286918019236
 20
1.572594926248206
 30
0.0
 10
0.6682272383172883
 20
1.572113835101424
 30
0.0
 10
0.6680194307760438
 20
1.571128414357262
 30
0.0
 10
0.668284569940759
 20
1.569253677161665
 30
0.0
 10
0.6687712158278833
 20
1.567085709040704
 30
0.0
 10
0.6696418694070544
 20
1.564682169754066
 30
0.0
 10
0.6706666032177758
 20
1.562065562939666
 30
0.0
 10
0.6720540518153277
 20
1.55950722601229
 30
0.0
 10
0.673541418438771
 20
1.556913162095428
 30
0.0
 10
0.6753029572842644
 20
1.554607695531354
 30
0.0
 10
0.6771180981127932
 20
1.552338532792671
 30
0.0
 10
0.6788448250931658
 20
1.550563671770364
 30
0.0
 10
0.6806601444350645
 20
1.54897843968747
 30
0.0
 10
0.6822338029186336
 20
1.548061762513899
 30
0.0
 10
0.6836010829280684
 20
1.547337475776061
 30
0.0
 10
0.6849620962511678
 20
1.547273154469773
 30
0.0
 10
0.6855613595102898
 20
1.547604918029029
 30
0.0
 10
0.6858649398204602
 20
1.547772985873484
 30
0.0
  0
SPLINE
  5
7C
330
1F
100
AcDbEntity
  8
0
  6
Continuous
 62
     7
370
    25
100
AcDbSpline
210
0.0
220
0.0
230
1.0
 70
     8
 71
     3
 72
    27
 73
    23
 74
     0
 42
0.00000001
 43
0.00000001
 40
0.0
 40
0.0
 40
0.0
 40
0.0
 40
0.0490564548614684
 40
0.0992538992359258
 40
0.1493258653840966
 40
0.2005161991632963
 40
0.2503046426318479
 40
0.3000930881599408
 40
0.3495646077867132
 40
0.3996365739348839
 40
0.4498340183093413
 40
0.5002503338623772
 40
0.5493067994738187
 40
0.5995042578557761
 40
0.649576216397536
 40
0.7003655352909622
 40
0.7503116867151666
 40
0.8002578401924091
 40
0.8493142963976262
 40
0.8993862549393861
 40
0.9495837133213434
 40
1.0
 40
1.0
 40
1.0
 40
1.0
 10
0.7263821580431672
 20
1.606440798468204
 30
0.0
 10
0.7263396230765147
 20
1.606973326452601
 30
0.0
 10
0.7262535638350538
 20
1.608050768331614
 30
0.0
 10
0.7256035085211561
 20
1.609637345974774
 30
0.0
 10
0.7245262931909743
 20
1.611162883469716
 30
0.0
 10
0.7230781451239232
 20
1.612583796425272
 30
0.0
 10
0.7211873380967243
 20
1.613809594842991
 30
0.0
 10
0.7190919441703167
 20
1.61489494565927
 30
0.0
 10
0.7166383268420039
 20
1.615698621223403
 30
0.0
 10
0.7140311591530011
 20
1.616326780852198
 30
0.0
 10
0.7112535378479281
 20
1.616671216258118
 30
0.0
 10
0.708449817113589
 20
1.616865021589378
 30
0.0
 10
0.7056302960758268
 20
1.616721440150367
 30
0.0
 10
0.7028920205507679
 20
1.616357618471514
 30
0.0
 10
0.7002211116349049
 20
1.615761295821805
 30
0.0
 10
0.6978951271381233
 20
1.614819567457575
 30
0.0
 10
0.6955924525614342
 20
1.613847316582584
 30
0.0
 10
0.6939202765328036
 20
1.612535271540415
 30
0.0
 10
0.6923393825417705
 20
1.611196113243311
 30
0.0
 10
0.6913148258399294
 20
1.609674657337341
 30
0.0
 10
0.690670754710132
 20
1.608077120615904
 30
0.0
 10
0.6905311085139032
 20
1.606987030071744
 30
0.0
 10
0.6904611335551298
 20
1.606440799361945
 30
0.0
  0
LINE
  5
7D
330
1F
100
AcDbEntity
  8
0
  6
Continuous
 62
     7
370
    25
100
AcDbLine
 10
0.726382158
 20
1.5189076018
 30
0.0
 11
0.726382158
 21
1.6064407985
 31
0.0
  0
LINE
  5
7E
330
1F
100
AcDbEntity
  8
0
  6
Continuous
 62
     7
370
    25
100
AcDbLine
 10
0.6912766214
 20
1.5512140867
 30
0.0
 11
0.6913330401
 21
1.5512513487
 31
0.0
  0
SPLINE
  5
7F
330
1F
100
AcDbEntity
  8
0
  6
Continuous
 62
     7
370
    25
100
AcDbSpline
210
0.0
220
0.0
230
1.0
 70
     8
 71
     3
 72
     9
 73
     5
 74
     0
 42
0.00000001
 43
0.00000001
 40
0.0
 40
0.0
 40
0.0
 40
0.0
 40
0.2458201481982733
 40
1.0
 40
1.0
 40
1.0
 40
1.0
 10
0.6905582374038487
 20
1.550757291241677
 30
0.0
 10
0.6905512879022887
 20
1.548141521657349
 30
0.0
 10
0.6905230172271183
 20
1.537500532285646
 30
0.0
 10
0.6904877392636893
 20
1.526901356988583
 30
0.0
 10
0.6904611333344587
 20
1.518907672533823
 30
0.0
  0
SPLINE
  5
80
330
1F
100
AcDbEntity
  8
0
  6
Continuous
 62
     7
370
    25
100
AcDbSpline
210
0.0
220
0.0
230
1.0
 70
     8
 71
     3
 72
    10
 73
     6
 74
     0
 42
0.00000001
 43
0.00000001
 40
0.0
 40
0.0
 40
0.0
 40
0.0
 40
0.3458174426332842
 40
0.9034693928415648
 40
1.0
 40
1.0
 40
1.0
 40
1.0
 10
0.6904611335551298
 20
1.606440799361944
 30
0.0
 10
0.6904618135694071
 20
1.604011122265977
 30
0.0
 10
0.6904635901486376
 20
1.597663441032841
 30
0.0
 10
0.6904536364792736
 20
1.590822983701813
 30
0.0
 10
0.690520712285944
 20
1.586489625498504
 30
0.0
 10
0.6905306099334289
 20
1.585850198944417
 30
0.0
  0
SPLINE
  5
81
330
1F
100
AcDbEntity
  8
0
  6
Continuous
 62
     7
370
    25
100
AcDbSpline
210
0.0
220
0.0
230
1.0
 70
     8
 71
     3
 72
     9
 73
     5
 74
     0
 42
0.00000001
 43
0.00000001
 40
0.0
 40
0.0
 40
0.0
 40
0.0
 40
0.6170158250711686
 40
1.0
 40
1.0
 40
1.0
 40
1.0
 10
0.6905117036286422
 20
1.587143362993956
 30
0.0
 10
0.6861559383742436
 20
1.584468145813866
 30
0.0
 10
0.6790965323146078
 20
1.580132410697541
 30
0.0
 10
0.672048858556072
 20
1.575837508672481
 30
0.0
 10
0.6693497110364917
 20
1.574192629164013
 30
0.0
  0
SPLINE
  5
82
330
1F
100
AcDbEntity
  8
0
  6
Continuous
 62
     7
370
    25
100
AcDbSpline
210
0.0
220
0.0
230
1.0
 70
     8
 71
     3
 72
    16
 73
    12
 74
     0
 42
0.00000001
 43
0.00000001
 40
0.0
 40
0.0
 40
0.0
 40
0.0
 40
0.0929360043767457
 40
0.2061921879856937
 40
0.3200877475440332
 40
0.4337926513679249
 40
0.5471132832267225
 40
0.6611370109979718
 40
0.7734250823151697
 40
0.8864866741550312
 40
1.0
 40
1.0
 40
1.0
 40
1.0
 10
0.7312074795782019
 20
1.142828004489702
 30
0.0
 10
0.7314492048333151
 20
1.142706863040896
 30
0.0
 10
0.7319855078471733
 20
1.142438092928037
 30
0.0
 10
0.7330904371886201
 20
1.142475381095138
 30
0.0
 10
0.7347629505455565
 20
1.143057199515707
 30
0.0
 10
0.7362092689428761
 20
1.144113434069489
 30
0.0
 10
0.7380798531471875
 20
1.145672060723427
 30
0.0
 10
0.7397828689507636
 20
1.147466409178641
 30
0.0
 10
0.7416358959171585
 20
1.149677460141923
 30
0.0
 10
0.743203185447222
 20
1.152113727888197
 30
0.0
 10
0.7442921021060457
 20
1.153776253037034
 30
0.0
 10
0.7448376459498838
 20
1.154609172942175
 30
0.0
  0
SPLINE
  5
83
330
1F
100
AcDbEntity
  8
0
  6
Continuous
 62
     7
370
    25
100
AcDbSpline
210
0.0
220
0.0
230
1.0
 70
     8
 71
     3
 72
    11
 73
     7
 74
     0
 42
0.00000001
 43
0.00000001
 40
0.0
 40
0.0
 40
0.0
 40
0.0
 40
0.265063982214154
 40
0.5361476484559248
 40
0.8111716927903446
 40
0.9999999999999999
 40
0.9999999999999999
 40
0.9999999999999999
 40
0.9999999999999999
 10
0.7485146002342469
 20
1.164325090155035
 30
0.0
 10
0.7486112864335026
 20
1.164957568896873
 30
0.0
 10
0.7488068546051421
 20
1.166236890166035
 30
0.0
 10
0.7486203768860504
 20
1.167797872860991
 30
0.0
 10
0.7482549598622219
 20
1.168791019225897
 30
0.0
 10
0.747677955979767
 20
1.169155416719735
 30
0.0
 10
0.747443065144322
 20
1.169303758237643
 30
0.0
  0
SPLINE
  5
84
330
1F
100
AcDbEntity
  8
0
  6
Continuous
 62
     7
370
    25
100
AcDbSpline
210
0.0
220
0.0
230
1.0
 70
     8
 71
     3
 72
     9
 73
     5
 74
     0
 42
0.00000001
 43
0.00000001
 40
0.0
 40
0.0
 40
0.0
 40
0.0
 40
0.6292661361365148
 40
1.0
 40
1.0
 40
1.0
 40
1.0
 10
0.7257324264314257
 20
1.146277768566606
 30
0.0
 10
0.7268611106598237
 20
1.145533710906128
 30
0.0
 10
0.7286547622860303
 20
1.144351289641499
 30
0.0
 10
0.7305170620069816
 20
1.143239997951729
 30
0.0
 10
0.7312074795782019
 20
1.142828004489702
 30
0.0
  0
SPLINE
  5
85
330
1F
100
AcDbEntity
  8
0
  6
Continuous
 62
     7
370
    25
100
AcDbSpline
210
0.0
220
0.0
230
1.0
 70
     8
 71
     3
 72
     9
 73
     5
 74
     0
 42
0.00000001
 43
0.00000001
 40
0.0
 40
0.0
 40
0.0
 40
0.0
 40
0.3073844254270244
 40
1.0
 40
1.0
 40
1.0
 40
1.0
 10
0.747443065144322
 20
1.169303758237643
 30
0.0
 10
0.7452752684206935
 20
1.170626903289573
 30
0.0
 10
0.738222872318916
 20
1.174931431894402
 30
0.0
 10
0.7311933769984844
 20
1.179258313358325
 30
0.0
 10
0.7263246390581656
 20
1.18225517884957
 30
0.0
  0
LINE
  5
86
330
1F
100
AcDbEntity
  8
0
  6
Continuous
 62
     7
370
    25
100
AcDbLine
 10
0.6904713251
 20
1.5189664373
 30
0.0
 11
0.6904611336
 21
1.5189076027
 31
0.0
  0
LINE
  5
87
330
1F
100
AcDbEntity
  8
0
  6
Continuous
 62
     7
370
    25
100
AcDbLine
 10
0.726382158
 20
1.2016815166
 30
0.0
 11
0.726382158
 21
1.5189076018
 31
0.0
  0
LINE
  5
88
330
1F
100
AcDbEntity
  8
0
  6
Continuous
 62
     7
370
    25
100
AcDbLine
 10
0.6904611336
 20
1.5189076027
 30
0.0
 11
0.6904611336
 21
1.2016815175
 31
0.0
  0
SPLINE
  5
89
330
1F
100
AcDbEntity
  8
0
  6
Continuous
 62
     7
370
    25
100
AcDbSpline
210
0.0
220
0.0
230
1.0
 70
     8
 71
     3
 72
     9
 73
     5
 74
     0
 42
0.00000001
 43
0.00000001
 40
0.0
 40
0.0
 40
0.0
 40
0.0
 40
0.7726106659393199
 40
1.0
 40
1.0
 40
1.0
 40
1.0
 10
0.7263821580431672
 20
1.114148368601976
 30
0.0
 10
0.7263664142119615
 20
1.122351555848132
 30
0.0
 10
0.7263460367671503
 20
1.132969047435803
 30
0.0
 10
0.7263156867982096
 20
1.143508940524004
 30
0.0
 10
0.7263087855389834
 20
1.145905599794401
 30
0.0
  0
SPLINE
  5
8A
330
1F
100
AcDbEntity
  8
0
  6
Continuous
 62
     7
370
    25
100
AcDbSpline
210
0.0
220
0.0
230
1.0
 70
     8
 71
     3
 72
    11
 73
     7
 74
     0
 42
0.00000001
 43
0.00000001
 40
0.0
 40
0.0
 40
0.0
 40
0.0
 40
0.6536363086377841
 40
0.6547254434535115
 40
0.6551813766834336
 40
1.0
 40
1.0
 40
1.0
 40
1.0
 10
0.7263191408120817
 20
1.181087706551986
 30
0.0
 10
0.7263412743623486
 20
1.185537768413538
 30
0.0
 10
0.7263634447930946
 20
1.189995245281327
 30
0.0
 10
0.7263818821464086
 20
1.194411928419715
 30
0.0
 10
0.7263811508540196
 20
1.196849858356562
 30
0.0
 10
0.72638165478131
 20
1.199267283584286
 30
0.0
 10
0.7263821580431672
 20
1.201681516614753
 30
0.0
  0
LINE
  5
8B
330
1F
100
AcDbEntity
  8
0
  6
Continuous
 62
     7
370
    25
100
AcDbLine
 10
0.6904611336
 20
1.2016815175
 30
0.0
 11
0.6904611336
 21
1.1141484321
 31
0.0
  0
SPLINE
  5
8C
330
1F
100
AcDbEntity
  8
0
  6
Continuous
 62
     7
370
    25
100
AcDbSpline
210
0.0
220
0.0
230
1.0
 70
     8
 71
     3
 72
    27
 73
    23
 74
     0
 42
0.00000001
 43
0.00000001
 40
0.0
 40
0.0
 40
0.0
 40
0.0
 40
0.050457527248432
 40
0.1006959747492764
 40
0.150808832788651
 40
0.199905344383801
 40
0.2497344526181632
 40
0.2995635587913021
 40
0.35039434848315
 40
0.4005072065225246
 40
0.450745654023369
 40
0.4998421714461738
 40
0.550299660107619
 40
0.6005381216274003
 40
0.6506509720541522
 40
0.699747490821803
 40
0.7497344334437737
 40
0.7997213740110296
 40
0.8505521706306621
 40
0.9006650210574141
 40
0.9509034825771953
 40
1.0
 40
1.0
 40
1.0
 40
1.0
 10
0.6904611335551298
 20
0.8517121390449486
 30
0.0
 10
0.6905313161249487
 20
0.8511660155027847
 30
0.0
 10
0.6906713765413763
 20
0.8500761396128913
 30
0.0
 10
0.691312356237908
 20
0.8484769939781311
 30
0.0
 10
0.6923485355097513
 20
0.8469615867728102
 30
0.0
 10
0.6938849889593215
 20
0.8456015866209862
 30
0.0
 10
0.695714730126116
 20
0.8443762014388253
 30
0.0
 10
0.6978660232123275
 20
0.8433122010551855
 30
0.0
 10
0.700229508431778
 20
0.8423969995381081
 30
0.0
 10
0.7028897399881734
 20
0.8417939150648145
 30
0.0
 10
0.7056310255556275
 20
0.8414317503921563
 30
0.0
 10
0.7084491265993236
 20
0.8412882582217001
 30
0.0
 10
0.7112556171292324
 20
0.8414800323676364
 30
0.0
 10
0.7140235992700853
 20
0.8418325068315001
 30
0.0
 10
0.7166589580183911
 20
0.8424291104802791
 30
0.0
 10
0.7189787016830262
 20
0.8433403865149386
 30
0.0
 10
0.7212516333567517
 20
0.8443060824039
 30
0.0
 10
0.7229351687807266
 20
0.845635279004713
 30
0.0
 10
0.7245688757062614
 20
0.8469781058186997
 30
0.0
 10
0.7255929401797797
 20
0.8485198425603596
 30
0.0
 10
0.7262561385891885
 20
0.8501011320252994
 30
0.0
 10
0.7263404747315427
 20
0.8511792674851725
 30
0.0
 10
0.7263821580431672
 20
0.8517121381512083
 30
0.0
  0
LINE
  5
8D
330
1F
100
AcDbEntity
  8
0
  6
Continuous
 62
     7
370
    25
100
AcDbLine
 10
0.726382158
 20
0.8517121382
 30
0.0
 11
0.726382158
 21
1.1141483686
 31
0.0
  0
LINE
  5
8E
330
1F
100
AcDbEntity
  8
0
  6
Continuous
 62
     7
370
    25
100
AcDbLine
 10
0.6904611336
 20
1.1141483695
 30
0.0
 11
0.6904611336
 21
0.851712139
 31
0.0
  0
SPLINE
  5
8F
330
1F
100
AcDbEntity
  8
0
  6
Continuous
 62
     7
370
    25
100
AcDbSpline
210
0.0
220
0.0
230
1.0
 70
     8
 71
     3
 72
    33
 73
    29
 74
     0
 42
0.00000001
 43
0.00000001
 40
0.0
 40
0.0
 40
0.0
 40
0.0
 40
0.0057324010732756
 40
0.0466088069360297
 40
0.0875769172160303
 40
0.1284556307985442
 40
0.1690025050106784
 40
0.2096094996659418
 40
0.2504101015286704
 40
0.2912107048382404
 40
0.3322428904110731
 40
0.3727897646232072
 40
0.4136684709385822
 40
0.4546365946974349
 40
0.495513000560189
 40
0.5359857708888891
 40
0.5770796312399602
 40
0.6175709558981584
 40
0.6582817769613253
 40
0.6991581845340912
 40
0.7400621307688157
 40
0.7808006031146801
 40
0.8216058063299659
 40
0.8623074139812784
 40
0.9030343654280437
 40
0.9440413914620934
 40
0.9850369831935621
 40
1.0
 40
1.0
 40
1.0
 40
1.0
 10
0.7817592374250056
 20
0.8726439191004958
 30
0.0
 10
0.7817824358911433
 20
0.8723895354171312
 30
0.0
 10
0.7819710571714055
 20
0.8703212014268799
 30
0.0
 10
0.7811448482774866
 20
0.8664317086752726
 30
0.0
 10
0.7793606695217179
 20
0.8610765561182769
 30
0.0
 10
0.7762261339210856
 20
0.8559238048363254
 30
0.0
 10
0.7719319231129337
 20
0.8510892206504738
 30
0.0
 10
0.76670358969288
 20
0.8465730317923644
 30
0.0
 10
0.76046241438453
 20
0.8424910971637122
 30
0.0
 10
0.7533631581480598
 20
0.8388794441868963
 30
0.0
 10
0.7455305026815462
 20
0.835836147317298
 30
0.0
 10
0.737122552314503
 20
0.833348001663042
 30
0.0
 10
0.7281984946820551
 20
0.8315521950966136
 30
0.0
 10
0.7189192711332566
 20
0.8304676738535812
 30
0.0
 10
0.7095185674867983
 20
0.8300048525321981
 30
0.0
 10
0.7000769570737968
 20
0.8302458416618503
 30
0.0
 10
0.6908087588401065
 20
0.8312261918459896
 30
0.0
 10
0.6818278432608106
 20
0.8328882145344225
 30
0.0
 10
0.6732327823384495
 20
0.8351135931022008
 30
0.0
 10
0.6652400492473467
 20
0.8380305486518405
 30
0.0
 10
0.6579471055285855
 20
0.8415021037342056
 30
0.0
 10
0.6514852670335876
 20
0.8454807714936795
 30
0.0
 10
0.6459481689975105
 20
0.8498911996214994
 30
0.0
 10
0.6415009639246451
 20
0.8546916300104939
 30
0.0
 10
0.6380627689636933
 20
0.8597740488826171
 30
0.0
 10
0.6358622554153717
 20
0.8650832472534348
 30
0.0
 10
0.6348417740381054
 20
0.8693763374751561
 30
0.0
 10
0.6349710223890641
 20
0.8718627337992612
 30
0.0
 10
0.6350055826702814
 20
0.8725275821748215
 30
0.0
  0
SPLINE
  5
90
330
1F
100
AcDbEntity
  8
0
  6
Continuous
 62
     7
370
    25
100
AcDbSpline
210
0.0
220
0.0
230
1.0
 70
     8
 71
     3
 72
    18
 73
    14
 74
     0
 42
0.00000001
 43
0.00000001
 40
0.0
 40
0.0
 40
0.0
 40
0.0
 40
0.084664637517865
 40
0.1817038801709563
 40
0.2781917301079551
 40
0.3748269189020037
 40
0.4711671887331497
 40
0.5683686034212979
 40
0.6641853049632874
 40
0.7611407141284692
 40
0.8580856363133508
 40
0.9537909097348506
 40
1.0
 40
1.0
 40
1.0
 40
1.0
 10
0.7830435321769946
 20
0.8725071884279794
 30
0.0
 10
0.7829917075462464
 20
0.8741252430873246
 30
0.0
 10
0.782880483583427
 20
0.87759784769004
 30
0.0
 10
0.7811573718637828
 20
0.8828391825380041
 30
0.0
 10
0.7782679199024706
 20
0.8881333624771828
 30
0.0
 10
0.7741981978747404
 20
0.8931492126776674
 30
0.0
 10
0.7692016003287255
 20
0.8978957806739637
 30
0.0
 10
0.7630380766606316
 20
0.902146287464055
 30
0.0
 10
0.7560337927165699
 20
0.9059391121608823
 30
0.0
 10
0.7482930886687792
 20
0.9092364680939602
 30
0.0
 10
0.7397682566226217
 20
0.9117701066948588
 30
0.0
 10
0.7324630097094648
 20
0.9135685057706328
 30
0.0
 10
0.7278758081842545
 20
0.9141543418656358
 30
0.0
 10
0.7263821580431673
 20
0.9143450974191353
 30
0.0
  0
SPLINE
  5
91
330
1F
100
AcDbEntity
  8
0
  6
Continuous
 62
     7
370
    25
100
AcDbSpline
210
0.0
220
0.0
230
1.0
 70
     8
 71
     3
 72
    18
 73
    14
 74
     0
 42
0.00000001
 43
0.00000001
 40
0.0
 40
0.0
 40
0.0
 40
0.0
 40
0.0711583460428541
 40
0.1680079523599123
 40
0.2639231329791514
 40
0.3606518461476675
 40
0.4574962127695956
 40
0.5542249305923067
 40
0.651116554021922
 40
0.7479661951773994
 40
0.8441885544161746
 40
0.940833077263501
 40
0.9999999999999999
 40
0.9999999999999999
 40
0.9999999999999999
 40
0.9999999999999999
 10
0.6904611335551298
 20
0.9143794598743004
 30
0.0
 10
0.6881824357245343
 20
0.9140395102907819
 30
0.0
 10
0.6828023309602278
 20
0.9132368745269023
 30
0.0
 10
0.6747699213033487
 20
0.911214354819811
 30
0.0
 10
0.6665101459788896
 20
0.9084126032323488
 30
0.0
 10
0.6588462847304283
 20
0.9050828298406177
 30
0.0
 10
0.6520349514625126
 20
0.9011547136605701
 30
0.0
 10
0.6462654205160071
 20
0.8967099371497916
 30
0.0
 10
0.6413356730496883
 20
0.8919422809555544
 30
0.0
 10
0.6375777155310246
 20
0.8868307800733809
 30
0.0
 10
0.6350877584302816
 20
0.8814878903705511
 30
0.0
 10
0.6336813794973392
 20
0.8767237190609181
 30
0.0
 10
0.6337207047211308
 20
0.8737480711794736
 30
0.0
 10
0.6337356378505231
 20
0.8726181161390542
 30
0.0
  0
SPLINE
  5
92
330
1F
100
AcDbEntity
  8
0
  6
Continuous
 62
     7
370
    25
100
AcDbSpline
210
0.0
220
0.0
230
1.0
 70
     8
 71
     3
 72
    33
 73
    29
 74
     0
 42
0.00000001
 43
0.00000001
 40
0.0
 40
0.0
 40
0.0
 40
0.0
 40
0.0147793440025655
 40
0.0557164910430261
 40
0.0966388407113153
 40
0.1373187195227959
 40
0.1780382892479196
 40
0.2189371903964061
 40
0.2599433254710188
 40
0.3008212472039953
 40
0.3415209678792359
 40
0.3822405396823349
 40
0.4230245123038461
 40
0.4639172427035168
 40
0.5048457454238097
 40
0.5456495151893452
 40
0.586274768353441
 40
0.6272008198879039
 40
0.6680935483563457
 40
0.7088465688949152
 40
0.7499117419419953
 40
0.7906598070785581
 40
0.8314128247103504
 40
0.8723055587885579
 40
0.9132316103230208
 40
0.954123109845537
 40
0.9946849337634256
 40
0.9999999999999999
 40
0.9999999999999999
 40
0.9999999999999999
 40
0.9999999999999999
 10
0.6082561123202922
 20
0.664143211393839
 30
0.0
 10
0.6081965482981477
 20
0.6632479817985147
 30
0.0
 10
0.6079719985274866
 20
0.6598730653123245
 30
0.0
 10
0.6094679203774244
 20
0.6540442781969379
 30
0.0
 10
0.6123863912599926
 20
0.6468128374363075
 30
0.0
 10
0.6170116656105648
 20
0.6398702022510203
 30
0.0
 10
0.6232327109885809
 20
0.6333723964398533
 30
0.0
 10
0.6307006533080122
 20
0.6273027782295456
 30
0.0
 10
0.6395527276221622
 20
0.6218639772994919
 30
0.0
 10
0.6495819914392864
 20
0.6171915396019766
 30
0.0
 10
0.6603951021351782
 20
0.6131635322782426
 30
0.0
 10
0.6721439462637084
 20
0.6101422383742682
 30
0.0
 10
0.6843928074123821
 20
0.6078737097665725
 30
0.0
 10
0.6970768110443278
 20
0.6064977270852936
 30
0.0
 10
0.7099718278538028
 20
0.6061980337745001
 30
0.0
 10
0.7227929460306985
 20
0.6068139220003625
 30
0.0
 10
0.735399930553725
 20
0.6083182642316186
 30
0.0
 10
0.7475487848971004
 20
0.6107861893453993
 30
0.0
 10
0.7591226493655089
 20
0.6140710349274561
 30
0.0
 10
0.7697746243712036
 20
0.6182855412765438
 30
0.0
 10
0.7794410295585412
 20
0.6232086844781253
 30
0.0
 10
0.7879639934279479
 20
0.6287909849250306
 30
0.0
 10
0.7952456572309317
 20
0.6349246821651575
 30
0.0
 10
0.8009360983783326
 20
0.6416049667846658
 30
0.0
 10
0.8052192113082854
 20
0.6486379321833364
 30
0.0
 10
0.8078247191290862
 20
0.6559020136457094
 30
0.0
 10
0.8088139754543633
 20
0.6611630547800054
 30
0.0
 10
0.8085731175736091
 20
0.6639386677880033
 30
0.0
 10
0.8085452129884139
 20
0.6642602363802712
 30
0.0
  0
SPLINE
  5
93
330
1F
100
AcDbEntity
  8
0
  6
Continuous
 62
     7
370
    25
100
AcDbSpline
210
0.0
220
0.0
230
1.0
 70
     8
 71
     3
 72
    13
 73
     9
 74
     0
 42
0.00000001
 43
0.00000001
 40
0.0
 40
0.0
 40
0.0
 40
0.0
 40
0.1534012818415398
 40
0.3295425101134892
 40
0.5058484686395444
 40
0.6807679846638742
 40
0.8563820945298216
 40
1.0
 40
1.0
 40
1.0
 40
1.0
 10
0.8085452129884139
 20
0.667608053630371
 30
0.0
 10
0.8084878997367866
 20
0.6697687005939869
 30
0.0
 10
0.8083647772140977
 20
0.6744102851707999
 30
0.0
 10
0.8059069509025866
 20
0.6814117755095604
 30
0.0
 10
0.8022170301544743
 20
0.6885310042797845
 30
0.0
 10
0.7967082006090414
 20
0.6952410663632692
 30
0.0
 10
0.7904750665282306
 20
0.7012206549771098
 30
0.0
 10
0.7853494662389362
 20
0.7046052502526977
 30
0.0
 10
0.7830435321769946
 20
0.7061279311273976
 30
0.0
  0
SPLINE
  5
94
330
1F
100
AcDbEntity
  8
0
  6
Continuous
 62
     7
370
    25
100
AcDbSpline
210
0.0
220
0.0
230
1.0
 70
     8
 71
     3
 72
    14
 73
    10
 74
     0
 42
0.00000001
 43
0.00000001
 40
0.0
 40
0.0
 40
0.0
 40
0.0
 40
0.0133286502781264
 40
0.1877720103192982
 40
0.3626407170710507
 40
0.5387739871204811
 40
0.7127109373100106
 40
0.8879668664790997
 40
1.0
 40
1.0
 40
1.0
 40
1.0
 10
0.6337356378505231
 20
0.7061892753675845
 30
0.0
 10
0.6335041914146035
 20
0.7060566979843541
 30
0.0
 10
0.6302436090115086
 20
0.7041889678502017
 30
0.0
 10
0.6250056466526617
 20
0.7000045271399015
 30
0.0
 10
0.618522277576613
 20
0.6935994166796874
 30
0.0
 10
0.6133865826863971
 20
0.6867731685156346
 30
0.0
 10
0.6100506164235608
 20
0.6795949820604106
 30
0.0
 10
0.6082728132406067
 20
0.6731347302951919
 30
0.0
 10
0.6082607979011422
 20
0.6690744156598537
 30
0.0
 10
0.6082561123202922
 20
0.6674910286439388
 30
0.0
  0
LINE
  5
95
330
1F
100
AcDbEntity
  8
0
  6
Continuous
 62
     7
370
    25
100
AcDbLine
 10
0.808545213
 20
0.6642602364
 30
0.0
 11
0.808545213
 21
0.6676080536
 31
0.0
  0
LINE
  5
96
330
1F
100
AcDbEntity
  8
0
  6
Continuous
 62
     7
370
    25
100
AcDbLine
 10
0.7830435322
 20
0.6675554554
 30
0.0
 11
0.7830435322
 21
0.8725071884
 31
0.0
  0
LINE
  5
97
330
1F
100
AcDbEntity
  8
0
  6
Continuous
 62
     7
370
    25
100
AcDbLine
 10
0.7817592374
 20
0.8714613121
 30
0.0
 11
0.7817592374
 21
0.8726439191
 31
0.0
  0
LINE
  5
98
330
1F
100
AcDbEntity
  8
0
  6
Continuous
 62
     7
370
    25
100
AcDbLine
 10
0.6350055827
 20
0.8725275822
 30
0.0
 11
0.6350055827
 21
0.8702658029
 31
0.0
  0
LINE
  5
99
330
1F
100
AcDbEntity
  8
0
  6
Continuous
 62
     7
370
    25
100
AcDbLine
 10
0.6337356379
 20
0.8726181161
 30
0.0
 11
0.6337356379
 21
0.6676663832
 31
0.0
  0
LINE
  5
9A
330
1F
100
AcDbEntity
  8
0
  6
Continuous
 62
     7
370
    25
100
AcDbLine
 10
0.6082561123
 20
0.6674910286
 30
0.0
 11
0.6082561123
 21
0.6641432114
 31
0.0
  0
LWPOLYLINE
  5
9B
330
1F
100
AcDbEntity
  8
0
  6
Continuous
 62
   144
370
    18
100
AcDbPolyline
 90
       21
 70
   128
 43
0.0
 10
0.6858649398
 20
1.5477729859
 10
0.6914510831
 20
1.5513250209
 10
0.6922289002
 20
1.5519376414
 10
0.6937845356
 20
1.5537342452
 10
0.6954815918
 20
1.5561840119
 10
0.6969665159
 20
1.5591644269
 10
0.6982393076
 20
1.5625123495
 10
0.6985928607
 20
1.5656560095
 10
0.6980271756
 20
1.5685139068
 10
0.6971786475
 20
1.5699019547
 10
0.6949866168
 20
1.573535413
 10
0.6932188497
 20
1.576025692
 10
0.6918046366
 20
1.578393403
 10
0.6906732657
 20
1.5805978491
 10
0.6900368693
 20
1.5825980853
 10
0.6898247377
 20
1.5843533897
 10
0.6901075799
 20
1.5859861793
 10
0.6683286918
 20
1.5725949262
 10
0.6688236657
 20
1.5737786546
 10
0.6696014832
 20
1.5743907628
 10
0.6696842805
 20
1.5743967222
  0
LWPOLYLINE
  5
9C
330
1F
100
AcDbEntity
  8
0
  6
Continuous
 62
   144
370
    18
100
AcDbPolyline
 90
       22
 70
   128
 43
0.0
 10
0.6696842805
 20
1.5743967222
 10
0.6696014832
 20
1.5743907628
 10
0.6688236657
 20
1.5737786546
 10
0.6683286918
 20
1.5725949262
 10
0.6901075799
 20
1.5859861793
 10
0.6898247377
 20
1.5843533897
 10
0.6900368693
 20
1.5825980853
 10
0.6906732657
 20
1.5805978491
 10
0.6918046366
 20
1.578393403
 10
0.6932188497
 20
1.576025692
 10
0.6949866168
 20
1.573535413
 10
0.6971786475
 20
1.5699019547
 10
0.6980271756
 20
1.5685139068
 10
0.6985928607
 20
1.5656560095
 10
0.6982393076
 20
1.5625123495
 10
0.6969665159
 20
1.5591644269
 10
0.6954815918
 20
1.5561840119
 10
0.6937845356
 20
1.5537342452
 10
0.6922289002
 20
1.5519376414
 10
0.6914510831
 20
1.5513250209
 10
0.6858649398
 20
1.5477729859
 10
0.6858649398
 20
1.5477729859
  0
LWPOLYLINE
  5
9D
330
1F
100
AcDbEntity
  8
0
  6
Continuous
 62
   144
370
    18
100
AcDbPolyline
 90
       16
 70
   128
 43
0.0
 10
0.6978857551
 20
1.5105394188
 10
0.7002899174
 20
1.5096413695
 10
0.7029062126
 20
1.5090290633
 10
0.705663929
 20
1.5086616799
 10
0.7064417464
 20
1.5086208596
 10
0.7084216454
 20
1.5085392185
 10
0.7112500723
 20
1.5087025002
 10
0.7140077893
 20
1.509069884
 10
0.7166240842
 20
1.50968219
 10
0.7189575371
 20
1.5105394181
 10
0.7211495678
 20
1.5115599285
 10
0.7229173351
 20
1.5128253608
 10
0.7244729694
 20
1.5142132549
 10
0.7255336294
 20
1.5157236099
 10
0.7261700257
 20
1.517315606
 10
0.726382158
 20
1.5189076018
  0
ARC
  5
9E
330
1F
100
AcDbEntity
  8
0
  6
Continuous
 62
   144
370
    18
100
AcDbCircle
 10
0.7011787485
 20
1.5209389259
 30
0.0
 40
0.0109084166689381
100
AcDbArc
 50
190.732051064
 51
252.4296618276
  0
LWPOLYLINE
  5
9F
330
1F
100
AcDbEntity
  8
0
  6
Continuous
 62
   144
370
    18
100
AcDbPolyline
 90
       11
 70
   128
 43
0.0
 10
0.7140077893
 20
1.1845765964
 10
0.7140077893
 20
1.1043106508
 10
0.7166240842
 20
1.1049229568
 10
0.7177554548
 20
1.1053311611
 10
0.7184625625
 20
1.1531804272
 10
0.7166240842
 20
1.1579981077
 10
0.7164119522
 20
1.161305076
 10
0.7178261654
 20
1.1659592889
 10
0.7177554548
 20
1.1855971068
 10
0.7166240842
 20
1.1851889024
 10
0.7140077893
 20
1.1845765964
  0
LWPOLYLINE
  5
A0
330
1F
100
AcDbEntity
  8
0
  6
Continuous
 62
   144
370
    18
100
AcDbPolyline
 90
       20
 70
   128
 43
0.0
 10
0.7263232436
 20
1.18195887
 10
0.7268771326
 20
1.1810635887
 10
0.7270185537
 20
1.1795124668
 10
0.7267357108
 20
1.1777163424
 10
0.7485146002
 20
1.1643250902
 10
0.7480903356
 20
1.1621206983
 10
0.7472418089
 20
1.159752942
 10
0.7461104373
 20
1.1572219186
 10
0.7448376459
 20
1.1546091729
 10
0.7217152528
 20
1.1688577771
 10
0.7200181966
 20
1.1664083351
 10
0.7185332729
 20
1.1638362708
 10
0.7179675875
 20
1.1609784221
 10
0.7183211406
 20
1.1577531214
 10
0.7195939325
 20
1.1544868665
 10
0.721220279
 20
1.1514247345
 10
0.7229880459
 20
1.1488524529
 10
0.7241194157
 20
1.1476275116
 10
0.7254629195
 20
1.1463616314
 10
0.7257324264
 20
1.1462777686
  0
LWPOLYLINE
  5
A1
330
1F
100
AcDbEntity
  8
0
  6
Continuous
 62
   144
370
    18
100
AcDbPolyline
 90
       21
 70
   128
 43
0.0
 10
0.6904611333
 20
1.2016815162
 10
0.6907439762
 20
1.2000487001
 10
0.6913803719
 20
1.1984567043
 10
0.6924410323
 20
1.1969463492
 10
0.6939259571
 20
1.1955992763
 10
0.6957644337
 20
1.1943746635
 10
0.6978857551
 20
1.1933133336
 10
0.7002899174
 20
1.1924152843
 10
0.7029062126
 20
1.1918029781
 10
0.705663929
 20
1.1914355947
 10
0.7084216454
 20
1.1913131333
 10
0.7112500723
 20
1.1914764151
 10
0.7140077893
 20
1.1918437989
 10
0.7166240842
 20
1.1924561048
 10
0.7189575371
 20
1.193313333
 10
0.7211495678
 20
1.1943338433
 10
0.7229173351
 20
1.1955992757
 10
0.7244729694
 20
1.1969871698
 10
0.7255336294
 20
1.1984975247
 10
0.7261700257
 20
1.2000895208
 10
0.726382158
 20
1.2016815166
  0
LWPOLYLINE
  5
A2
330
1F
100
AcDbEntity
  8
0
  6
Continuous
 62
   144
370
    18
100
AcDbPolyline
 90
       22
 70
   128
 43
0.0
 10
0.726382158
 20
1.2016815166
 10
0.7261700257
 20
1.2000895208
 10
0.7255336294
 20
1.1984975247
 10
0.7244729694
 20
1.1969871698
 10
0.7229173351
 20
1.1955992757
 10
0.7211495678
 20
1.1943338433
 10
0.7189575371
 20
1.193313333
 10
0.7166240842
 20
1.1924561048
 10
0.7140077893
 20
1.1918437989
 10
0.7112500723
 20
1.1914764151
 10
0.7084216454
 20
1.1913131333
 10
0.705663929
 20
1.1914355947
 10
0.7029062126
 20
1.1918029781
 10
0.7002899174
 20
1.1924152843
 10
0.6978857551
 20
1.1933133336
 10
0.6957644337
 20
1.1943746635
 10
0.6939259571
 20
1.1955992763
 10
0.6924410323
 20
1.1969463492
 10
0.6913803719
 20
1.1984567043
 10
0.6907439762
 20
1.2000487001
 10
0.6904611333
 20
1.2016815162
 10
0.6904611336
 20
1.2016815175
  0
LWPOLYLINE
  5
A3
330
1F
100
AcDbEntity
  8
0
  6
Continuous
 62
   144
370
    18
100
AcDbPolyline
 90
       16
 70
   128
 43
0.0
 10
0.7166240842
 20
1.1851889024
 10
0.7189575371
 20
1.1860461306
 10
0.7177554548
 20
1.1855971068
 10
0.7178261654
 20
1.1659592889
 10
0.7164119522
 20
1.161305076
 10
0.7166240842
 20
1.1579981077
 10
0.7184625625
 20
1.1531804272
 10
0.7177554548
 20
1.1053311611
 10
0.7189575371
 20
1.1057801849
 10
0.7211495678
 20
1.1068006953
 10
0.7229173351
 20
1.1080661277
 10
0.7244729694
 20
1.1094540218
 10
0.7255336294
 20
1.1109643767
 10
0.7261700257
 20
1.1125563728
 10
0.726382158
 20
1.1141483686
 10
0.726382158
 20
1.1141483686
  0
LWPOLYLINE
  5
A4
330
1F
100
AcDbEntity
  8
0
  6
Continuous
 62
   144
370
    18
100
AcDbPolyline
 90
       16
 70
   128
 43
0.0
 10
0.6904611336
 20
1.1141483695
 10
0.6907439762
 20
1.1125155521
 10
0.6913803719
 20
1.1109235563
 10
0.6924410323
 20
1.1094132012
 10
0.6939259571
 20
1.1080661283
 10
0.6957644337
 20
1.1068415155
 10
0.6978857551
 20
1.1057801856
 10
0.7002899174
 20
1.1048821363
 10
0.7029062126
 20
1.1042698301
 10
0.705663929
 20
1.1039024467
 10
0.7084216454
 20
1.1037799853
 10
0.7104015443
 20
1.1038616264
 10
0.7112500723
 20
1.1039432671
 10
0.7140077893
 20
1.1043106508
 10
0.7140077893
 20
1.1845765964
 10
0.7166240842
 20
1.1851889024
  0
LWPOLYLINE
  5
A5
330
1F
100
AcDbEntity
  8
0
  6
Continuous
 62
   144
370
    18
100
AcDbPolyline
 90
       13
 70
   128
 43
0.0
 10
0.7179675875
 20
1.1609784221
 10
0.7185332729
 20
1.1638362708
 10
0.7200181966
 20
1.1664083351
 10
0.7217152528
 20
1.1688577771
 10
0.7448376459
 20
1.1546091729
 10
0.7461104373
 20
1.1572219186
 10
0.7472418089
 20
1.159752942
 10
0.7480903356
 20
1.1621206983
 10
0.7485146002
 20
1.1643250902
 10
0.7267357108
 20
1.1777163424
 10
0.7270185537
 20
1.1795124668
 10
0.7268771326
 20
1.1810635887
 10
0.7263232436
 20
1.18195887
  0
LINE
  5
A6
330
1F
100
AcDbEntity
  8
0
  6
Continuous
 62
   144
370
    18
100
AcDbLine
 10
0.7257515232
 20
1.1462718262
 30
0.0
 11
0.7257133296
 21
1.1462837109
 31
0.0
  0
ARC
  5
A7
330
1F
100
AcDbEntity
  8
0
  6
Continuous
 62
   144
370
    18
100
AcDbCircle
 10
0.7384963165
 20
1.1623372399
 30
0.0
 40
0.0205736506687834
100
AcDbArc
 50
183.7869429687
 51
231.0981932231
  0
ENDSEC
  0
SECTION
  2
OBJECTS
  0
DICTIONARY
  5
C
330
0
100
AcDbDictionary
281
     1
  3
ACAD_GROUP
350
D
  3
ACAD_LAYOUT
350
1A
  3
ACAD_MLINESTYLE
350
17
  3
ACAD_PLOTSETTINGS
350
19
  3
ACAD_PLOTSTYLENAME
350
E
  3
ACAD_SCALELIST
350
47
  3
DWGPROPS
350
A8
  0
DICTIONARY
  5
D
102
{ACAD_REACTORS
330
C
102
}
330
C
100
AcDbDictionary
281
     1
  0
DICTIONARY
  5
1A
102
{ACAD_REACTORS
330
C
102
}
330
C
100
AcDbDictionary
281
     1
  3
Layout1
350
1E
  3
Layout2
350
26
  3
Model
350
22
  0
DICTIONARY
  5
17
102
{ACAD_REACTORS
330
C
102
}
330
C
100
AcDbDictionary
281
     1
  3
Standard
350
18
  0
DICTIONARY
  5
19
102
{ACAD_REACTORS
330
C
102
}
330
C
100
AcDbDictionary
281
     1
  0
ACDBDICTIONARYWDFLT
  5
E
102
{ACAD_REACTORS
330
C
102
}
330
C
100
AcDbDictionary
281
     1
  3
Normal
350
F
100
AcDbDictionaryWithDefault
340
F
  0
DICTIONARY
  5
47
102
{ACAD_REACTORS
330
C
102
}
330
C
100
AcDbDictionary
281
     1
  3
A0
350
48
  3
A1
350
49
  3
A2
350
4A
  3
A3
350
4B
  3
A4
350
4C
  3
A5
350
4D
  3
A6
350
4E
  3
A7
350
4F
  3
A8
350
50
  3
A9
350
51
  3
B0
350
52
  3
B1
350
53
  3
B2
350
54
  3
B3
350
55
  3
B4
350
56
  3
B5
350
57
  3
B6
350
58
  3
B7
350
59
  3
B8
350
5A
  3
B9
350
5B
  3
C0
350
5C
  3
C1
350
5D
  3
C2
350
5E
  3
C3
350
5F
  3
C4
350
60
  3
C5
350
61
  3
C6
350
62
  3
C7
350
63
  3
C8
350
64
  3
C9
350
65
  3
D0
350
66
  3
D1
350
67
  3
D2
350
68
  0
XRECORD
  5
A8
102
{ACAD_REACTORS
330
C
102
}
330
C
100
AcDbXrecord
280
     1
  1
DWGPROPS COOKIE
  2

  3

  4

  6

  7

  8
9222
  9

300
=
301
=
302
=
303
=
304
=
305
=
306
=
307
=
308
=
309
=
 40
0.0
 41
2459920.224313993
 42
2459920.224314224
  1

 90
        0
  0
LAYOUT
  5
1E
102
{ACAD_REACTORS
330
1A
102
}
330
1A
100
AcDbPlotSettings
  1

  2
none_device
  4

  6

 40
0.0
 41
0.0
 42
0.0
 43
0.0
 44
0.0
 45
0.0
 46
0.0
 47
0.0
 48
0.0
 49
0.0
140
0.0
141
0.0
142
1.0
143
1.0
 70
   688
 72
     1
 73
     0
 74
     5
  7

 75
    16
147
1.0
148
0.0
149
0.0
100
AcDbLayout
  1
Layout1
 70
     1
 71
     1
 10
0.0
 20
0.0
 11
420.0
 21
297.0
 12
0.0
 22
0.0
 32
0.0
 14
1.0000000000E+20
 24
1.0000000000E+20
 34
1.0000000000E+20
 15
-1.0000000000E+20
 25
-1.0000000000E+20
 35
-1.0000000000E+20
146
0.0
 13
0.0
 23
0.0
 33
0.0
 16
1.0
 26
0.0
 36
0.0
 17
0.0
 27
1.0
 37
0.0
 76
     0
330
1B
  0
LAYOUT
  5
26
102
{ACAD_REACTORS
330
1A
102
}
330
1A
100
AcDbPlotSettings
  1

  2
none_device
  4

  6

 40
0.0
 41
0.0
 42
0.0
 43
0.0
 44
0.0
 45
0.0
 46
0.0
 47
0.0
 48
0.0
 49
0.0
140
0.0
141
0.0
142
1.0
143
1.0
 70
   688
 72
     1
 73
     0
 74
     5
  7

 75
    16
147
1.0
148
0.0
149
0.0
100
AcDbLayout
  1
Layout2
 70
     1
 71
     2
 10
0.0
 20
0.0
 11
0.0
 21
0.0
 12
0.0
 22
0.0
 32
0.0
 14
0.0
 24
0.0
 34
0.0
 15
0.0
 25
0.0
 35
0.0
146
0.0
 13
0.0
 23
0.0
 33
0.0
 16
1.0
 26
0.0
 36
0.0
 17
0.0
 27
1.0
 37
0.0
 76
     0
330
23
  0
LAYOUT
  5
22
102
{ACAD_REACTORS
330
1A
102
}
330
1A
100
AcDbPlotSettings
  1

  2
none_device
  4
Letter_(8.50_x_11.00_Inches)
  6

 40
6.35
 41
6.35
 42
6.35000508
 43
6.35000508
 44
215.9
 45
279.4
 46
0.0
 47
0.0
 48
0.0
 49
0.0
140
0.0
141
0.0
142
1.0
143
1.0
 70
  1712
 72
     1
 73
     0
 74
     0
  7

 75
     0
147
1.0
148
0.0
149
0.0
100
AcDbLayout
  1
Model
 70
     1
 71
     0
 10
0.0
 20
0.0
 11
1.4
 21
1.98
 12
0.0
 22
0.0
 32
0.0
 14
0.0
 24
0.0
 34
0.0
 15
1.4
 25
1.98
 35
0.0
146
0.0
 13
0.0
 23
0.0
 33
0.0
 16
1.0
 26
0.0
 36
0.0
 17
0.0
 27
1.0
 37
0.0
 76
     0
330
1F
331
29
  0
MLINESTYLE
  5
18
102
{ACAD_REACTORS
330
17
102
}
330
17
100
AcDbMlineStyle
  2
Standard
 70
     0
  3

 62
   256
 51
90.0
 52
90.0
 71
     2
 49
0.5
 62
   256
  6
BYLAYER
 49
-0.5
 62
   256
  6
BYLAYER
  0
ACDBPLACEHOLDER
  5
F
102
{ACAD_REACTORS
330
E
102
}
330
E
  0
SCALE
  5
48
102
{ACAD_REACTORS
330
47
102
}
330
47
100
AcDbScale
 70
     0
300
1:1
140
1.0
141
1.0
290
     1
  0
SCALE
  5
49
102
{ACAD_REACTORS
330
47
102
}
330
47
100
AcDbScale
 70
     0
300
1:2
140
1.0
141
2.0
290
     0
  0
SCALE
  5
4A
102
{ACAD_REACTORS
330
47
102
}
330
47
100
AcDbScale
 70
     0
300
1:4
140
1.0
141
4.0
290
     0
  0
SCALE
  5
4B
102
{ACAD_REACTORS
330
47
102
}
330
47
100
AcDbScale
 70
     0
300
1:5
140
1.0
141
5.0
290
     0
  0
SCALE
  5
4C
102
{ACAD_REACTORS
330
47
102
}
330
47
100
AcDbScale
 70
     0
300
1:8
140
1.0
141
8.0
290
     0
  0
SCALE
  5
4D
102
{ACAD_REACTORS
330
47
102
}
330
47
100
AcDbScale
 70
     0
300
1:10
140
1.0
141
10.0
290
     0
  0
SCALE
  5
4E
102
{ACAD_REACTORS
330
47
102
}
330
47
100
AcDbScale
 70
     0
300
1:16
140
1.0
141
16.0
290
     0
  0
SCALE
  5
4F
102
{ACAD_REACTORS
330
47
102
}
330
47
100
AcDbScale
 70
     0
300
1:20
140
1.0
141
20.0
290
     0
  0
SCALE
  5
50
102
{ACAD_REACTORS
330
47
102
}
330
47
100
AcDbScale
 70
     0
300
1:30
140
1.0
141
30.0
290
     0
  0
SCALE
  5
51
102
{ACAD_REACTORS
330
47
102
}
330
47
100
AcDbScale
 70
     0
300
1:40
140
1.0
141
40.0
290
     0
  0
SCALE
  5
52
102
{ACAD_REACTORS
330
47
102
}
330
47
100
AcDbScale
 70
     0
300
1:50
140
1.0
141
50.0
290
     0
  0
SCALE
  5
53
102
{ACAD_REACTORS
330
47
102
}
330
47
100
AcDbScale
 70
     0
300
1:100
140
1.0
141
100.0
290
     0
  0
SCALE
  5
54
102
{ACAD_REACTORS
330
47
102
}
330
47
100
AcDbScale
 70
     0
300
2:1
140
2.0
141
1.0
290
     0
  0
SCALE
  5
55
102
{ACAD_REACTORS
330
47
102
}
330
47
100
AcDbScale
 70
     0
300
4:1
140
4.0
141
1.0
290
     0
  0
SCALE
  5
56
102
{ACAD_REACTORS
330
47
102
}
330
47
100
AcDbScale
 70
     0
300
8:1
140
8.0
141
1.0
290
     0
  0
SCALE
  5
57
102
{ACAD_REACTORS
330
47
102
}
330
47
100
AcDbScale
 70
     0
300
10:1
140
10.0
141
1.0
290
     0
  0
SCALE
  5
58
102
{ACAD_REACTORS
330
47
102
}
330
47
100
AcDbScale
 70
     0
300
100:1
140
100.0
141
1.0
290
     0
  0
SCALE
  5
59
102
{ACAD_REACTORS
330
47
102
}
330
47
100
AcDbScale
 70
     0
300
1/128" = 1'-0"
140
0.0078125
141
12.0
290
     0
  0
SCALE
  5
5A
102
{ACAD_REACTORS
330
47
102
}
330
47
100
AcDbScale
 70
     0
300
1/64" = 1'-0"
140
0.015625
141
12.0
290
     0
  0
SCALE
  5
5B
102
{ACAD_REACTORS
330
47
102
}
330
47
100
AcDbScale
 70
     0
300
1/32" = 1'-0"
140
0.03125
141
12.0
290
     0
  0
SCALE
  5
5C
102
{ACAD_REACTORS
330
47
102
}
330
47
100
AcDbScale
 70
     0
300
1/16" = 1'-0"
140
0.0625
141
12.0
290
     0
  0
SCALE
  5
5D
102
{ACAD_REACTORS
330
47
102
}
330
47
100
AcDbScale
 70
     0
300
3/32" = 1'-0"
140
0.09375
141
12.0
290
     0
  0
SCALE
  5
5E
102
{ACAD_REACTORS
330
47
102
}
330
47
100
AcDbScale
 70
     0
300
1/8" = 1'-0"
140
0.125
141
12.0
290
     0
  0
SCALE
  5
5F
102
{ACAD_REACTORS
330
47
102
}
330
47
100
AcDbScale
 70
     0
300
3/16" = 1'-0"
140
0.1875
141
12.0
290
     0
  0
SCALE
  5
60
102
{ACAD_REACTORS
330
47
102
}
330
47
100
AcDbScale
 70
     0
300
1/4" = 1'-0"
140
0.25
141
12.0
290
     0
  0
SCALE
  5
61
102
{ACAD_REACTORS
330
47
102
}
330
47
100
AcDbScale
 70
     0
300
3/8" = 1'-0"
140
0.375
141
12.0
290
     0
  0
SCALE
  5
62
102
{ACAD_REACTORS
330
47
102
}
330
47
100
AcDbScale
 70
     0
300
1/2" = 1'-0"
140
0.5
141
12.0
290
     0
  0
SCALE
  5
63
102
{ACAD_REACTORS
330
47
102
}
330
47
100
AcDbScale
 70
     0
300
3/4" = 1'-0"
140
0.75
141
12.0
290
     0
  0
SCALE
  5
64
102
{ACAD_REACTORS
330
47
102
}
330
47
100
AcDbScale
 70
     0
300
1" = 1'-0"
140
1.0
141
12.0
290
     0
  0
SCALE
  5
65
102
{ACAD_REACTORS
330
47
102
}
330
47
100
AcDbScale
 70
     0
300
1-1/2" = 1'-0"
140
1.5
141
12.0
290
     0
  0
SCALE
  5
66
102
{ACAD_REACTORS
330
47
102
}
330
47
100
AcDbScale
 70
     0
300
3" = 1'-0"
140
3.0
141
12.0
290
     0
  0
SCALE
  5
67
102
{ACAD_REACTORS
330
47
102
}
330
47
100
AcDbScale
 70
     0
300
6" = 1'-0"
140
6.0
141
12.0
290
     0
  0
SCALE
  5
68
102
{ACAD_REACTORS
330
47
102
}
330
47
100
AcDbScale
 70
     0
300
1'-0" = 1'-0"
140
12.0
141
12.0
290
     0
  0
ENDSEC
  0
EOF
