  0
SECTION
  2
HEADER
  9
$ACADVER
  1
AC1015
  9
$ACADMAINTVER
 70
     6
  9
$DWGCODEPAGE
  3
DOS932
  9
$INSBASE
 10
0.0
 20
0.0
 30
0.0
  9
$EXTMIN
 10
0.0
 20
0.0
 30
0.0
  9
$EXTMAX
 10
105.0
 20
148.5
 30
0.0
  9
$LIMMIN
 10
0.0
 20
0.0
  9
$LIMMAX
 10
105.0
 20
148.5
  9
$ORTHOMODE
 70
     0
  9
$REGENMODE
 70
     1
  9
$FILLMODE
 70
     1
  9
$QTEXTMODE
 70
     0
  9
$MIRRTEXT
 70
     1
  9
$LTSCALE
 40
0.5
  9
$ATTMODE
 70
     1
  9
$TEXTSIZE
 40
1.75
  9
$TRACEWID
 40
1.0
  9
$TEXTSTYLE
  7
Standard
  9
$CLAYER
  8
0
  9
$CELTYPE
  6
ByLayer
  9
$CECOLOR
 62
   256
  9
$CELTSCALE
 40
1.0
  9
$DISPSILH
 70
     0
  9
$DIMSCALE
 40
1.0
  9
$DIMASZ
 40
1.651
  9
$DIMEXO
 40
0.5
  9
$DIMDLI
 40
3.75
  9
$DIMRND
 40
0.0
  9
$DIMDLE
 40
0.0
  9
$DIMEXE
 40
0.5
  9
$DIMTP
 40
0.0
  9
$DIMTM
 40
0.0
  9
$DIMTXT
 40
1.75
  9
$DIMCEN
 40
2.5
  9
$DIMTSZ
 40
0.0
  9
$DIMTOL
 70
     0
  9
$DIMLIM
 70
     0
  9
$DIMTIH
 70
     1
  9
$DIMTOH
 70
     1
  9
$DIMSE1
 70
     0
  9
$DIMSE2
 70
     0
  9
$DIMTAD
 70
     1
  9
$DIMZIN
 70
     1
  9
$DIMBLK
  1

  9
$DIMASO
 70
     1
  9
$DIMSHO
 70
     1
  9
$DIMPOST
  1

  9
$DIMAPOST
  1

  9
$DIMALT
 70
     0
  9
$DIMALTD
 70
     3
  9
$DIMALTF
 40
0.0393700787
  9
$DIMLFAC
 40
1.0
  9
$DIMTOFL
 70
     1
  9
$DIMTVP
 40
0.0
  9
$DIMTIX
 70
     0
  9
$DIMSOXD
 70
     0
  9
$DIMSAH
 70
     0
  9
$DIMBLK1
  1

  9
$DIMBLK2
  1

  9
$DIMSTYLE
  2
ISO-25
  9
$DIMCLRD
 70
     0
  9
$DIMCLRE
 70
     0
  9
$DIMCLRT
 70
     0
  9
$DIMTFAC
 40
1.0
  9
$DIMGAP
 40
0.762
  9
$DIMJUST
 70
     0
  9
$DIMSD1
 70
     0
  9
$DIMSD2
 70
     0
  9
$DIMTOLJ
 70
     0
  9
$DIMTZIN
 70
     1
  9
$DIMALTZ
 70
     0
  9
$DIMALTTZ
 70
     0
  9
$DIMUPT
 70
     0
  9
$DIMDEC
 70
     2
  9
$DIMTDEC
 70
     2
  9
$DIMALTU
 70
     2
  9
$DIMALTTD
 70
     3
  9
$DIMTXSTY
  7
Standard
  9
$DIMAUNIT
 70
     0
  9
$DIMADEC
 70
     2
  9
$DIMALTRND
 40
0.0
  9
$DIMAZIN
 70
     0
  9
$DIMDSEP
 70
    44
  9
$DIMATFIT
 70
     3
  9
$DIMFRAC
 70
     0
  9
$DIMLDRBLK
  1

  9
$DIMLUNIT
 70
     2
  9
$DIMLWD
 70
    -2
  9
$DIMLWE
 70
    -2
  9
$DIMTMOVE
 70
     0
  9
$LUNITS
 70
     2
  9
$LUPREC
 70
     2
  9
$SKETCHINC
 40
1.0
  9
$FILLETRAD
 40
10.0
  9
$AUNITS
 70
     0
  9
$AUPREC
 70
     2
  9
$MENU
  1
.
  9
$ELEVATION
 40
0.0
  9
$PELEVATION
 40
0.0
  9
$THICKNESS
 40
0.0
  9
$LIMCHECK
 70
     0
  9
$CHAMFERA
 40
0.0
  9
$CHAMFERB
 40
0.0
  9
$CHAMFERC
 40
0.0
  9
$CHAMFERD
 40
0.0
  9
$SKPOLY
 70
     0
  9
$TDCREATE
 40
2459916.711216944
  9
$TDUCREATE
 40
2459916.336216944
  9
$TDUPDATE
 40
2459916.711217118
  9
$TDUUPDATE
 40
2459916.336217118
  9
$TDINDWG
 40
0.0000000116
  9
$TDUSRTIMER
 40
0.0000000116
  9
$USRTIMER
 70
     1
  9
$ANGBASE
 50
0.0
  9
$ANGDIR
 70
     0
  9
$PDMODE
 70
     0
  9
$PDSIZE
 40
-1.0
  9
$PLINEWID
 40
0.0
  9
$SPLFRAME
 70
     0
  9
$SPLINETYPE
 70
     6
  9
$SPLINESEGS
 70
     8
  9
$HANDSEED
  5
AF
  9
$SURFTAB1
 70
     6
  9
$SURFTAB2
 70
     6
  9
$SURFTYPE
 70
     6
  9
$SURFU
 70
     6
  9
$SURFV
 70
     6
  9
$UCSBASE
  2

  9
$UCSNAME
  2

  9
$UCSORG
 10
0.0
 20
0.0
 30
0.0
  9
$UCSXDIR
 10
1.0
 20
0.0
 30
0.0
  9
$UCSYDIR
 10
0.0
 20
1.0
 30
0.0
  9
$UCSORTHOREF
  2

  9
$UCSORTHOVIEW
 70
     0
  9
$UCSORGTOP
 10
0.0
 20
0.0
 30
0.0
  9
$UCSORGBOTTOM
 10
0.0
 20
0.0
 30
0.0
  9
$UCSORGLEFT
 10
0.0
 20
0.0
 30
0.0
  9
$UCSORGRIGHT
 10
0.0
 20
0.0
 30
0.0
  9
$UCSORGFRONT
 10
0.0
 20
0.0
 30
0.0
  9
$UCSORGBACK
 10
0.0
 20
0.0
 30
0.0
  9
$PUCSBASE
  2

  9
$PUCSNAME
  2

  9
$PUCSORG
 10
0.0
 20
0.0
 30
0.0
  9
$PUCSXDIR
 10
1.0
 20
0.0
 30
0.0
  9
$PUCSYDIR
 10
0.0
 20
1.0
 30
0.0
  9
$PUCSORTHOREF
  2

  9
$PUCSORTHOVIEW
 70
     0
  9
$PUCSORGTOP
 10
0.0
 20
0.0
 30
0.0
  9
$PUCSORGBOTTOM
 10
0.0
 20
0.0
 30
0.0
  9
$PUCSORGLEFT
 10
0.0
 20
0.0
 30
0.0
  9
$PUCSORGRIGHT
 10
0.0
 20
0.0
 30
0.0
  9
$PUCSORGFRONT
 10
0.0
 20
0.0
 30
0.0
  9
$PUCSORGBACK
 10
0.0
 20
0.0
 30
0.0
  9
$USERI1
 70
     0
  9
$USERI2
 70
     0
  9
$USERI3
 70
     0
  9
$USERI4
 70
     0
  9
$USERI5
 70
     0
  9
$USERR1
 40
0.0
  9
$USERR2
 40
0.0
  9
$USERR3
 40
0.0
  9
$USERR4
 40
0.0
  9
$USERR5
 40
0.0
  9
$WORLDVIEW
 70
     1
  9
$SHADEDGE
 70
     3
  9
$SHADEDIF
 70
    70
  9
$TILEMODE
 70
     1
  9
$MAXACTVP
 70
    64
  9
$PINSBASE
 10
0.0
 20
0.0
 30
0.0
  9
$PLIMCHECK
 70
     0
  9
$PEXTMIN
 10
1.0000000000E+20
 20
1.0000000000E+20
 30
1.0000000000E+20
  9
$PEXTMAX
 10
-1.0000000000E+20
 20
-1.0000000000E+20
 30
-1.0000000000E+20
  9
$PLIMMIN
 10
0.0
 20
0.0
  9
$PLIMMAX
 10
420.0
 20
297.0
  9
$UNITMODE
 70
     0
  9
$VISRETAIN
 70
     1
  9
$PLINEGEN
 70
     0
  9
$PSLTSCALE
 70
     1
  9
$TREEDEPTH
 70
  3020
  9
$CMLSTYLE
  2
Standard
  9
$CMLJUST
 70
     0
  9
$CMLSCALE
 40
20.0
  9
$PROXYGRAPHICS
 70
     1
  9
$MEASUREMENT
 70
     1
  9
$CELWEIGHT
370
    -1
  9
$ENDCAPS
280
     0
  9
$JOINSTYLE
280
     0
  9
$LWDISPLAY
290
     1
  9
$INSUNITS
 70
     4
  9
$HYPERLINKBASE
  1

  9
$STYLESHEET
  1

  9
$XEDIT
290
     1
  9
$CEPSNTYPE
380
     0
  9
$PSTYLEMODE
290
     1
  9
$FINGERPRINTGUID
  2
{b7ca7068-0926-495e-ae58-f99b7e717dd0}
  9
$VERSIONGUID
  2
{FAEB1C32-E019-11D5-929B-00C0DF256EC4}
  9
$EXTNAMES
290
     1
  9
$PSVPSCALE
 40
0.0
  9
$OLESTARTUP
290
     0
  0
ENDSEC
  0
SECTION
  2
CLASSES
  0
CLASS
  1
ACDBDICTIONARYWDFLT
  2
AcDbDictionaryWithDefault
  3
ObjectDBX Classes
 90
        0
280
     0
281
     0
  0
CLASS
  1
VISUALSTYLE
  2
AcDbVisualStyle
  3
ObjectDBX Classes
 90
     4095
280
     0
281
     0
  0
CLASS
  1
MATERIAL
  2
AcDbMaterial
  3
ObjectDBX Classes
 90
     1153
280
     0
281
     0
  0
CLASS
  1
SCALE
  2
AcDbScale
  3
ObjectDBX Classes
 90
     1153
280
     0
281
     0
  0
CLASS
  1
TABLESTYLE
  2
AcDbTableStyle
  3
ObjectDBX Classes
 90
     4095
280
     0
281
     0
  0
CLASS
  1
MLEADERSTYLE
  2
AcDbMLeaderStyle
  3
ACDB_MLEADERSTYLE_CLASS
 90
     4095
280
     0
281
     0
  0
CLASS
  1
SUN
  2
AcDbSun
  3
SCENEOE
 90
     1153
280
     0
281
     0
  0
CLASS
  1
ACDBPLACEHOLDER
  2
AcDbPlaceHolder
  3
ObjectDBX Classes
 90
        0
280
     0
281
     0
  0
CLASS
  1
LAYOUT
  2
AcDbLayout
  3
ObjectDBX Classes
 90
        0
280
     0
281
     0
  0
ENDSEC
  0
SECTION
  2
TABLES
  0
TABLE
  2
VPORT
  5
8
330
0
100
AcDbSymbolTable
 70
     1
  0
VPORT
  5
29
330
8
100
AcDbSymbolTableRecord
100
AcDbViewportTableRecord
  2
*Active
 70
     0
 10
0.0
 20
0.0
 11
1.0
 21
1.0
 12
52.5
 22
74.25
 13
0.0
 23
0.0
 14
10.0
 24
10.0
 15
10.0
 25
10.0
 16
0.0
 26
0.0
 36
1.0
 17
0.0
 27
0.0
 37
0.0
 40
148.5
 41
0.7070707071
 42
50.0
 43
0.0
 44
0.0
 50
0.0
 51
0.0
 71
     0
 72
  2000
 73
     1
 74
     3
 75
     0
 76
     0
 77
     0
 78
     0
281
     0
 65
     1
110
0.0
120
0.0
130
0.0
111
1.0
121
0.0
131
0.0
112
0.0
122
1.0
132
0.0
 79
     0
146
0.0
  0
ENDTAB
  0
TABLE
  2
LTYPE
  5
5
330
0
100
AcDbSymbolTable
 70
     6
  0
LTYPE
  5
14
330
5
100
AcDbSymbolTableRecord
100
AcDbLinetypeTableRecord
  2
ByBlock
 70
     0
  3

 72
    65
 73
     0
 40
0.0
  0
LTYPE
  5
15
330
5
100
AcDbSymbolTableRecord
100
AcDbLinetypeTableRecord
  2
ByLayer
 70
     0
  3

 72
    65
 73
     0
 40
0.0
  0
LTYPE
  5
16
330
5
100
AcDbSymbolTableRecord
100
AcDbLinetypeTableRecord
  2
Continuous
 70
     0
  3
Solid line
 72
    65
 73
     0
 40
0.0
  0
LTYPE
  5
6E
330
5
100
AcDbSymbolTableRecord
100
AcDbLinetypeTableRecord
  2
HIDDEN
 70
     0
  3
Hidden __ __ __ __ __ __ __ __ __ __ __ __ __ __
 72
    65
 73
     2
 40
1.905
 49
1.27
 74
     0
 49
-0.635
 74
     0
  0
LTYPE
  5
6F
330
5
100
AcDbSymbolTableRecord
100
AcDbLinetypeTableRecord
  2
PHANTOM
 70
     0
  3
Phantom ______  __  __  ______  __  __  ______
 72
    65
 73
     6
 40
12.7
 49
6.35
 74
     0
 49
-1.27
 74
     0
 49
1.27
 74
     0
 49
-1.27
 74
     0
 49
1.27
 74
     0
 49
-1.27
 74
     0
  0
LTYPE
  5
70
330
5
100
AcDbSymbolTableRecord
100
AcDbLinetypeTableRecord
  2
CENTER
 70
     0
  3
Center ____ _ ____ _ ____ _ ____ _ ____ _ ____
 72
    65
 73
     4
 40
10.16
 49
6.35
 74
     0
 49
-1.27
 74
     0
 49
1.27
 74
     0
 49
-1.27
 74
     0
  0
LTYPE
  5
71
330
5
100
AcDbSymbolTableRecord
100
AcDbLinetypeTableRecord
  2
CENTERX2
 70
     0
  3
Center (2x) ________  __  ________  __  _____
 72
    65
 73
     4
 40
20.32
 49
12.7
 74
     0
 49
-2.54
 74
     0
 49
2.54
 74
     0
 49
-2.54
 74
     0
  0
LTYPE
  5
72
330
5
100
AcDbSymbolTableRecord
100
AcDbLinetypeTableRecord
  2
DOT2
 70
     0
  3
Dot (.5x) ........................................
 72
    65
 73
     2
 40
0.635
 49
0.0
 74
     0
 49
-0.635
 74
     0
  0
ENDTAB
  0
TABLE
  2
LAYER
  5
2
330
0
100
AcDbSymbolTable
 70
     1
  0
LAYER
  5
10
330
2
100
AcDbSymbolTableRecord
100
AcDbLayerTableRecord
  2
0
 70
     0
 62
     7
  6
Continuous
370
    -3
390
F
  0
ENDTAB
  0
TABLE
  2
STYLE
  5
3
330
0
100
AcDbSymbolTable
 70
     2
  0
STYLE
  5
11
330
3
100
AcDbSymbolTableRecord
100
AcDbTextStyleTableRecord
  2
Standard
 70
     0
 40
0.0
 41
1.0
 50
0.0
 71
     0
 42
1.75
  3
txt
  4
bigfont
  0
STYLE
  5
76
330
3
100
AcDbSymbolTableRecord
100
AcDbTextStyleTableRecord
  2
SLDTEXTSTYLE0
 70
     0
 40
0.0
 41
0.7
 50
0.0
 71
     0
 42
1.75
  3
TXT
  4
bigfont
  0
ENDTAB
  0
TABLE
  2
VIEW
  5
6
330
0
100
AcDbSymbolTable
 70
     0
  0
ENDTAB
  0
TABLE
  2
UCS
  5
7
330
0
100
AcDbSymbolTable
 70
     0
  0
ENDTAB
  0
TABLE
  2
APPID
  5
9
330
0
100
AcDbSymbolTable
 70
     1
  0
APPID
  5
12
330
9
100
AcDbSymbolTableRecord
100
AcDbRegAppTableRecord
  2
ACAD
 70
     0
  0
ENDTAB
  0
TABLE
  2
DIMSTYLE
  5
A
330
0
100
AcDbSymbolTable
 70
     1
100
AcDbDimStyleTable
  0
DIMSTYLE
105
27
330
A
100
AcDbSymbolTableRecord
100
AcDbDimStyleTableRecord
  2
ISO-25
 70
     0
 41
2.5
 42
0.625
 43
3.75
 44
1.25
 73
     0
 74
     0
 77
     1
 78
     8
140
2.5
141
2.5
143
0.0393700787
147
0.625
171
     3
172
     1
178
     0
271
     2
272
     2
274
     3
278
    44
283
     0
284
     8
340
11
  0
ENDTAB
  0
TABLE
  2
BLOCK_RECORD
  5
1
330
0
100
AcDbSymbolTable
 70
     2
  0
BLOCK_RECORD
  5
1F
330
1
100
AcDbSymbolTableRecord
100
AcDbBlockTableRecord
  2
*Model_Space
340
22
  0
BLOCK_RECORD
  5
1B
330
1
100
AcDbSymbolTableRecord
100
AcDbBlockTableRecord
  2
*Paper_Space
340
1E
  0
BLOCK_RECORD
  5
23
330
1
100
AcDbSymbolTableRecord
100
AcDbBlockTableRecord
  2
*Paper_Space0
340
26
  0
BLOCK_RECORD
  5
73
330
1
100
AcDbSymbolTableRecord
100
AcDbBlockTableRecord
  2
SW_NOTE_0
340
0
102
{BLKREFS
331
7A
102
}
  0
ENDTAB
  0
ENDSEC
  0
SECTION
  2
BLOCKS
  0
BLOCK
  5
20
330
1F
100
AcDbEntity
  8
0
100
AcDbBlockBegin
  2
*Model_Space
 70
     0
 10
0.0
 20
0.0
 30
0.0
  3
*Model_Space
  1

  0
ENDBLK
  5
21
330
1F
100
AcDbEntity
  8
0
100
AcDbBlockEnd
  0
BLOCK
  5
1C
330
1B
100
AcDbEntity
 67
     1
  8
0
100
AcDbBlockBegin
  2
*Paper_Space
 70
     0
 10
0.0
 20
0.0
 30
0.0
  3
*Paper_Space
  1

  0
ENDBLK
  5
1D
330
1B
100
AcDbEntity
 67
     1
  8
0
100
AcDbBlockEnd
  0
BLOCK
  5
24
330
23
100
AcDbEntity
  8
0
100
AcDbBlockBegin
  2
*Paper_Space0
 70
     0
 10
0.0
 20
0.0
 30
0.0
  3
*Paper_Space0
  1

  0
ENDBLK
  5
25
330
23
100
AcDbEntity
  8
0
100
AcDbBlockEnd
  0
BLOCK
  5
74
330
73
100
AcDbEntity
  8
0
100
AcDbBlockBegin
  2
SW_NOTE_0
 70
     0
 10
0.0
 20
0.0
 30
0.0
  3
SW_NOTE_0
  1

  0
MTEXT
  5
77
330
73
100
AcDbEntity
  8
0
  6
Continuous
 62
     0
370
     0
100
AcDbMText
 10
0.0
 20
3.4106583948
 30
0.0
 40
2.6458333333
 41
0.0
 71
     1
 72
     1
  1
HOA-D11K
  7
SLDTEXTSTYLE0
 73
     1
 44
1.0
  0
MTEXT
  5
78
330
73
100
AcDbEntity
  8
0
  6
Continuous
 62
     0
370
     0
100
AcDbMText
 10
0.0
 20
-0.6171194223
 30
0.0
 40
2.6458333333
 41
0.0
 71
     1
 72
     1
  1
HOA-D11O
  7
SLDTEXTSTYLE0
 73
     1
 44
1.0
  0
MTEXT
  5
79
330
73
100
AcDbEntity
  8
0
  6
Continuous
 62
     0
370
     0
100
AcDbMText
 10
0.0
 20
-4.6448972394
 30
0.0
 40
2.6458333333
 41
0.0
 71
     1
 72
     1
  1
HOA-D11W
  7
SLDTEXTSTYLE0
 73
     1
 44
1.0
  0
ENDBLK
  5
75
330
73
100
AcDbEntity
  8
0
100
AcDbBlockEnd
  0
ENDSEC
  0
SECTION
  2
ENTITIES
  0
INSERT
  5
7A
330
1F
100
AcDbEntity
  8
0
  6
Continuous
 62
     7
370
     0
100
AcDbBlockReference
  2
SW_NOTE_0
 10
72.7781665491
 20
31.6643805812
 30
0.0
  0
SPLINE
  5
7B
330
1F
100
AcDbEntity
  8
0
  6
Continuous
 62
     7
370
    25
100
AcDbSpline
210
0.0
220
0.0
230
1.0
 70
     8
 71
     3
 72
    18
 73
    14
 74
     0
 42
0.00000001
 43
0.00000001
 40
0.0
 40
0.0
 40
0.0
 40
0.0
 40
0.033655190620762
 40
0.1303039253897866
 40
0.2269244246336808
 40
0.3235785580602519
 40
0.4202017734683919
 40
0.5168320784695727
 40
0.613443554303538
 40
0.7100937500567585
 40
0.8067310046096071
 40
0.9033468781923721
 40
1.0
 40
1.0
 40
1.0
 40
1.0
 10
54.89789929823412
 20
128.1264471828236
 30
0.0
 10
54.92438348157454
 20
128.1177978442035
 30
0.0
 10
55.02692317861226
 20
128.0843099110367
 30
0.0
 10
55.21940460370889
 20
128.0821619264394
 30
0.0
 10
55.46449699987129
 20
128.1215765215027
 30
0.0
 10
55.70475639422098
 20
128.219112735616
 30
0.0
 10
55.93023001445519
 20
128.3663482845973
 30
0.0
 10
56.13313276273466
 20
128.5593798470323
 30
0.0
 10
56.30599296052644
 20
128.7907768877322
 30
0.0
 10
56.44279604169768
 20
129.0524729789018
 30
0.0
 10
56.5375821634376
 20
129.3346198348925
 30
0.0
 10
56.59098615808877
 20
129.6280565609474
 30
0.0
 10
56.58737066299256
 20
129.8216837873544
 30
0.0
 10
56.58556256704203
 20
129.9185160591909
 30
0.0
  0
SPLINE
  5
7C
330
1F
100
AcDbEntity
  8
0
  6
Continuous
 62
     7
370
    25
100
AcDbSpline
210
0.0
220
0.0
230
1.0
 70
     8
 71
     3
 72
    11
 73
     7
 74
     0
 42
0.00000001
 43
0.00000001
 40
0.0
 40
0.0
 40
0.0
 40
0.0
 40
0.1420496752088391
 40
0.2840516419762978
 40
0.2877187534121463
 40
1.0
 40
1.0
 40
1.0
 40
1.0
 10
56.16257129522297
 20
130.878925592947
 30
0.0
 10
56.09851857306004
 20
130.9297980192029
 30
0.0
 10
55.970434641318
 20
131.0315257858314
 30
0.0
 10
55.82223233746642
 20
131.1066759615639
 30
0.0
 10
55.34516986627626
 20
131.1882083394896
 30
0.0
 10
55.12270379855268
 20
131.2769987047808
 30
0.0
 10
54.90137720946873
 20
131.3653342828511
 30
0.0
  0
SPLINE
  5
7D
330
1F
100
AcDbEntity
  8
0
  6
Continuous
 62
     7
370
    25
100
AcDbSpline
210
0.0
220
0.0
230
1.0
 70
    11
 71
     3
 72
    10
 73
     6
 74
     0
 42
0.00000001
 43
0.00000001
 40
0.0
 40
0.0
 40
0.0
 40
0.0
 40
0.2853442771405754
 40
0.5045754695024655
 40
1.0
 40
1.0
 40
1.0
 40
1.0
 10
54.85145387656221
 20
129.9908929185947
 30
0.0
 10
54.83406295972884
 20
129.825276811744
 30
0.0
 10
54.80331052931667
 20
129.5324171626607
 30
0.0
 10
54.82554941905219
 20
128.8735816781373
 30
0.0
 10
54.8408482132898
 20
129.5334493769886
 30
0.0
 10
54.85145387656221
 20
129.9908929185947
 30
0.0
  0
SPLINE
  5
7E
330
1F
100
AcDbEntity
  8
0
  6
Continuous
 62
     7
370
    25
100
AcDbSpline
210
0.0
220
0.0
230
1.0
 70
    11
 71
     3
 72
    10
 73
     6
 74
     0
 42
0.00000001
 43
0.00000001
 40
0.0
 40
0.0
 40
0.0
 40
0.0
 40
0.1463578996176811
 40
0.5000000364775039
 40
1.0
 40
1.0
 40
1.0
 40
1.0
 10
54.56288363496794
 20
131.5888806384317
 30
0.0
 10
54.54618099303915
 20
131.577616366392
 30
0.0
 10
54.48912003769968
 20
131.5391344228453
 30
0.0
 10
54.29351641920864
 20
131.4067552537017
 30
0.0
 10
54.4633864328307
 20
131.5216082861978
 30
0.0
 10
54.56288363496794
 20
131.5888806384317
 30
0.0
  0
SPLINE
  5
7F
330
1F
100
AcDbEntity
  8
0
  6
Continuous
 62
     7
370
    25
100
AcDbSpline
210
0.0
220
0.0
230
1.0
 70
     8
 71
     3
 72
    28
 73
    24
 74
     0
 42
0.00000001
 43
0.00000001
 40
0.0
 40
0.0
 40
0.0
 40
0.0
 40
0.0000431121972549
 40
0.0500406003197426
 40
0.1000340098861958
 40
0.1500383153247559
 40
0.2000234707831214
 40
0.2500261166666642
 40
0.300028762550207
 40
0.3500311775753279
 40
0.4000354830138879
 40
0.4500288835616619
 40
0.5000128886451576
 40
0.5500219169990012
 40
0.6000153175467753
 40
0.6500128388930367
 40
0.7000193952473088
 40
0.7500043479106838
 40
0.8000069894163736
 40
0.8500135457706458
 40
0.9000110671169071
 40
0.9500044676646812
 40
1.0
 40
1.0
 40
1.0
 40
1.0
 10
54.9058113538761
 20
132.9262172695169
 30
0.0
 10
54.90581771891556
 20
132.926263873764
 30
0.0
 10
54.91320566050813
 20
132.9803577185532
 30
0.0
 10
54.88748005612515
 20
133.0892628173524
 30
0.0
 10
54.82579631317989
 20
133.2479303439819
 30
0.0
 10
54.71650487046036
 20
133.3988746047125
 30
0.0
 10
54.5688936153395
 20
133.5380768524839
 30
0.0
 10
54.38510594352778
 20
133.6622722202332
 30
0.0
 10
54.16996816317775
 20
133.7683282914636
 30
0.0
 10
53.92880695485472
 20
133.8537534036129
 30
0.0
 10
53.66736251328404
 20
133.9161723250084
 30
0.0
 10
53.39231441364463
 20
133.9543041714278
 30
0.0
 10
53.11029700395743
 20
133.9671510964051
 30
0.0
 10
52.82828485792053
 20
133.954304779962
 30
0.0
 10
52.55318054196942
 20
133.9161970882551
 30
0.0
 10
52.29182385423338
 20
133.8536714578635
 30
0.0
 10
52.05059895463884
 20
133.7683637527724
 30
0.0
 10
51.83547422516238
 20
133.6622913249697
 30
0.0
 10
51.6517737176588
 20
133.5381125050466
 30
0.0
 10
51.5038003861545
 20
133.398838021111
 30
0.0
 10
51.39617280265681
 20
133.2479602008802
 30
0.0
 10
51.32762309217311
 20
133.089161302589
 30
0.0
 10
51.31911398798754
 20
132.9806258947845
 30
0.0
 10
51.3148593451867
 20
132.9263570338821
 30
0.0
  0
LINE
  5
80
330
1F
100
AcDbEntity
  8
0
  6
Continuous
 62
     7
370
    25
100
AcDbLine
 10
51.3148593452
 20
132.9263570339
 30
0.0
 11
51.3148593452
 21
124.1692010311
 31
0.0
  0
SPLINE
  5
81
330
1F
100
AcDbEntity
  8
0
  6
Continuous
 62
     7
370
    25
100
AcDbSpline
210
0.0
220
0.0
230
1.0
 70
     8
 71
     3
 72
    11
 73
     7
 74
     0
 42
0.00000001
 43
0.00000001
 40
0.0
 40
0.0
 40
0.0
 40
0.0
 40
0.00114844882002
 40
0.1738998703512923
 40
0.9966987040409542
 40
1.0
 40
1.0
 40
1.0
 40
1.0
 10
54.90581406716581
 20
124.1690811489123
 30
0.0
 10
54.90581555655037
 20
124.170663594339
 30
0.0
 10
54.90604108143054
 20
124.4102798922032
 30
0.0
 10
54.90109090474627
 20
125.7996488814105
 30
0.0
 10
54.89854938723626
 20
127.1919139637736
 30
0.0
 10
54.89750008249294
 20
128.3301435654304
 30
0.0
 10
54.89749588921735
 20
128.3346922062665
 30
0.0
  0
LINE
  5
82
330
1F
100
AcDbEntity
  8
0
  6
Continuous
 62
     7
370
    25
100
AcDbLine
 10
54.6896952478
 20
128.1925397234
 30
0.0
 11
54.7356639205
 21
128.1869202268
 31
0.0
  0
LWPOLYLINE
  5
83
330
1F
100
AcDbEntity
  8
0
  6
Continuous
 62
     7
370
    25
100
AcDbPolyline
 90
        6
 70
   128
 43
0.0
 10
54.8972877788
 20
130.6037481893
 10
54.9058275944
 20
132.1941418994
 10
54.9058108471
 20
132.1980225196
 10
54.9058113458
 20
132.9255891812
 10
54.9058113539
 20
132.9262172695
 10
54.9058113539
 20
132.9262172695
  0
SPLINE
  5
84
330
1F
100
AcDbEntity
  8
0
  6
Continuous
 62
     7
370
    25
100
AcDbSpline
210
0.0
220
0.0
230
1.0
 70
     8
 71
     3
 72
     9
 73
     5
 74
     0
 42
0.00000001
 43
0.00000001
 40
0.0
 40
0.0
 40
0.0
 40
0.0
 40
0.5425059973581214
 40
1.0
 40
1.0
 40
1.0
 40
1.0
 10
54.90581135387642
 20
124.1690612667551
 30
0.0
 10
54.90582117016947
 20
124.169107871366
 30
0.0
 10
54.90583926451882
 20
124.1691937775331
 30
0.0
 10
54.90582212832977
 20
124.1692796809546
 30
0.0
 10
54.90581428862606
 20
124.1693189812547
 30
0.0
  0
LINE
  5
85
330
1F
100
AcDbEntity
  8
0
  6
Continuous
 62
     7
370
    25
100
AcDbLine
 10
51.3148593452
 20
124.1692010311
 30
0.0
 11
51.3148593452
 21
92.34860771
 31
0.0
  0
LINE
  5
86
330
1F
100
AcDbEntity
  8
0
  6
Continuous
 62
     7
370
    25
100
AcDbLine
 10
54.9058113539
 20
92.3484679457
 30
0.0
 11
54.9058113539
 21
124.1690612668
 31
0.0
  0
SPLINE
  5
87
330
1F
100
AcDbEntity
  8
0
  6
Continuous
 62
     7
370
    25
100
AcDbSpline
210
0.0
220
0.0
230
1.0
 70
     8
 71
     3
 72
    10
 73
     6
 74
     0
 42
0.00000001
 43
0.00000001
 40
0.0
 40
0.0
 40
0.0
 40
0.0
 40
0.401265758988935
 40
0.8023294722980769
 40
1.0
 40
1.0
 40
1.0
 40
1.0
 10
52.01150089530059
 20
85.67529766970533
 30
0.0
 10
52.05016030284791
 20
85.6611838275141
 30
0.0
 10
52.12745965212442
 20
85.63296324974556
 30
0.0
 10
52.18533413829785
 20
85.62681788967168
 30
0.0
 10
52.19164431076043
 20
85.64298977322504
 30
0.0
 10
52.1937275975263
 20
85.64832887785104
 30
0.0
  0
SPLINE
  5
88
330
1F
100
AcDbEntity
  8
0
  6
Continuous
 62
     7
370
    25
100
AcDbSpline
210
0.0
220
0.0
230
1.0
 70
     8
 71
     3
 72
    24
 73
    20
 74
     0
 42
0.00000001
 43
0.00000001
 40
0.0
 40
0.0
 40
0.0
 40
0.0
 40
0.0487744982360688
 40
0.110945163208983
 40
0.1731054363958037
 40
0.2352891009238622
 40
0.2974413113731031
 40
0.359617391877453
 40
0.4217780435807167
 40
0.4839383294727031
 40
0.5461089832091571
 40
0.6082897116996954
 40
0.6704449333544081
 40
0.7326226680161914
 40
0.7947863276882732
 40
0.8569532908887629
 40
0.9191084405718093
 40
0.9812918500827326
 40
0.9999999999999999
 40
0.9999999999999999
 40
0.9999999999999999
 40
0.9999999999999999
 10
49.80368693613343
 20
87.30860880990146
 30
0.0
 10
49.81133626381577
 20
87.31276431126747
 30
0.0
 10
49.82873584636088
 20
87.32221664381709
 30
0.0
 10
49.90307734446871
 20
87.30290899884923
 30
0.0
 10
50.01522859562203
 20
87.25763923212665
 30
0.0
 10
50.16121389454914
 20
87.1852480848917
 30
0.0
 10
50.33420924052709
 20
87.08942185933864
 30
0.0
 10
50.52831951953304
 20
86.97333291688675
 30
0.0
 10
50.73648870063288
 20
86.84123456340792
 30
0.0
 10
50.95118123319045
 20
86.69795084595188
 30
0.0
 10
51.16477433008219
 20
86.54873987390935
 30
0.0
 10
51.36931858823183
 20
86.39874600192789
 30
0.0
 10
51.5575149174656
 20
86.25350630301845
 30
0.0
 10
51.72262817694637
 20
86.11832289834734
 30
0.0
 10
51.85852751533517
 20
85.99823415468698
 30
0.0
 10
51.96106507885185
 20
85.89690990544264
 30
0.0
 10
52.0229633498624
 20
85.82039245480215
 30
0.0
 10
52.04831057459294
 20
85.77555500082912
 30
0.0
 10
52.03936904651568
 20
85.76613029485311
 30
0.0
 10
52.0373010996379
 20
85.7639506012785
 30
0.0
  0
SPLINE
  5
89
330
1F
100
AcDbEntity
  8
0
  6
Continuous
 62
     7
370
    25
100
AcDbSpline
210
0.0
220
0.0
230
1.0
 70
     8
 71
     3
 72
    19
 73
    15
 74
     0
 42
0.00000001
 43
0.00000001
 40
0.0
 40
0.0
 40
0.0
 40
0.0
 40
0.083337272688715
 40
0.1666577550423625
 40
0.2499975625397683
 40
0.3333245663962136
 40
0.4166637868886522
 40
0.4999967389012644
 40
0.5833236236731361
 40
0.6666617441227252
 40
0.7499978412423427
 40
0.8333205982305196
 40
0.9166549647381732
 40
0.9999999999999999
 40
0.9999999999999999
 40
0.9999999999999999
 40
0.9999999999999999
 10
49.63512729639703
 20
87.41738780699038
 30
0.0
 10
49.63328984620956
 20
87.40491472360999
 30
0.0
 10
49.62961531603399
 20
87.3799710698574
 30
0.0
 10
49.68304793397638
 20
87.3031446590516
 30
0.0
 10
49.77779246256679
 20
87.20088788380531
 30
0.0
 10
49.91468485504465
 20
87.07381533685755
 30
0.0
 10
50.08745085735159
 20
86.92705620673927
 30
0.0
 10
50.2903851999674
 20
86.76618958733202
 30
0.0
 10
50.5158810584137
 20
86.59663531650311
 30
0.0
 10
50.75597818653898
 20
86.42493512526421
 30
0.0
 10
51.00190277197193
 20
86.25671449222808
 30
0.0
 10
51.2442976206062
 20
86.09900975148267
 30
0.0
 10
51.47696309552573
 20
85.95518381498513
 30
0.0
 10
51.61359711911802
 20
85.87757499104599
 30
0.0
 10
51.68191850372447
 20
85.83876809529782
 30
0.0
  0
SPLINE
  5
8A
330
1F
100
AcDbEntity
  8
0
  6
Continuous
 62
     7
370
    25
100
AcDbSpline
210
0.0
220
0.0
230
1.0
 70
     8
 71
     3
 72
     9
 73
     5
 74
     0
 42
0.00000001
 43
0.00000001
 40
0.0
 40
0.0
 40
0.0
 40
0.0
 40
0.467337380177329
 40
0.9999999999999999
 40
0.9999999999999999
 40
0.9999999999999999
 40
0.9999999999999999
 10
52.1937275975263
 20
85.64832887785104
 30
0.0
 10
52.31204052205197
 20
85.81936580824933
 30
0.0
 10
52.56520435945093
 20
86.18534751151773
 30
0.0
 10
52.81719453422454
 20
86.5496847211439
 30
0.0
 10
52.95142028088902
 20
86.74375353372227
 30
0.0
  0
LINE
  5
8B
330
1F
100
AcDbEntity
  8
0
  6
Continuous
 62
     7
370
    25
100
AcDbLine
 10
52.0373010996
 20
85.7639506013
 30
0.0
 11
52.0404657488
 21
85.7752164671
 31
0.0
  0
SPLINE
  5
8C
330
1F
100
AcDbEntity
  8
0
  6
Continuous
 62
     7
370
    25
100
AcDbSpline
210
0.0
220
0.0
230
1.0
 70
    11
 71
     3
 72
    10
 73
     6
 74
     0
 42
0.00000001
 43
0.00000001
 40
0.0
 40
0.0
 40
0.0
 40
0.0
 40
0.3536939354246662
 40
0.500000034080432
 40
1.0
 40
1.0
 40
1.0
 40
1.0
 10
54.37995509050297
 20
90.88756730370368
 30
0.0
 10
54.33351437449998
 20
90.86470791862882
 30
0.0
 10
54.26786337724344
 20
90.83239270999299
 30
0.0
 10
54.08747430093526
 20
90.74328898774974
 30
0.0
 10
54.25237974768387
 20
90.82463545902974
 30
0.0
 10
54.37995509050297
 20
90.88756730370368
 30
0.0
  0
LWPOLYLINE
  5
8D
330
1F
100
AcDbEntity
  8
0
  6
Continuous
 62
     7
370
    25
100
AcDbPolyline
 90
        5
 70
   128
 43
0.0
 10
51.32606527
 20
86.0499207358
 10
51.3148618061
 20
83.5927479948
 10
51.314860798
 20
83.5921219957
 10
51.314862318
 20
83.5915560989
 10
51.314862318
 20
83.5915560989
  0
LINE
  5
8E
330
1F
100
AcDbEntity
  8
0
  6
Continuous
 62
     7
370
    25
100
AcDbLine
 10
54.9058113539
 20
83.5913944866
 30
0.0
 11
54.9058113539
 21
92.3484679457
 31
0.0
  0
SPLINE
  5
8F
330
1F
100
AcDbEntity
  8
0
  6
Continuous
 62
     7
370
    25
100
AcDbSpline
210
0.0
220
0.0
230
1.0
 70
     8
 71
     3
 72
    19
 73
    15
 74
     0
 42
0.00000001
 43
0.00000001
 40
0.0
 40
0.0
 40
0.0
 40
0.0
 40
0.2815262052709055
 40
0.2815552527106432
 40
0.2816201923475048
 40
0.9361683969620955
 40
0.9366955388979106
 40
0.9565422425369146
 40
0.9569877710772039
 40
0.9742547851736036
 40
0.9749189215331302
 40
0.9792627531309364
 40
0.9973122496207648
 40
1.0
 40
1.0
 40
1.0
 40
1.0
 10
51.3148593451867
 20
92.34860771003237
 30
0.0
 10
51.31483263582322
 20
92.10613092377655
 30
0.0
 10
51.31480592370391
 20
91.86362911913986
 30
0.0
 10
51.31486164559399
 20
91.6204498096681
 30
0.0
 10
51.31378671473149
 20
91.0642537013653
 30
0.0
 10
51.38102685717779
 20
90.26349445332619
 30
0.0
 10
51.31430143316808
 20
89.92223177686301
 30
0.0
 10
51.31609683154223
 20
89.88955479964962
 30
0.0
 10
51.30622281374639
 20
89.86671929506474
 30
0.0
 10
51.30379934501114
 20
89.83938019606968
 30
0.0
 10
51.29224125399374
 20
89.82092286535368
 30
0.0
 10
51.28427759588461
 20
89.81203723903022
 30
0.0
 10
51.28195977962215
 20
89.79473981248202
 30
0.0
 10
51.27132002729563
 20
89.77731316542668
 30
0.0
 10
51.26994101114508
 20
89.77505450122078
 30
0.0
  0
SPLINE
  5
90
330
1F
100
AcDbEntity
  8
0
  6
Continuous
 62
     7
370
    25
100
AcDbSpline
210
0.0
220
0.0
230
1.0
 70
     8
 71
     3
 72
    27
 73
    23
 74
     0
 42
0.00000001
 43
0.00000001
 40
0.0
 40
0.0
 40
0.0
 40
0.0
 40
0.0499989548673642
 40
0.0999957778012482
 40
0.1499967120424862
 40
0.2000066968263473
 40
0.2500127640695395
 40
0.3000188313127317
 40
0.3500115567800339
 40
0.400012491021272
 40
0.4500093229744526
 40
0.5000217586957136
 40
0.5500207273054675
 40
0.6000175502393515
 40
0.6500184942538195
 40
0.7000284689546413
 40
0.750034533479047
 40
0.8000229079502172
 40
0.850032882651039
 40
0.9000338266655069
 40
0.950030649599391
 40
1.0
 40
1.0
 40
1.0
 40
1.0
 10
51.3148593451867
 20
59.42257989356757
 30
0.0
 10
51.31911399445546
 20
59.3683110377311
 30
0.0
 10
51.32762311157661
 20
59.25977564005834
 30
0.0
 10
51.39617272057755
 20
59.10097667612644
 30
0.0
 10
51.5038006656445
 20
58.95009914856761
 30
0.0
 10
51.65177250825673
 20
58.81082356088245
 30
0.0
 10
51.83550031616643
 20
58.68663423559844
 30
0.0
 10
52.05061023722595
 20
58.58054921709798
 30
0.0
 10
52.29185782616711
 20
58.49526151417331
 30
0.0
 10
52.55317942354398
 20
58.43274000478519
 30
0.0
 10
52.82828534091276
 20
58.39462836112806
 30
0.0
 10
53.11031762883808
 20
58.38179984993004
 30
0.0
 10
53.39236128952144
 20
58.39457979211648
 30
0.0
 10
53.66743797965825
 20
58.43270302150852
 30
0.0
 10
53.92879547615308
 20
58.49522355651314
 30
0.0
 10
54.17004844716597
 20
58.5805427270948
 30
0.0
 10
54.38516884694994
 20
58.68661863035776
 30
0.0
 10
54.5688629399476
 20
58.81080005087379
 30
0.0
 10
54.7168177845184
 20
58.95005811620116
 30
0.0
 10
54.82445017578372
 20
59.10093574776644
 30
0.0
 10
54.89296814795483
 20
59.25970403019949
 30
0.0
 10
54.90153106965173
 20
59.36820470219286
 30
0.0
 10
54.90581135387642
 20
59.42244012920472
 30
0.0
  0
LINE
  5
91
330
1F
100
AcDbEntity
  8
0
  6
Continuous
 62
     7
370
    25
100
AcDbLine
 10
51.314862318
 20
83.5915560989
 30
0.0
 11
51.3148593452
 21
83.591534251
 31
0.0
  0
LINE
  5
92
330
1F
100
AcDbEntity
  8
0
  6
Continuous
 62
     7
370
    25
100
AcDbLine
 10
51.3148593452
 20
83.591534251
 30
0.0
 11
51.3148593452
 21
59.4225798936
 31
0.0
  0
LINE
  5
93
330
1F
100
AcDbEntity
  8
0
  6
Continuous
 62
     7
370
    25
100
AcDbLine
 10
54.9058113539
 20
59.4224401292
 30
0.0
 11
54.9058113539
 21
83.5913944866
 31
0.0
  0
SPLINE
  5
94
330
1F
100
AcDbEntity
  8
0
  6
Continuous
 62
     7
370
    25
100
AcDbSpline
210
0.0
220
0.0
230
1.0
 70
     8
 71
     3
 72
    27
 73
    23
 74
     0
 42
0.00000001
 43
0.00000001
 40
0.0
 40
0.0
 40
0.0
 40
0.0
 40
0.0500013512270682
 40
0.100003783692099
 40
0.1500038807857254
 40
0.2000040327084548
 40
0.25000044522864
 40
0.2999968577488251
 40
0.3499970096715546
 40
0.4000019762552147
 40
0.449997758315652
 40
0.4999991095427202
 40
0.5500004607697884
 40
0.6000028932348191
 40
0.6500029903284456
 40
0.700003142251175
 40
0.7499995547713602
 40
0.7999959672915453
 40
0.8499961192142748
 40
0.8999962163079012
 40
0.9499986487729319
 40
1.0
 40
1.0
 40
1.0
 40
1.0
 10
50.5975703068684
 20
59.26898699311511
 30
0.0
 10
50.6035146440096
 20
59.19339148472049
 30
0.0
 10
50.61540344683336
 20
59.04219883324073
 30
0.0
 10
50.71079376162465
 20
58.82097618492693
 30
0.0
 10
50.86080695806318
 20
58.61083817969188
 30
0.0
 10
51.06693076656641
 20
58.41688123623982
 30
0.0
 10
51.32275526543665
 20
58.243898505648
 30
0.0
 10
51.62242207417681
 20
58.09618211537944
 30
0.0
 10
51.95839033010101
 20
57.97730248949438
 30
0.0
 10
52.32246639760002
 20
57.89026843783655
 30
0.0
 10
52.70562072133352
 20
57.83711472514332
 30
0.0
 10
53.09846844330922
 20
57.81931337860454
 30
0.0
 10
53.49131595453878
 20
57.83713678308741
 30
0.0
 10
53.87452706701575
 20
57.89018713402939
 30
0.0
 10
54.23853698363845
 20
57.97732847530488
 30
0.0
 10
54.57451284904049
 20
58.09617618705979
 30
0.0
 10
54.87417469679789
 20
58.24390009407947
 30
0.0
 10
55.13000052493827
 20
58.41688081059598
 30
0.0
 10
55.33612397727189
 20
58.61083829370691
 30
0.0
 10
55.48613726902665
 20
58.82097615452133
 30
0.0
 10
55.5815275587337
 20
59.04219884084208
 30
0.0
 10
55.59341636490203
 20
59.19339148725425
 30
0.0
 10
55.59936070371549
 20
59.26898699311511
 30
0.0
  0
SPLINE
  5
95
330
1F
100
AcDbEntity
  8
0
  6
Continuous
 62
     7
370
    25
100
AcDbSpline
210
0.0
220
0.0
230
1.0
 70
     8
 71
     3
 72
    12
 73
     8
 74
     0
 42
0.00000001
 43
0.00000001
 40
0.0
 40
0.0
 40
0.0
 40
0.0
 40
0.2063098580914952
 40
0.4126241774634389
 40
0.6189288608929292
 40
0.8252337705519948
 40
1.0
 40
1.0
 40
1.0
 40
1.0
 10
55.59936070371549
 20
59.43229515640481
 30
0.0
 10
55.59339927296828
 20
59.50788149301711
 30
0.0
 10
55.58147628256284
 20
59.65905580073386
 30
0.0
 10
55.48634237489299
 20
59.88041602740911
 30
0.0
 10
55.33535487058541
 20
60.0900312558998
 30
0.0
 10
55.14318512808658
 20
60.27596308876991
 30
0.0
 10
54.98044634935431
 20
60.37940761895139
 30
0.0
 10
54.90581135387642
 20
60.4268491820653
 30
0.0
  0
SPLINE
  5
96
330
1F
100
AcDbEntity
  8
0
  6
Continuous
 62
     7
370
    25
100
AcDbSpline
210
0.0
220
0.0
230
1.0
 70
     8
 71
     3
 72
    12
 73
     8
 74
     0
 42
0.00000001
 43
0.00000001
 40
0.0
 40
0.0
 40
0.0
 40
0.0
 40
0.1903256286869831
 40
0.3927407551489802
 40
0.5951556596468554
 40
0.7975800184059672
 40
1.0
 40
1.0
 40
1.0
 40
1.0
 10
51.3148593451867
 20
60.44289623293454
 30
0.0
 10
51.23186150305054
 20
60.39030860645035
 30
0.0
 10
51.06059378980997
 20
60.28179298362343
 30
0.0
 10
50.86142203831348
 20
60.09010081616579
 30
0.0
 10
50.71062973162747
 20
59.8803974770326
 30
0.0
 10
50.61544445409616
 20
59.65906043830124
 30
0.0
 10
50.60352831299866
 20
59.50788303886176
 30
0.0
 10
50.5975703068684
 20
59.43229515640481
 30
0.0
  0
LINE
  5
97
330
1F
100
AcDbEntity
  8
0
  6
Continuous
 62
     7
370
    25
100
AcDbLine
 10
55.5993607037
 20
59.2689869931
 30
0.0
 11
55.5993607037
 21
59.4322951564
 31
0.0
  0
LINE
  5
98
330
1F
100
AcDbEntity
  8
0
  6
Continuous
 62
     7
370
    25
100
AcDbLine
 10
50.5975703069
 20
59.4322951564
 30
0.0
 11
50.5975703069
 21
59.2689869931
 31
0.0
  0
SPLINE
  5
99
330
1F
100
AcDbEntity
  8
0
  6
Continuous
 62
     7
370
    25
100
AcDbSpline
210
0.0
220
0.0
230
1.0
 70
     8
 71
     3
 72
    15
 73
    11
 74
     0
 42
0.00000001
 43
0.00000001
 40
0.0
 40
0.0
 40
0.0
 40
0.0
 40
0.0013431246629295
 40
0.1676115705843132
 40
0.3338455547762106
 40
0.500044846756851
 40
0.6662441387374914
 40
0.8324781229293888
 40
0.9987465688507724
 40
0.9999999999999999
 40
0.9999999999999999
 40
0.9999999999999999
 40
0.9999999999999999
 10
52.07943740413761
 20
57.95478745309257
 30
0.0
 10
52.08024402822648
 20
57.95450171350132
 30
0.0
 10
52.18090447631315
 20
57.9188436223421
 30
0.0
 10
52.40578174115873
 20
57.87334905301095
 30
0.0
 10
52.74624351961408
 20
57.82306112644036
 30
0.0
 10
53.09846536221481
 20
57.80805989004265
 30
0.0
 10
53.45068806333805
 20
57.82306060786878
 30
0.0
 10
53.79114726551023
 20
57.87335112798166
 30
0.0
 10
54.015970435754
 20
57.91882687794049
 30
0.0
 10
54.11657918138079
 20
57.9544636221813
 30
0.0
 10
54.11733195551309
 20
57.95473026320794
 30
0.0
  0
SPLINE
  5
9A
330
1F
100
AcDbEntity
  8
0
  6
Continuous
 62
     7
370
    25
100
AcDbSpline
210
0.0
220
0.0
230
1.0
 70
     8
 71
     3
 72
    10
 73
     6
 74
     0
 42
0.00000001
 43
0.00000001
 40
0.0
 40
0.0
 40
0.0
 40
0.0
 40
0.978637396072292
 40
0.9871991185873895
 40
1.0
 40
1.0
 40
1.0
 40
1.0
 10
52.9006118917595
 20
57.8220303921702
 30
0.0
 10
50.17294797898123
 20
52.81588996200859
 30
0.0
 10
47.42142078279547
 20
47.76595273294406
 30
0.0
 10
53.18553568979577
 20
46.92423148386133
 30
0.0
 10
53.16613059041647
 20
47.00343238489977
 30
0.0
 10
53.15450268321963
 20
47.05089108166707
 30
0.0
  0
SPLINE
  5
9B
330
1F
100
AcDbEntity
  8
0
  6
Continuous
 62
     7
370
    25
100
AcDbSpline
210
0.0
220
0.0
230
1.0
 70
     8
 71
     3
 72
     9
 73
     5
 74
     0
 42
0.00000001
 43
0.00000001
 40
0.0
 40
0.0
 40
0.0
 40
0.0
 40
0.986944777164883
 40
1.0
 40
1.0
 40
1.0
 40
1.0
 10
51.64808085585506
 20
58.094051541164
 30
0.0
 10
50.0290508678864
 20
52.70267987848036
 30
0.0
 10
48.38860448686444
 20
47.23999160308263
 30
0.0
 10
52.95297634387349
 20
47.05960785699297
 30
0.0
 10
53.01256523556908
 20
47.05725290699193
 30
0.0
  0
SPLINE
  5
9C
330
1F
100
AcDbEntity
  8
0
  6
Continuous
 62
     7
370
    25
100
AcDbSpline
210
0.0
220
0.0
230
1.0
 70
     8
 71
     3
 72
    11
 73
     7
 74
     0
 42
0.00000001
 43
0.00000001
 40
0.0
 40
0.0
 40
0.0
 40
0.0
 40
0.0141241512053331
 40
0.0249900574083872
 40
0.9486979426193483
 40
1.0
 40
1.0
 40
1.0
 40
1.0
 10
53.15419046535288
 20
47.05090507568742
 30
0.0
 10
53.23568056074328
 20
47.03698503573631
 30
0.0
 10
53.37986212127853
 20
47.01235611521227
 30
0.0
 10
52.89203443619431
 20
50.005217137374
 30
0.0
 10
56.90724094536265
 20
54.68778467251597
 30
0.0
 10
54.19546357898014
 20
57.77651598366343
 30
0.0
 10
54.05277810268241
 20
57.93903562991105
 30
0.0
  0
LWPOLYLINE
  5
9D
330
1F
100
AcDbEntity
  8
0
  6
Continuous
 62
   144
370
    18
100
AcDbPolyline
 90
       16
 70
   128
 43
0.0
 10
54.900740479
 20
131.2467541971
 10
56.1625712952
 20
130.8789255929
 10
56.3281050026
 20
130.6879149703
 10
56.4565862564
 20
130.4584509734
 10
56.5434898127
 20
130.1988543109
 10
56.585562567
 20
129.9185160592
 10
54.9529944433
 20
130.3943855338
 10
54.9349632629
 20
130.107434965
 10
54.9019413757
 20
129.8112505044
 10
54.8901326716
 20
129.5064829587
 10
54.9076689638
 20
129.2016621646
 10
54.9482568847
 20
128.9097353858
 10
54.9756925443
 20
128.651119622
 10
54.9769653791
 20
128.4387958934
 10
54.9556814735
 20
128.3349559987
 10
54.8976481076
 20
128.2515236205
  0
LWPOLYLINE
  5
9E
330
1F
100
AcDbEntity
  8
0
  6
Continuous
 62
   144
370
    18
100
AcDbPolyline
 90
       23
 70
   128
 43
0.0
 10
51.3148593452
 20
124.1692010311
 10
51.336921113
 20
124.0070623849
 10
51.40268204
 20
123.8489241452
 10
51.5105158056
 20
123.6986642374
 10
51.6577354007
 20
123.5599564626
 10
51.8407346567
 20
123.4362706445
 10
52.0549879925
 20
123.3306274227
 10
52.2951922177
 20
123.2456801867
 10
52.555478215
 20
123.1834290788
 10
52.829411404
 20
123.1454660795
 10
53.1103448474
 20
123.1326893134
 10
53.391207737
 20
123.1454252523
 10
53.6651408838
 20
123.1833882273
 10
53.9254269233
 20
123.2456393595
 10
54.1657017656
 20
123.3306274592
 10
54.3799550905
 20
123.4362706748
 10
54.5092849293
 20
123.5237487947
 10
54.562883635
 20
123.5599156719
 10
54.7101032933
 20
123.6986233858
 10
54.817937101
 20
123.8488833181
 10
54.8508175013
 20
123.92795245
 10
54.883698028
 20
124.0070215577
 10
54.9058140672
 20
124.1690811489
  0
LWPOLYLINE
  5
9F
330
1F
100
AcDbEntity
  8
0
  6
Continuous
 62
   144
370
    18
100
AcDbPolyline
 90
       13
 70
   128
 43
0.0
 10
54.9482568847
 20
128.9097353858
 10
54.9076689638
 20
129.2016621646
 10
54.8901326716
 20
129.5064829587
 10
54.9019413757
 20
129.8112505044
 10
54.9349632629
 20
130.107434965
 10
54.9529944433
 20
130.3943855338
 10
56.585562567
 20
129.9185160592
 10
56.5434898127
 20
130.1988543109
 10
56.4565862564
 20
130.4584509734
 10
56.3281050026
 20
130.6879149703
 10
56.1625712952
 20
130.8789255929
 10
54.6238362176
 20
131.3274728693
 10
54.900740479
 20
131.2467541971
  0
ARC
  5
A0
330
1F
100
AcDbEntity
  8
0
  6
Continuous
 62
   144
370
    18
100
AcDbCircle
 10
54.1924885001
 20
128.6367936307
 30
0.0
 40
0.8035440577875501
100
AcDbArc
 50
331.3496347215
 51
19.8569174216
  0
LWPOLYLINE
  5
A1
330
1F
100
AcDbEntity
  8
0
  6
Continuous
 62
   144
370
    18
100
AcDbPolyline
 90
       21
 70
   128
 43
0.0
 10
51.3148593452
 20
92.34860771
 10
51.336921113
 20
92.1864690638
 10
51.40268204
 20
92.0283308242
 10
51.5105158056
 20
91.8780709163
 10
51.6577354007
 20
91.7393631415
 10
51.8407346567
 20
91.6156773235
 10
52.0549879925
 20
91.5100341016
 10
52.2951922177
 20
91.4250868656
 10
52.555478215
 20
91.3628357578
 10
52.829411404
 20
91.3248727584
 10
53.1103448474
 20
91.3120959924
 10
53.391207737
 20
91.3248319312
 10
53.6651408838
 20
91.3627949062
 10
53.9254269233
 20
91.4250460384
 10
54.1657017656
 20
91.5100341381
 10
54.3799550905
 20
91.6156773537
 10
54.562883635
 20
91.7393223508
 10
54.7101032933
 20
91.8780300648
 10
54.817937101
 20
92.028289997
 10
54.883698028
 20
92.1864282366
 10
54.9058113539
 20
92.3484679457
  0
LINE
  5
A2
330
1F
100
AcDbEntity
  8
0
  6
Continuous
 62
   144
370
    18
100
AcDbLine
 10
51.5105158477
 20
91.1499608266
 30
0.0
 11
51.5105158477
 21
91.1498534176
 31
0.0
  0
LWPOLYLINE
  5
A3
330
1F
100
AcDbEntity
  8
0
  6
Continuous
 62
   144
370
    18
100
AcDbPolyline
 90
        3
 70
   128
 43
0.0
 10
51.1003159985
 20
88.26404599
 10
51.1001111211
 20
88.2661224855
 10
51.1049594618
 20
88.2674853008
  0
ARC
  5
A4
330
1F
100
AcDbEntity
  8
0
  6
Continuous
 62
   144
370
    18
100
AcDbCircle
 10
53.7248070287
 20
89.543575966
 30
0.0
 40
4.230720374127961
100
AcDbArc
 50
241.1269764496
 51
246.1108816094
  0
LWPOLYLINE
  5
A5
330
1F
100
AcDbEntity
  8
0
  6
Continuous
 62
   144
370
    18
100
AcDbPolyline
 90
       22
 70
   128
 43
0.0
 10
52.900337016
 20
86.6698972453
 10
52.9006877097
 20
86.6702719007
 10
53.1395483988
 20
87.016240439
 10
53.3343562745
 20
87.397277029
 10
53.4730199119
 20
87.7922761517
 10
53.5104966788
 20
88.1287711104
 10
53.4391495243
 20
88.3856142162
 10
53.3407203643
 20
88.4803351991
 10
53.0497458558
 20
88.7217465139
 10
52.7812573652
 20
88.8633752715
 10
52.5075363856
 20
88.9989543847
 10
52.2473211107
 20
89.129101011
 10
52.0107938819
 20
89.254223882
 10
51.7864288942
 20
89.3805640781
 10
51.596782797
 20
89.4995955094
 10
50.0580477194
 20
87.2744625281
 10
49.8924432896
 20
87.3565843487
 10
49.763962078
 20
87.4088597375
 10
49.6771293283
 20
87.4293318316
 10
49.6351272964
 20
87.417387807
 10
51.2676246134
 20
89.7781394397
 10
51.2699229977
 20
89.7750784912
  0
LINE
  5
A6
330
1F
100
AcDbEntity
  8
0
  6
Continuous
 62
   144
370
    18
100
AcDbLine
 10
51.2699410111
 20
89.7750545012
 30
0.0
 11
51.2699530201
 21
89.7750385079
 31
0.0
  0
LWPOLYLINE
  5
A7
330
1F
100
AcDbEntity
  8
0
  6
Continuous
 62
   144
370
    18
100
AcDbPolyline
 90
       22
 70
   128
 43
0.0
 10
51.2699410111
 20
89.7750545012
 10
51.2676246134
 20
89.7781394397
 10
49.6351272964
 20
87.417387807
 10
49.6771293283
 20
87.4293318316
 10
49.763962078
 20
87.4088597375
 10
49.8924432896
 20
87.3565843487
 10
50.0580477194
 20
87.2744625281
 10
51.596782797
 20
89.4995955094
 10
51.7864288942
 20
89.3805640781
 10
52.0107938819
 20
89.254223882
 10
52.2473211107
 20
89.129101011
 10
52.5075363856
 20
88.9989543847
 10
52.7812573652
 20
88.8633752715
 10
53.0497458558
 20
88.7217465139
 10
53.3407203643
 20
88.4803351991
 10
53.4391495243
 20
88.3856142162
 10
53.5104966788
 20
88.1287711104
 10
53.4730199119
 20
87.7922761517
 10
53.3343562745
 20
87.397277029
 10
53.1395483988
 20
87.016240439
 10
52.9006877097
 20
86.6702719007
 10
52.900337016
 20
86.6698972453
  0
LWPOLYLINE
  5
A8
330
1F
100
AcDbEntity
  8
0
  6
Continuous
 62
   144
370
    18
100
AcDbPolyline
 90
        5
 70
   128
 43
0.0
 10
54.3713991614
 20
90.7663531998
 10
54.3577520046
 20
90.795055547
 10
54.3346296218
 20
90.8155934265
 10
54.3578227165
 20
90.7950963681
 10
54.3713991614
 20
90.7663531998
  0
LWPOLYLINE
  5
A9
330
1F
100
AcDbEntity
  8
0
  6
Continuous
 62
   144
370
    18
100
AcDbPolyline
 90
        5
 70
   128
 43
0.0
 10
54.3713991614
 20
82.9713279359
 10
54.3578227165
 20
82.9292782144
 10
54.3375994705
 20
82.888941864
 10
54.3577520046
 20
82.9292373933
 10
54.3713991614
 20
82.9713279359
  0
LWPOLYLINE
  5
AA
330
1F
100
AcDbEntity
  8
0
  6
Continuous
 62
   144
370
    18
100
AcDbPolyline
 90
       24
 70
   128
 43
0.0
 10
51.314862318
 20
83.5915560989
 10
51.3148593452
 20
83.591534251
 10
51.336921113
 20
83.4293956047
 10
51.40268204
 20
83.2712573651
 10
51.5104450832
 20
83.12095663
 10
51.6577354007
 20
82.9822896824
 10
51.8407346567
 20
82.8586038644
 10
52.0549879925
 20
82.7529606426
 10
52.2951214953
 20
82.6679725793
 10
52.555478215
 20
82.6057622987
 10
52.829411404
 20
82.5677992993
 10
52.9699135712
 20
82.5613905027
 10
53.1103448474
 20
82.5550225333
 10
53.391207737
 20
82.5677584721
 10
53.6651408838
 20
82.6057214472
 10
53.9254269233
 20
82.6679725793
 10
54.1657017656
 20
82.7529606791
 10
54.2283514121
 20
82.7839025472
 10
54.3799550905
 20
82.8586038946
 10
54.562883635
 20
82.9822488917
 10
54.7101032933
 20
83.1209566057
 10
54.817937101
 20
83.2712165379
 10
54.883698028
 20
83.4293547775
 10
54.9058113539
 20
83.5913944866
  0
LWPOLYLINE
  5
AB
330
1F
100
AcDbEntity
  8
0
  6
Continuous
 62
   144
370
    18
100
AcDbPolyline
 90
        5
 70
   128
 43
0.0
 10
51.5105158056
 20
91.1499608663
 10
51.6577354007
 20
91.0112530915
 10
51.5104450832
 20
91.1499200391
 10
51.40268204
 20
91.3002207742
 10
51.5105158056
 20
91.1499608663
  0
LWPOLYLINE
  5
AC
330
1F
100
AcDbEntity
  8
0
  6
Continuous
 62
   144
370
    18
100
AcDbPolyline
 90
        5
 70
   128
 43
0.0
 10
52.2951922177
 20
90.6969768156
 10
52.555478215
 20
90.6347257078
 10
52.2951214953
 20
90.6969359884
 10
52.0549879925
 20
90.7819240517
 10
52.2951922177
 20
90.6969768156
  0
LWPOLYLINE
  5
AD
330
1F
100
AcDbEntity
  8
0
  6
Continuous
 62
   144
370
    18
100
AcDbPolyline
 90
       22
 70
   128
 43
0.0
 10
54.9058113539
 20
92.3487470912
 10
54.905830434
 20
92.3486077587
 10
54.883698028
 20
92.1864282366
 10
54.817937101
 20
92.028289997
 10
54.7101032933
 20
91.8780300648
 10
54.562883635
 20
91.7393223508
 10
54.3799550905
 20
91.6156773537
 10
54.1657017656
 20
91.5100341381
 10
53.9254269233
 20
91.4250460384
 10
53.6651408838
 20
91.3627949062
 10
53.391207737
 20
91.3248319312
 10
53.1103448474
 20
91.3120959924
 10
52.829411404
 20
91.3248727584
 10
52.555478215
 20
91.3628357578
 10
52.2951922177
 20
91.4250868656
 10
52.0549879925
 20
91.5100341016
 10
51.8407346567
 20
91.6156773235
 10
51.6577354007
 20
91.7393631415
 10
51.5105158056
 20
91.8780709163
 10
51.40268204
 20
92.0283308242
 10
51.336921113
 20
92.1864690638
 10
51.3148593452
 20
92.34860771
  0
ENDSEC
  0
SECTION
  2
OBJECTS
  0
DICTIONARY
  5
C
330
0
100
AcDbDictionary
281
     1
  3
ACAD_GROUP
350
D
  3
ACAD_LAYOUT
350
1A
  3
ACAD_MLINESTYLE
350
17
  3
ACAD_PLOTSETTINGS
350
19
  3
ACAD_PLOTSTYLENAME
350
E
  3
ACAD_SCALELIST
350
47
  3
DWGPROPS
350
AE
  0
DICTIONARY
  5
D
102
{ACAD_REACTORS
330
C
102
}
330
C
100
AcDbDictionary
281
     1
  0
DICTIONARY
  5
1A
102
{ACAD_REACTORS
330
C
102
}
330
C
100
AcDbDictionary
281
     1
  3
Layout1
350
1E
  3
Layout2
350
26
  3
Model
350
22
  0
DICTIONARY
  5
17
102
{ACAD_REACTORS
330
C
102
}
330
C
100
AcDbDictionary
281
     1
  3
Standard
350
18
  0
DICTIONARY
  5
19
102
{ACAD_REACTORS
330
C
102
}
330
C
100
AcDbDictionary
281
     1
  0
ACDBDICTIONARYWDFLT
  5
E
102
{ACAD_REACTORS
330
C
102
}
330
C
100
AcDbDictionary
281
     1
  3
Normal
350
F
100
AcDbDictionaryWithDefault
340
F
  0
DICTIONARY
  5
47
102
{ACAD_REACTORS
330
C
102
}
330
C
100
AcDbDictionary
281
     1
  3
A0
350
48
  3
A1
350
49
  3
A2
350
4A
  3
A3
350
4B
  3
A4
350
4C
  3
A5
350
4D
  3
A6
350
4E
  3
A7
350
4F
  3
A8
350
50
  3
A9
350
51
  3
B0
350
52
  3
B1
350
53
  3
B2
350
54
  3
B3
350
55
  3
B4
350
56
  3
B5
350
57
  3
B6
350
58
  3
B7
350
59
  3
B8
350
5A
  3
B9
350
5B
  3
C0
350
5C
  3
C1
350
5D
  3
C2
350
5E
  3
C3
350
5F
  3
C4
350
60
  3
C5
350
61
  3
C6
350
62
  3
C7
350
63
  3
C8
350
64
  3
C9
350
65
  3
D0
350
66
  3
D1
350
67
  3
D2
350
68
  0
XRECORD
  5
AE
102
{ACAD_REACTORS
330
C
102
}
330
C
100
AcDbXrecord
280
     1
  1
DWGPROPS COOKIE
  2

  3

  4

  6

  7

  8
9222
  9

300
=
301
=
302
=
303
=
304
=
305
=
306
=
307
=
308
=
309
=
 40
0.0
 41
2459916.336216944
 42
2459916.336217118
  1

 90
        0
  0
LAYOUT
  5
1E
102
{ACAD_REACTORS
330
1A
102
}
330
1A
100
AcDbPlotSettings
  1

  2
none_device
  4

  6

 40
0.0
 41
0.0
 42
0.0
 43
0.0
 44
0.0
 45
0.0
 46
0.0
 47
0.0
 48
0.0
 49
0.0
140
0.0
141
0.0
142
1.0
143
1.0
 70
   688
 72
     1
 73
     0
 74
     5
  7

 75
    16
147
1.0
148
0.0
149
0.0
100
AcDbLayout
  1
Layout1
 70
     1
 71
     1
 10
0.0
 20
0.0
 11
420.0
 21
297.0
 12
0.0
 22
0.0
 32
0.0
 14
1.0000000000E+20
 24
1.0000000000E+20
 34
1.0000000000E+20
 15
-1.0000000000E+20
 25
-1.0000000000E+20
 35
-1.0000000000E+20
146
0.0
 13
0.0
 23
0.0
 33
0.0
 16
1.0
 26
0.0
 36
0.0
 17
0.0
 27
1.0
 37
0.0
 76
     0
330
1B
  0
LAYOUT
  5
26
102
{ACAD_REACTORS
330
1A
102
}
330
1A
100
AcDbPlotSettings
  1

  2
none_device
  4

  6

 40
0.0
 41
0.0
 42
0.0
 43
0.0
 44
0.0
 45
0.0
 46
0.0
 47
0.0
 48
0.0
 49
0.0
140
0.0
141
0.0
142
1.0
143
1.0
 70
   688
 72
     1
 73
     0
 74
     5
  7

 75
    16
147
1.0
148
0.0
149
0.0
100
AcDbLayout
  1
Layout2
 70
     1
 71
     2
 10
0.0
 20
0.0
 11
0.0
 21
0.0
 12
0.0
 22
0.0
 32
0.0
 14
0.0
 24
0.0
 34
0.0
 15
0.0
 25
0.0
 35
0.0
146
0.0
 13
0.0
 23
0.0
 33
0.0
 16
1.0
 26
0.0
 36
0.0
 17
0.0
 27
1.0
 37
0.0
 76
     0
330
23
  0
LAYOUT
  5
22
102
{ACAD_REACTORS
330
1A
102
}
330
1A
100
AcDbPlotSettings
  1

  2
none_device
  4
Letter_(8.50_x_11.00_Inches)
  6

 40
6.35
 41
6.35
 42
6.35000508
 43
6.35000508
 44
215.9
 45
279.4
 46
0.0
 47
0.0
 48
0.0
 49
0.0
140
0.0
141
0.0
142
1.0
143
1.0
 70
  1712
 72
     1
 73
     0
 74
     0
  7

 75
     0
147
1.0
148
0.0
149
0.0
100
AcDbLayout
  1
Model
 70
     1
 71
     0
 10
0.0
 20
0.0
 11
105.0
 21
148.5
 12
0.0
 22
0.0
 32
0.0
 14
0.0
 24
0.0
 34
0.0
 15
105.0
 25
148.5
 35
0.0
146
0.0
 13
0.0
 23
0.0
 33
0.0
 16
1.0
 26
0.0
 36
0.0
 17
0.0
 27
1.0
 37
0.0
 76
     0
330
1F
331
29
  0
MLINESTYLE
  5
18
102
{ACAD_REACTORS
330
17
102
}
330
17
100
AcDbMlineStyle
  2
Standard
 70
     0
  3

 62
   256
 51
90.0
 52
90.0
 71
     2
 49
0.5
 62
   256
  6
BYLAYER
 49
-0.5
 62
   256
  6
BYLAYER
  0
ACDBPLACEHOLDER
  5
F
102
{ACAD_REACTORS
330
E
102
}
330
E
  0
SCALE
  5
48
102
{ACAD_REACTORS
330
47
102
}
330
47
100
AcDbScale
 70
     0
300
1:1
140
1.0
141
1.0
290
     1
  0
SCALE
  5
49
102
{ACAD_REACTORS
330
47
102
}
330
47
100
AcDbScale
 70
     0
300
1:2
140
1.0
141
2.0
290
     0
  0
SCALE
  5
4A
102
{ACAD_REACTORS
330
47
102
}
330
47
100
AcDbScale
 70
     0
300
1:4
140
1.0
141
4.0
290
     0
  0
SCALE
  5
4B
102
{ACAD_REACTORS
330
47
102
}
330
47
100
AcDbScale
 70
     0
300
1:5
140
1.0
141
5.0
290
     0
  0
SCALE
  5
4C
102
{ACAD_REACTORS
330
47
102
}
330
47
100
AcDbScale
 70
     0
300
1:8
140
1.0
141
8.0
290
     0
  0
SCALE
  5
4D
102
{ACAD_REACTORS
330
47
102
}
330
47
100
AcDbScale
 70
     0
300
1:10
140
1.0
141
10.0
290
     0
  0
SCALE
  5
4E
102
{ACAD_REACTORS
330
47
102
}
330
47
100
AcDbScale
 70
     0
300
1:16
140
1.0
141
16.0
290
     0
  0
SCALE
  5
4F
102
{ACAD_REACTORS
330
47
102
}
330
47
100
AcDbScale
 70
     0
300
1:20
140
1.0
141
20.0
290
     0
  0
SCALE
  5
50
102
{ACAD_REACTORS
330
47
102
}
330
47
100
AcDbScale
 70
     0
300
1:30
140
1.0
141
30.0
290
     0
  0
SCALE
  5
51
102
{ACAD_REACTORS
330
47
102
}
330
47
100
AcDbScale
 70
     0
300
1:40
140
1.0
141
40.0
290
     0
  0
SCALE
  5
52
102
{ACAD_REACTORS
330
47
102
}
330
47
100
AcDbScale
 70
     0
300
1:50
140
1.0
141
50.0
290
     0
  0
SCALE
  5
53
102
{ACAD_REACTORS
330
47
102
}
330
47
100
AcDbScale
 70
     0
300
1:100
140
1.0
141
100.0
290
     0
  0
SCALE
  5
54
102
{ACAD_REACTORS
330
47
102
}
330
47
100
AcDbScale
 70
     0
300
2:1
140
2.0
141
1.0
290
     0
  0
SCALE
  5
55
102
{ACAD_REACTORS
330
47
102
}
330
47
100
AcDbScale
 70
     0
300
4:1
140
4.0
141
1.0
290
     0
  0
SCALE
  5
56
102
{ACAD_REACTORS
330
47
102
}
330
47
100
AcDbScale
 70
     0
300
8:1
140
8.0
141
1.0
290
     0
  0
SCALE
  5
57
102
{ACAD_REACTORS
330
47
102
}
330
47
100
AcDbScale
 70
     0
300
10:1
140
10.0
141
1.0
290
     0
  0
SCALE
  5
58
102
{ACAD_REACTORS
330
47
102
}
330
47
100
AcDbScale
 70
     0
300
100:1
140
100.0
141
1.0
290
     0
  0
SCALE
  5
59
102
{ACAD_REACTORS
330
47
102
}
330
47
100
AcDbScale
 70
     0
300
1/128" = 1'-0"
140
0.0078125
141
12.0
290
     0
  0
SCALE
  5
5A
102
{ACAD_REACTORS
330
47
102
}
330
47
100
AcDbScale
 70
     0
300
1/64" = 1'-0"
140
0.015625
141
12.0
290
     0
  0
SCALE
  5
5B
102
{ACAD_REACTORS
330
47
102
}
330
47
100
AcDbScale
 70
     0
300
1/32" = 1'-0"
140
0.03125
141
12.0
290
     0
  0
SCALE
  5
5C
102
{ACAD_REACTORS
330
47
102
}
330
47
100
AcDbScale
 70
     0
300
1/16" = 1'-0"
140
0.0625
141
12.0
290
     0
  0
SCALE
  5
5D
102
{ACAD_REACTORS
330
47
102
}
330
47
100
AcDbScale
 70
     0
300
3/32" = 1'-0"
140
0.09375
141
12.0
290
     0
  0
SCALE
  5
5E
102
{ACAD_REACTORS
330
47
102
}
330
47
100
AcDbScale
 70
     0
300
1/8" = 1'-0"
140
0.125
141
12.0
290
     0
  0
SCALE
  5
5F
102
{ACAD_REACTORS
330
47
102
}
330
47
100
AcDbScale
 70
     0
300
3/16" = 1'-0"
140
0.1875
141
12.0
290
     0
  0
SCALE
  5
60
102
{ACAD_REACTORS
330
47
102
}
330
47
100
AcDbScale
 70
     0
300
1/4" = 1'-0"
140
0.25
141
12.0
290
     0
  0
SCALE
  5
61
102
{ACAD_REACTORS
330
47
102
}
330
47
100
AcDbScale
 70
     0
300
3/8" = 1'-0"
140
0.375
141
12.0
290
     0
  0
SCALE
  5
62
102
{ACAD_REACTORS
330
47
102
}
330
47
100
AcDbScale
 70
     0
300
1/2" = 1'-0"
140
0.5
141
12.0
290
     0
  0
SCALE
  5
63
102
{ACAD_REACTORS
330
47
102
}
330
47
100
AcDbScale
 70
     0
300
3/4" = 1'-0"
140
0.75
141
12.0
290
     0
  0
SCALE
  5
64
102
{ACAD_REACTORS
330
47
102
}
330
47
100
AcDbScale
 70
     0
300
1" = 1'-0"
140
1.0
141
12.0
290
     0
  0
SCALE
  5
65
102
{ACAD_REACTORS
330
47
102
}
330
47
100
AcDbScale
 70
     0
300
1-1/2" = 1'-0"
140
1.5
141
12.0
290
     0
  0
SCALE
  5
66
102
{ACAD_REACTORS
330
47
102
}
330
47
100
AcDbScale
 70
     0
300
3" = 1'-0"
140
3.0
141
12.0
290
     0
  0
SCALE
  5
67
102
{ACAD_REACTORS
330
47
102
}
330
47
100
AcDbScale
 70
     0
300
6" = 1'-0"
140
6.0
141
12.0
290
     0
  0
SCALE
  5
68
102
{ACAD_REACTORS
330
47
102
}
330
47
100
AcDbScale
 70
     0
300
1'-0" = 1'-0"
140
12.0
141
12.0
290
     0
  0
ENDSEC
  0
EOF
