  0
SECTION
  2
HEADER
  9
$ACADVER
  1
AC1015
  9
$ACADMAINTVER
 70
     6
  9
$DWGCODEPAGE
  3
DOS932
  9
$INSBASE
 10
0.0
 20
0.0
 30
0.0
  9
$EXTMIN
 10
0.0
 20
0.0
 30
0.0
  9
$EXTMAX
 10
1.05
 20
1.485
 30
0.0
  9
$LIMMIN
 10
0.0
 20
0.0
  9
$LIMMAX
 10
1.05
 20
1.485
  9
$ORTHOMODE
 70
     0
  9
$REGENMODE
 70
     1
  9
$FILLMODE
 70
     1
  9
$QTEXTMODE
 70
     0
  9
$MIRRTEXT
 70
     1
  9
$LTSCALE
 40
0.005
  9
$ATTMODE
 70
     1
  9
$TEXTSIZE
 40
0.0175
  9
$TRACEWID
 40
1.0
  9
$TEXTSTYLE
  7
Standard
  9
$CLAYER
  8
0
  9
$CELTYPE
  6
ByLayer
  9
$CECOLOR
 62
   256
  9
$CELTSCALE
 40
1.0
  9
$DISPSILH
 70
     0
  9
$DIMSCALE
 40
1.0
  9
$DIMASZ
 40
0.01651
  9
$DIMEXO
 40
0.005
  9
$DIMDLI
 40
3.75
  9
$DIMRND
 40
0.0
  9
$DIMDLE
 40
0.0
  9
$DIMEXE
 40
0.005
  9
$DIMTP
 40
0.0
  9
$DIMTM
 40
0.0
  9
$DIMTXT
 40
0.0175
  9
$DIMCEN
 40
2.5
  9
$DIMTSZ
 40
0.0
  9
$DIMTOL
 70
     0
  9
$DIMLIM
 70
     0
  9
$DIMTIH
 70
     1
  9
$DIMTOH
 70
     1
  9
$DIMSE1
 70
     0
  9
$DIMSE2
 70
     0
  9
$DIMTAD
 70
     1
  9
$DIMZIN
 70
     1
  9
$DIMBLK
  1

  9
$DIMASO
 70
     1
  9
$DIMSHO
 70
     1
  9
$DIMPOST
  1

  9
$DIMAPOST
  1

  9
$DIMALT
 70
     0
  9
$DIMALTD
 70
     3
  9
$DIMALTF
 40
0.0393700787
  9
$DIMLFAC
 40
1.0
  9
$DIMTOFL
 70
     1
  9
$DIMTVP
 40
0.0
  9
$DIMTIX
 70
     0
  9
$DIMSOXD
 70
     0
  9
$DIMSAH
 70
     0
  9
$DIMBLK1
  1

  9
$DIMBLK2
  1

  9
$DIMSTYLE
  2
ISO-25
  9
$DIMCLRD
 70
     0
  9
$DIMCLRE
 70
     0
  9
$DIMCLRT
 70
     0
  9
$DIMTFAC
 40
1.0
  9
$DIMGAP
 40
0.00762
  9
$DIMJUST
 70
     0
  9
$DIMSD1
 70
     0
  9
$DIMSD2
 70
     0
  9
$DIMTOLJ
 70
     0
  9
$DIMTZIN
 70
     1
  9
$DIMALTZ
 70
     0
  9
$DIMALTTZ
 70
     0
  9
$DIMUPT
 70
     0
  9
$DIMDEC
 70
     2
  9
$DIMTDEC
 70
     2
  9
$DIMALTU
 70
     2
  9
$DIMALTTD
 70
     3
  9
$DIMTXSTY
  7
Standard
  9
$DIMAUNIT
 70
     0
  9
$DIMADEC
 70
     2
  9
$DIMALTRND
 40
0.0
  9
$DIMAZIN
 70
     0
  9
$DIMDSEP
 70
    44
  9
$DIMATFIT
 70
     3
  9
$DIMFRAC
 70
     0
  9
$DIMLDRBLK
  1

  9
$DIMLUNIT
 70
     2
  9
$DIMLWD
 70
    -2
  9
$DIMLWE
 70
    -2
  9
$DIMTMOVE
 70
     0
  9
$LUNITS
 70
     2
  9
$LUPREC
 70
     2
  9
$SKETCHINC
 40
1.0
  9
$FILLETRAD
 40
10.0
  9
$AUNITS
 70
     0
  9
$AUPREC
 70
     2
  9
$MENU
  1
.
  9
$ELEVATION
 40
0.0
  9
$PELEVATION
 40
0.0
  9
$THICKNESS
 40
0.0
  9
$LIMCHECK
 70
     0
  9
$CHAMFERA
 40
0.0
  9
$CHAMFERB
 40
0.0
  9
$CHAMFERC
 40
0.0
  9
$CHAMFERD
 40
0.0
  9
$SKPOLY
 70
     0
  9
$TDCREATE
 40
2459916.689458438
  9
$TDUCREATE
 40
2459916.314458438
  9
$TDUPDATE
 40
2459916.689458611
  9
$TDUUPDATE
 40
2459916.314458611
  9
$TDINDWG
 40
0.0000000116
  9
$TDUSRTIMER
 40
0.0000000116
  9
$USRTIMER
 70
     1
  9
$ANGBASE
 50
0.0
  9
$ANGDIR
 70
     0
  9
$PDMODE
 70
     0
  9
$PDSIZE
 40
-1.0
  9
$PLINEWID
 40
0.0
  9
$SPLFRAME
 70
     0
  9
$SPLINETYPE
 70
     6
  9
$SPLINESEGS
 70
     8
  9
$HANDSEED
  5
98
  9
$SURFTAB1
 70
     6
  9
$SURFTAB2
 70
     6
  9
$SURFTYPE
 70
     6
  9
$SURFU
 70
     6
  9
$SURFV
 70
     6
  9
$UCSBASE
  2

  9
$UCSNAME
  2

  9
$UCSORG
 10
0.0
 20
0.0
 30
0.0
  9
$UCSXDIR
 10
1.0
 20
0.0
 30
0.0
  9
$UCSYDIR
 10
0.0
 20
1.0
 30
0.0
  9
$UCSORTHOREF
  2

  9
$UCSORTHOVIEW
 70
     0
  9
$UCSORGTOP
 10
0.0
 20
0.0
 30
0.0
  9
$UCSORGBOTTOM
 10
0.0
 20
0.0
 30
0.0
  9
$UCSORGLEFT
 10
0.0
 20
0.0
 30
0.0
  9
$UCSORGRIGHT
 10
0.0
 20
0.0
 30
0.0
  9
$UCSORGFRONT
 10
0.0
 20
0.0
 30
0.0
  9
$UCSORGBACK
 10
0.0
 20
0.0
 30
0.0
  9
$PUCSBASE
  2

  9
$PUCSNAME
  2

  9
$PUCSORG
 10
0.0
 20
0.0
 30
0.0
  9
$PUCSXDIR
 10
1.0
 20
0.0
 30
0.0
  9
$PUCSYDIR
 10
0.0
 20
1.0
 30
0.0
  9
$PUCSORTHOREF
  2

  9
$PUCSORTHOVIEW
 70
     0
  9
$PUCSORGTOP
 10
0.0
 20
0.0
 30
0.0
  9
$PUCSORGBOTTOM
 10
0.0
 20
0.0
 30
0.0
  9
$PUCSORGLEFT
 10
0.0
 20
0.0
 30
0.0
  9
$PUCSORGRIGHT
 10
0.0
 20
0.0
 30
0.0
  9
$PUCSORGFRONT
 10
0.0
 20
0.0
 30
0.0
  9
$PUCSORGBACK
 10
0.0
 20
0.0
 30
0.0
  9
$USERI1
 70
     0
  9
$USERI2
 70
     0
  9
$USERI3
 70
     0
  9
$USERI4
 70
     0
  9
$USERI5
 70
     0
  9
$USERR1
 40
0.0
  9
$USERR2
 40
0.0
  9
$USERR3
 40
0.0
  9
$USERR4
 40
0.0
  9
$USERR5
 40
0.0
  9
$WORLDVIEW
 70
     1
  9
$SHADEDGE
 70
     3
  9
$SHADEDIF
 70
    70
  9
$TILEMODE
 70
     1
  9
$MAXACTVP
 70
    64
  9
$PINSBASE
 10
0.0
 20
0.0
 30
0.0
  9
$PLIMCHECK
 70
     0
  9
$PEXTMIN
 10
1.0000000000E+20
 20
1.0000000000E+20
 30
1.0000000000E+20
  9
$PEXTMAX
 10
-1.0000000000E+20
 20
-1.0000000000E+20
 30
-1.0000000000E+20
  9
$PLIMMIN
 10
0.0
 20
0.0
  9
$PLIMMAX
 10
420.0
 20
297.0
  9
$UNITMODE
 70
     0
  9
$VISRETAIN
 70
     1
  9
$PLINEGEN
 70
     0
  9
$PSLTSCALE
 70
     1
  9
$TREEDEPTH
 70
  3020
  9
$CMLSTYLE
  2
Standard
  9
$CMLJUST
 70
     0
  9
$CMLSCALE
 40
20.0
  9
$PROXYGRAPHICS
 70
     1
  9
$MEASUREMENT
 70
     1
  9
$CELWEIGHT
370
    -1
  9
$ENDCAPS
280
     0
  9
$JOINSTYLE
280
     0
  9
$LWDISPLAY
290
     1
  9
$INSUNITS
 70
     4
  9
$HYPERLINKBASE
  1

  9
$STYLESHEET
  1

  9
$XEDIT
290
     1
  9
$CEPSNTYPE
380
     0
  9
$PSTYLEMODE
290
     1
  9
$FINGERPRINTGUID
  2
{58720f9f-302f-4aaa-973c-b5708b7932ec}
  9
$VERSIONGUID
  2
{FAEB1C32-E019-11D5-929B-00C0DF256EC4}
  9
$EXTNAMES
290
     1
  9
$PSVPSCALE
 40
0.0
  9
$OLESTARTUP
290
     0
  0
ENDSEC
  0
SECTION
  2
CLASSES
  0
CLASS
  1
ACDBDICTIONARYWDFLT
  2
AcDbDictionaryWithDefault
  3
ObjectDBX Classes
 90
        0
280
     0
281
     0
  0
CLASS
  1
VISUALSTYLE
  2
AcDbVisualStyle
  3
ObjectDBX Classes
 90
     4095
280
     0
281
     0
  0
CLASS
  1
MATERIAL
  2
AcDbMaterial
  3
ObjectDBX Classes
 90
     1153
280
     0
281
     0
  0
CLASS
  1
SCALE
  2
AcDbScale
  3
ObjectDBX Classes
 90
     1153
280
     0
281
     0
  0
CLASS
  1
TABLESTYLE
  2
AcDbTableStyle
  3
ObjectDBX Classes
 90
     4095
280
     0
281
     0
  0
CLASS
  1
MLEADERSTYLE
  2
AcDbMLeaderStyle
  3
ACDB_MLEADERSTYLE_CLASS
 90
     4095
280
     0
281
     0
  0
CLASS
  1
SUN
  2
AcDbSun
  3
SCENEOE
 90
     1153
280
     0
281
     0
  0
CLASS
  1
ACDBPLACEHOLDER
  2
AcDbPlaceHolder
  3
ObjectDBX Classes
 90
        0
280
     0
281
     0
  0
CLASS
  1
LAYOUT
  2
AcDbLayout
  3
ObjectDBX Classes
 90
        0
280
     0
281
     0
  0
ENDSEC
  0
SECTION
  2
TABLES
  0
TABLE
  2
VPORT
  5
8
330
0
100
AcDbSymbolTable
 70
     1
  0
VPORT
  5
29
330
8
100
AcDbSymbolTableRecord
100
AcDbViewportTableRecord
  2
*Active
 70
     0
 10
0.0
 20
0.0
 11
1.0
 21
1.0
 12
0.525
 22
0.7425
 13
0.0
 23
0.0
 14
10.0
 24
10.0
 15
10.0
 25
10.0
 16
0.0
 26
0.0
 36
1.0
 17
0.0
 27
0.0
 37
0.0
 40
1.485
 41
0.7070707071
 42
50.0
 43
0.0
 44
0.0
 50
0.0
 51
0.0
 71
     0
 72
  2000
 73
     1
 74
     3
 75
     0
 76
     0
 77
     0
 78
     0
281
     0
 65
     1
110
0.0
120
0.0
130
0.0
111
1.0
121
0.0
131
0.0
112
0.0
122
1.0
132
0.0
 79
     0
146
0.0
  0
ENDTAB
  0
TABLE
  2
LTYPE
  5
5
330
0
100
AcDbSymbolTable
 70
     6
  0
LTYPE
  5
14
330
5
100
AcDbSymbolTableRecord
100
AcDbLinetypeTableRecord
  2
ByBlock
 70
     0
  3

 72
    65
 73
     0
 40
0.0
  0
LTYPE
  5
15
330
5
100
AcDbSymbolTableRecord
100
AcDbLinetypeTableRecord
  2
ByLayer
 70
     0
  3

 72
    65
 73
     0
 40
0.0
  0
LTYPE
  5
16
330
5
100
AcDbSymbolTableRecord
100
AcDbLinetypeTableRecord
  2
Continuous
 70
     0
  3
Solid line
 72
    65
 73
     0
 40
0.0
  0
LTYPE
  5
6E
330
5
100
AcDbSymbolTableRecord
100
AcDbLinetypeTableRecord
  2
HIDDEN
 70
     0
  3
Hidden __ __ __ __ __ __ __ __ __ __ __ __ __ __
 72
    65
 73
     2
 40
1.905
 49
1.27
 74
     0
 49
-0.635
 74
     0
  0
LTYPE
  5
6F
330
5
100
AcDbSymbolTableRecord
100
AcDbLinetypeTableRecord
  2
PHANTOM
 70
     0
  3
Phantom ______  __  __  ______  __  __  ______
 72
    65
 73
     6
 40
12.7
 49
6.35
 74
     0
 49
-1.27
 74
     0
 49
1.27
 74
     0
 49
-1.27
 74
     0
 49
1.27
 74
     0
 49
-1.27
 74
     0
  0
LTYPE
  5
70
330
5
100
AcDbSymbolTableRecord
100
AcDbLinetypeTableRecord
  2
CENTER
 70
     0
  3
Center ____ _ ____ _ ____ _ ____ _ ____ _ ____
 72
    65
 73
     4
 40
10.16
 49
6.35
 74
     0
 49
-1.27
 74
     0
 49
1.27
 74
     0
 49
-1.27
 74
     0
  0
LTYPE
  5
71
330
5
100
AcDbSymbolTableRecord
100
AcDbLinetypeTableRecord
  2
CENTERX2
 70
     0
  3
Center (2x) ________  __  ________  __  _____
 72
    65
 73
     4
 40
20.32
 49
12.7
 74
     0
 49
-2.54
 74
     0
 49
2.54
 74
     0
 49
-2.54
 74
     0
  0
LTYPE
  5
72
330
5
100
AcDbSymbolTableRecord
100
AcDbLinetypeTableRecord
  2
DOT2
 70
     0
  3
Dot (.5x) ........................................
 72
    65
 73
     2
 40
0.635
 49
0.0
 74
     0
 49
-0.635
 74
     0
  0
ENDTAB
  0
TABLE
  2
LAYER
  5
2
330
0
100
AcDbSymbolTable
 70
     1
  0
LAYER
  5
10
330
2
100
AcDbSymbolTableRecord
100
AcDbLayerTableRecord
  2
0
 70
     0
 62
     7
  6
Continuous
370
    -3
390
F
  0
ENDTAB
  0
TABLE
  2
STYLE
  5
3
330
0
100
AcDbSymbolTable
 70
     2
  0
STYLE
  5
11
330
3
100
AcDbSymbolTableRecord
100
AcDbTextStyleTableRecord
  2
Standard
 70
     0
 40
0.0
 41
1.0
 50
0.0
 71
     0
 42
0.0175
  3
txt
  4
bigfont
  0
STYLE
  5
76
330
3
100
AcDbSymbolTableRecord
100
AcDbTextStyleTableRecord
  2
SLDTEXTSTYLE0
 70
     0
 40
0.0
 41
0.7
 50
0.0
 71
     0
 42
0.0175
  3
TXT
  4
bigfont
  0
ENDTAB
  0
TABLE
  2
VIEW
  5
6
330
0
100
AcDbSymbolTable
 70
     0
  0
ENDTAB
  0
TABLE
  2
UCS
  5
7
330
0
100
AcDbSymbolTable
 70
     0
  0
ENDTAB
  0
TABLE
  2
APPID
  5
9
330
0
100
AcDbSymbolTable
 70
     1
  0
APPID
  5
12
330
9
100
AcDbSymbolTableRecord
100
AcDbRegAppTableRecord
  2
ACAD
 70
     0
  0
ENDTAB
  0
TABLE
  2
DIMSTYLE
  5
A
330
0
100
AcDbSymbolTable
 70
     1
100
AcDbDimStyleTable
  0
DIMSTYLE
105
27
330
A
100
AcDbSymbolTableRecord
100
AcDbDimStyleTableRecord
  2
ISO-25
 70
     0
 41
2.5
 42
0.625
 43
3.75
 44
1.25
 73
     0
 74
     0
 77
     1
 78
     8
140
2.5
141
2.5
143
0.0393700787
147
0.625
171
     3
172
     1
178
     0
271
     2
272
     2
274
     3
278
    44
283
     0
284
     8
340
11
  0
ENDTAB
  0
TABLE
  2
BLOCK_RECORD
  5
1
330
0
100
AcDbSymbolTable
 70
     2
  0
BLOCK_RECORD
  5
1F
330
1
100
AcDbSymbolTableRecord
100
AcDbBlockTableRecord
  2
*Model_Space
340
22
  0
BLOCK_RECORD
  5
1B
330
1
100
AcDbSymbolTableRecord
100
AcDbBlockTableRecord
  2
*Paper_Space
340
1E
  0
BLOCK_RECORD
  5
23
330
1
100
AcDbSymbolTableRecord
100
AcDbBlockTableRecord
  2
*Paper_Space0
340
26
  0
BLOCK_RECORD
  5
73
330
1
100
AcDbSymbolTableRecord
100
AcDbBlockTableRecord
  2
SW_NOTE_0
340
0
102
{BLKREFS
331
7A
102
}
  0
ENDTAB
  0
ENDSEC
  0
SECTION
  2
BLOCKS
  0
BLOCK
  5
20
330
1F
100
AcDbEntity
  8
0
100
AcDbBlockBegin
  2
*Model_Space
 70
     0
 10
0.0
 20
0.0
 30
0.0
  3
*Model_Space
  1

  0
ENDBLK
  5
21
330
1F
100
AcDbEntity
  8
0
100
AcDbBlockEnd
  0
BLOCK
  5
1C
330
1B
100
AcDbEntity
 67
     1
  8
0
100
AcDbBlockBegin
  2
*Paper_Space
 70
     0
 10
0.0
 20
0.0
 30
0.0
  3
*Paper_Space
  1

  0
ENDBLK
  5
1D
330
1B
100
AcDbEntity
 67
     1
  8
0
100
AcDbBlockEnd
  0
BLOCK
  5
24
330
23
100
AcDbEntity
  8
0
100
AcDbBlockBegin
  2
*Paper_Space0
 70
     0
 10
0.0
 20
0.0
 30
0.0
  3
*Paper_Space0
  1

  0
ENDBLK
  5
25
330
23
100
AcDbEntity
  8
0
100
AcDbBlockEnd
  0
BLOCK
  5
74
330
73
100
AcDbEntity
  8
0
100
AcDbBlockBegin
  2
SW_NOTE_0
 70
     0
 10
0.0
 20
0.0
 30
0.0
  3
SW_NOTE_0
  1

  0
MTEXT
  5
77
330
73
100
AcDbEntity
  8
0
  6
Continuous
 62
     0
370
     0
100
AcDbMText
 10
0.0
 20
0.0341065839
 30
0.0
 40
0.0264583333
 41
0.0
 71
     1
 72
     1
  1
HOA-D12K
  7
SLDTEXTSTYLE0
 73
     1
 44
1.0
  0
MTEXT
  5
78
330
73
100
AcDbEntity
  8
0
  6
Continuous
 62
     0
370
     0
100
AcDbMText
 10
0.0
 20
-0.0061711942
 30
0.0
 40
0.0264583333
 41
0.0
 71
     1
 72
     1
  1
HOA-D12O
  7
SLDTEXTSTYLE0
 73
     1
 44
1.0
  0
MTEXT
  5
79
330
73
100
AcDbEntity
  8
0
  6
Continuous
 62
     0
370
     0
100
AcDbMText
 10
0.0
 20
-0.0464489724
 30
0.0
 40
0.0264583333
 41
0.0
 71
     1
 72
     1
  1
HOA-D12W
  7
SLDTEXTSTYLE0
 73
     1
 44
1.0
  0
ENDBLK
  5
75
330
73
100
AcDbEntity
  8
0
100
AcDbBlockEnd
  0
ENDSEC
  0
SECTION
  2
ENTITIES
  0
INSERT
  5
7A
330
1F
100
AcDbEntity
  8
0
  6
Continuous
 62
     7
370
     0
100
AcDbBlockReference
  2
SW_NOTE_0
 10
0.7352580017
 20
0.2592450843
 30
0.0
  0
SPLINE
  5
7B
330
1F
100
AcDbEntity
  8
0
  6
Continuous
 62
     7
370
    25
100
AcDbSpline
210
0.0
220
0.0
230
1.0
 70
     8
 71
     3
 72
    28
 73
    24
 74
     0
 42
0.00000001
 43
0.00000001
 40
0.0
 40
0.0
 40
0.0
 40
0.0
 40
0.0127973364219188
 40
0.0627616392768003
 40
0.1127259421316819
 40
0.1617468537580359
 40
0.2115551709424003
 40
0.2607661989259657
 40
0.310292485266868
 40
0.361578744134409
 40
0.4107897681416041
 40
0.4605980853259686
 40
0.5096189969523225
 40
0.559583299807204
 40
0.6095476136860857
 40
0.6585685170331621
 40
0.7083768342175265
 40
0.759297622408888
 40
0.8088239116947923
 40
0.8583501991880866
 40
0.9075612231952818
 40
0.9573695403796462
 40
0.9999999999999999
 40
0.9999999999999999
 40
0.9999999999999999
 40
0.9999999999999999
 10
0.5307024373834566
 20
1.223651823326175
 30
0.0
 10
0.5307170023475694
 20
1.223739353162932
 30
0.0
 10
0.5307884329166805
 20
1.224168623431321
 30
0.0
 10
0.5303354318560535
 20
1.224930561118065
 30
0.0
 10
0.5298304671292408
 20
1.225937551675637
 30
0.0
 10
0.5285254676347337
 20
1.226851820038115
 30
0.0
 10
0.5270422987735943
 20
1.227710658145472
 30
0.0
 10
0.5252081644082763
 20
1.228491410709784
 30
0.0
 10
0.522948359607521
 20
1.229119342032733
 30
0.0
 10
0.5205226467788626
 20
1.229660695121574
 30
0.0
 10
0.5178219582301564
 20
1.23000440075338
 30
0.0
 10
0.5150769009505988
 20
1.230197780430777
 30
0.0
 10
0.5122557907756399
 20
1.230308434179031
 30
0.0
 10
0.5094740868422294
 20
1.230124993996108
 30
0.0
 10
0.5066945072400391
 20
1.229936561048186
 30
0.0
 10
0.5041742239215449
 20
1.229467826605056
 30
0.0
 10
0.5017721807679092
 20
1.228928723162216
 30
0.0
 10
0.4996241718837185
 20
1.228247189082754
 30
0.0
 10
0.4978836865964676
 20
1.227435399479608
 30
0.0
 10
0.4964221416142467
 20
1.22656538064645
 30
0.0
 10
0.495503559254091
 20
1.22560036950751
 30
0.0
 10
0.4949488341299053
 20
1.224649182497901
 30
0.0
 10
0.4948656686692976
 20
1.224016789737393
 30
0.0
 10
0.4948273148319494
 20
1.223725145960042
 30
0.0
  0
SPLINE
  5
7C
330
1F
100
AcDbEntity
  8
0
  6
Continuous
 62
     7
370
    25
100
AcDbSpline
210
0.0
220
0.0
230
1.0
 70
     8
 71
     3
 72
    18
 73
    14
 74
     0
 42
0.00000001
 43
0.00000001
 40
0.0
 40
0.0
 40
0.0
 40
0.0
 40
0.0330736948428069
 40
0.0562156629221681
 40
0.2537602664119847
 40
0.6981438741121025
 40
0.9137425541368978
 40
0.9367926682569055
 40
0.9449129910614734
 40
0.9507642058118783
 40
0.9819763629225878
 40
0.9909388956641931
 40
1.0
 40
1.0
 40
1.0
 40
1.0
 10
0.4948273148319494
 20
1.223725145960042
 30
0.0
 10
0.4948275458342602
 20
1.223367173111027
 30
0.0
 10
0.4948279384710098
 20
1.222758723371404
 30
0.0
 10
0.4948060583548822
 20
1.219913387785113
 30
0.0
 10
0.4948502747942174
 20
1.212453761879535
 30
0.0
 10
0.4946223756137257
 20
1.205394272945626
 30
0.0
 10
0.4951275997560851
 20
1.193622989497499
 30
0.0
 10
0.4947872256493791
 20
1.193841322972187
 30
0.0
 10
0.494832318761037
 20
1.193582047442841
 30
0.0
 10
0.4947759534011508
 20
1.193489470870117
 30
0.0
 10
0.4949267680581806
 20
1.193717445953188
 30
0.0
 10
0.4946980892689809
 20
1.193114511633267
 30
0.0
 10
0.4946646644231945
 20
1.193072579118211
 30
0.0
 10
0.494647860599761
 20
1.193051498195845
 30
0.0
  0
SPLINE
  5
7D
330
1F
100
AcDbEntity
  8
0
  6
Continuous
 62
     7
370
    25
100
AcDbSpline
210
0.0
220
0.0
230
1.0
 70
     8
 71
     3
 72
     9
 73
     5
 74
     0
 42
0.00000001
 43
0.00000001
 40
0.0
 40
0.0
 40
0.0
 40
0.0
 40
0.5787538165529905
 40
0.9999999999999999
 40
0.9999999999999999
 40
0.9999999999999999
 40
0.9999999999999999
 10
0.4947730227122685
 20
1.15574852901637
 30
0.0
 10
0.4947505038920992
 20
1.149586027074209
 30
0.0
 10
0.4947115947401847
 20
1.138938145771474
 30
0.0
 10
0.4947171027171715
 20
1.128270901629639
 30
0.0
 10
0.4947194229314558
 20
1.123777365746994
 30
0.0
  0
LINE
  5
7E
330
1F
100
AcDbEntity
  8
0
  6
Continuous
 62
     7
370
    25
100
AcDbLine
 10
0.53059889
 20
1.1237257818
 30
0.0
 11
0.5307024374
 21
1.2236518233
 31
0.0
  0
SPLINE
  5
7F
330
1F
100
AcDbEntity
  8
0
  6
Continuous
 62
     7
370
    25
100
AcDbSpline
210
0.0
220
0.0
230
1.0
 70
     8
 71
     3
 72
    19
 73
    15
 74
     0
 42
0.00000001
 43
0.00000001
 40
0.0
 40
0.0
 40
0.0
 40
0.0
 40
0.0820426335749497
 40
0.1673023362584967
 40
0.2502566768956949
 40
0.3330667164567713
 40
0.4175814444138992
 40
0.5024230844700401
 40
0.5856619960856579
 40
0.6672688547249012
 40
0.750508263813766
 40
0.8355830519540468
 40
0.9183935640730555
 40
1.0
 40
1.0
 40
1.0
 40
1.0
 10
0.4816653641173143
 20
1.170227271364062
 30
0.0
 10
0.4815004654477648
 20
1.169879624028495
 30
0.0
 10
0.4811642020751812
 20
1.169170697353425
 30
0.0
 10
0.4812978670787615
 20
1.16769934996856
 30
0.0
 10
0.4820526039738101
 20
1.166228749178025
 30
0.0
 10
0.4830307239801267
 20
1.164363600932434
 30
0.0
 10
0.4846740318037872
 20
1.162698676618197
 30
0.0
 10
0.4866271817614107
 20
1.160788517522311
 30
0.0
 10
0.4888960556742534
 20
1.159154559685427
 30
0.0
 10
0.4913568216965803
 20
1.157551797046236
 30
0.0
 10
0.4939249150071184
 20
1.156063502065778
 30
0.0
 10
0.4966215151240885
 20
1.154884085169408
 30
0.0
 10
0.4992096190307345
 20
1.153989173038435
 30
0.0
 10
0.500797182948628
 20
1.153627029590829
 30
0.0
 10
0.5015851517966405
 20
1.153447283911295
 30
0.0
  0
SPLINE
  5
80
330
1F
100
AcDbEntity
  8
0
  6
Continuous
 62
     7
370
    25
100
AcDbSpline
210
0.0
220
0.0
230
1.0
 70
     8
 71
     3
 72
    10
 73
     6
 74
     0
 42
0.00000001
 43
0.00000001
 40
0.0
 40
0.0
 40
0.0
 40
0.0
 40
0.3889295860273023
 40
0.7702312593307039
 40
1.0
 40
1.0
 40
1.0
 40
1.0
 10
0.5057249610504176
 20
1.153190749341069
 30
0.0
 10
0.5062743419172411
 20
1.153314242694983
 30
0.0
 10
0.5073623288745406
 20
1.153558807379495
 30
0.0
 10
0.5083045120813042
 20
1.154180058479436
 30
0.0
 10
0.508597663113891
 20
1.154685871814878
 30
0.0
 10
0.5087078909076823
 20
1.154876062814869
 30
0.0
  0
SPLINE
  5
81
330
1F
100
AcDbEntity
  8
0
  6
Continuous
 62
     7
370
    25
100
AcDbSpline
210
0.0
220
0.0
230
1.0
 70
     8
 71
     3
 72
    23
 73
    19
 74
     0
 42
0.00000001
 43
0.00000001
 40
0.0
 40
0.0
 40
0.0
 40
0.0
 40
0.0159666020965675
 40
0.0833321081213004
 40
0.1503534180919238
 40
0.217324701279423
 40
0.2846413971981058
 40
0.3493998665973015
 40
0.4163711497848007
 40
0.4833924597554241
 40
0.550757956163102
 40
0.6183206950152418
 40
0.684546017687068
 40
0.752107846036425
 40
0.8172750348104534
 40
0.8852770061856703
 40
0.9520993370599137
 40
1.0
 40
1.0
 40
1.0
 40
1.0
 10
0.4838681669391079
 20
1.169878756571849
 30
0.0
 10
0.4839164082456536
 20
1.169947275318977
 30
0.0
 10
0.4841681869114373
 20
1.170304885010101
 30
0.0
 10
0.4851746316445932
 20
1.170430712471036
 30
0.0
 10
0.4866197245751104
 20
1.170789604631025
 30
0.0
 10
0.4885243434337039
 20
1.170694993851731
 30
0.0
 10
0.4904857846207095
 20
1.170278419603728
 30
0.0
 10
0.49277125740536
 20
1.169635086996757
 30
0.0
 10
0.4950327191484132
 20
1.168691734496361
 30
0.0
 10
0.4973159457271561
 20
1.167428602815188
 30
0.0
 10
0.4996731374241447
 20
1.166249757530741
 30
0.0
 10
0.5017155403211719
 20
1.16473502344045
 30
0.0
 10
0.5035813495828769
 20
1.163139176072796
 30
0.0
 10
0.5050318463405994
 20
1.161590909102141
 30
0.0
 10
0.5062642872505098
 20
1.16003533496576
 30
0.0
 10
0.5071053500589302
 20
1.158592450166163
 30
0.0
 10
0.5073099663834244
 20
1.157437574101849
 30
0.0
 10
0.5072648510750333
 20
1.156781647576445
 30
0.0
 10
0.5072460139342926
 20
1.156507776451204
 30
0.0
  0
SPLINE
  5
82
330
1F
100
AcDbEntity
  8
0
  6
Continuous
 62
     7
370
    25
100
AcDbSpline
210
0.0
220
0.0
230
1.0
 70
     8
 71
     3
 72
     9
 73
     5
 74
     0
 42
0.00000001
 43
0.00000001
 40
0.0
 40
0.0
 40
0.0
 40
0.0
 40
0.5410615257777128
 40
1.0
 40
1.0
 40
1.0
 40
1.0
 10
0.5087078909076823
 20
1.154876062814869
 30
0.0
 10
0.5098040989616253
 20
1.156833150875447
 30
0.0
 10
0.5118301311256519
 20
1.16045027751879
 30
0.0
 10
0.5138219766934093
 20
1.16398012138964
 30
0.0
 10
0.5147361112591623
 20
1.165600102549971
 30
0.0
  0
LINE
  5
83
330
1F
100
AcDbEntity
  8
0
  6
Continuous
 62
     7
370
    25
100
AcDbLine
 10
0.4841481345
 20
1.1701150256
 30
0.0
 11
0.4838681669
 21
1.1698787566
 31
0.0
  0
LINE
  5
84
330
1F
100
AcDbEntity
  8
0
  6
Continuous
 62
     7
370
    25
100
AcDbLine
 10
0.4947235455
 20
1.1235849082
 30
0.0
 11
0.4942235138
 21
0.6410405838
 31
0.0
  0
LINE
  5
85
330
1F
100
AcDbEntity
  8
0
  6
Continuous
 62
     7
370
    25
100
AcDbLine
 10
0.5300986364
 20
0.6409672612
 30
0.0
 11
0.53059889
 21
1.1237257818
 31
0.0
  0
SPLINE
  5
86
330
1F
100
AcDbEntity
  8
0
  6
Continuous
 62
     7
370
    25
100
AcDbSpline
210
0.0
220
0.0
230
1.0
 70
     8
 71
     3
 72
    18
 73
    14
 74
     0
 42
0.00000001
 43
0.00000001
 40
0.0
 40
0.0
 40
0.0
 40
0.0
 40
0.0786934041717564
 40
0.1757094381111525
 40
0.2719673610493073
 40
0.3688469796312233
 40
0.4650202805567733
 40
0.5617369571360122
 40
0.6587529860937777
 40
0.7546667453540159
 40
0.8520282746079525
 40
0.9482015997731491
 40
1.0
 40
1.0
 40
1.0
 40
1.0
 10
0.5868376691998014
 20
0.6644972293428636
 30
0.0
 10
0.5868070906864704
 20
0.6654399048408597
 30
0.0
 10
0.5867388138918367
 20
0.667544744297449
 30
0.0
 10
0.5851178533156037
 20
0.6707640829793806
 30
0.0
 10
0.5822288708517434
 20
0.6740832255482783
 30
0.0
 10
0.578309548393653
 20
0.677253655046865
 30
0.0
 10
0.5733167151548989
 20
0.6802281798527043
 30
0.0
 10
0.5672270219396129
 20
0.6829275355589832
 30
0.0
 10
0.5602154357960605
 20
0.6853005410867399
 30
0.0
 10
0.5525826714757112
 20
0.6874332532967522
 30
0.0
 10
0.5440789135905142
 20
0.6890437432569119
 30
0.0
 10
0.5365876497509793
 20
0.6902075051954546
 30
0.0
 10
0.5318193877784485
 20
0.6906132769459143
 30
0.0
 10
0.5301502287456318
 20
0.6907553198090044
 30
0.0
  0
SPLINE
  5
87
330
1F
100
AcDbEntity
  8
0
  6
Continuous
 62
     7
370
    25
100
AcDbSpline
210
0.0
220
0.0
230
1.0
 70
     8
 71
     3
 72
    18
 73
    14
 74
     0
 42
0.00000001
 43
0.00000001
 40
0.0
 40
0.0
 40
0.0
 40
0.0
 40
0.0660618104245759
 40
0.1622716334485314
 40
0.2583387047637142
 40
0.3552749888982485
 40
0.4517802517970745
 40
0.5487689501904828
 40
0.6447513090923362
 40
0.7412565627679197
 40
0.8381928469024541
 40
0.9351710743377832
 40
1.0
 40
1.0
 40
1.0
 40
1.0
 10
0.4942750606118241
 20
0.6907846530278443
 30
0.0
 10
0.4921487687494036
 20
0.6906022845632795
 30
0.0
 10
0.4869258290284704
 20
0.6901543218380041
 30
0.0
 10
0.4790426520514613
 20
0.6889263878948875
 30
0.0
 10
0.470775218075027
 20
0.6871885639249489
 30
0.0
 10
0.4630433626062025
 20
0.6851342170340067
 30
0.0
 10
0.4562408454201397
 20
0.6826713459566374
 30
0.0
 10
0.4503265790499792
 20
0.6799414612274951
 30
0.0
 10
0.4454341775454132
 20
0.6769593457967661
 30
0.0
 10
0.4415327607147389
 20
0.6737845406928535
 30
0.0
 10
0.4390867416575538
 20
0.6704195811039898
 30
0.0
 10
0.437508140658569
 20
0.6673622770573296
 30
0.0
 10
0.4375126174371805
 20
0.6654224433215856
 30
0.0
 10
0.4375144110831488
 20
0.6646452382682602
 30
0.0
  0
SPLINE
  5
88
330
1F
100
AcDbEntity
  8
0
  6
Continuous
 62
     7
370
    25
100
AcDbSpline
210
0.0
220
0.0
230
1.0
 70
     8
 71
     3
 72
    33
 73
    29
 74
     0
 42
0.00000001
 43
0.00000001
 40
0.0
 40
0.0
 40
0.0
 40
0.0
 40
0.0072731948610886
 40
0.0482152757258763
 40
0.0888375873930685
 40
0.1296051337430346
 40
0.1706547872486227
 40
0.2113739831284324
 40
0.2519939766884634
 40
0.2927615230384296
 40
0.333786033503106
 40
0.3747281143678938
 40
0.4152741335547496
 40
0.4560232647836901
 40
0.4967516863304351
 40
0.5377601773664469
 40
0.5784885838093322
 40
0.6191916455513418
 40
0.6599983065583416
 40
0.7007382343119176
 40
0.7416436418660131
 40
0.7825215097743138
 40
0.8230837212131591
 40
0.8637775649807657
 40
0.9048728934360099
 40
0.9453471205609494
 40
0.9862249867591772
 40
1.0
 40
1.0
 40
1.0
 40
1.0
 10
0.5855419639628859
 20
0.6644781421713406
 30
0.0
 10
0.5855654252642061
 20
0.6642756174426829
 30
0.0
 10
0.5857209543176196
 20
0.662933045736571
 30
0.0
 10
0.585028595720389
 20
0.6604552607480829
 30
0.0
 10
0.5830057441340143
 20
0.6571240228880771
 30
0.0
 10
0.579844745458953
 20
0.6539016825759856
 30
0.0
 10
0.5755220746263132
 20
0.6508606447923673
 30
0.0
 10
0.570193078016924
 20
0.6480435153887065
 30
0.0
 10
0.5639261386743035
 20
0.6454998906968004
 30
0.0
 10
0.5567543625483063
 20
0.6432837034964225
 30
0.0
 10
0.5489363956024742
 20
0.6413535327899784
 30
0.0
 10
0.5403884995524745
 20
0.6398931538292213
 30
0.0
 10
0.5314747688196528
 20
0.6387983552170928
 30
0.0
 10
0.5222681767061547
 20
0.6380782441190864
 30
0.0
 10
0.512828486878072
 20
0.6378958378624621
 30
0.0
 10
0.503396273728248
 20
0.6380809333440663
 30
0.0
 10
0.4941120587517612
 20
0.6387244555026127
 30
0.0
 10
0.4851197867916185
 20
0.6397616963935435
 30
0.0
 10
0.4765906073507478
 20
0.6412305592878134
 30
0.0
 10
0.4686302835328717
 20
0.643079012867469
 30
0.0
 10
0.4613651063620541
 20
0.6452774181132066
 30
0.0
 10
0.4549806398587027
 20
0.6477988480784322
 30
0.0
 10
0.4494379949765218
 20
0.6505661656358392
 30
0.0
 10
0.4451300132477762
 20
0.65361108807367
 30
0.0
 10
0.4416851565034896
 20
0.6567951818456494
 30
0.0
 10
0.4396132989679917
 20
0.6601317650275096
 30
0.0
 10
0.4386921272448723
 20
0.662776241677473
 30
0.0
 10
0.4388240558059689
 20
0.664298948072149
 30
0.0
 10
0.4388573078083264
 20
0.664682739392274
 30
0.0
  0
SPLINE
  5
89
330
1F
100
AcDbEntity
  8
0
  6
Continuous
 62
     7
370
    25
100
AcDbSpline
210
0.0
220
0.0
230
1.0
 70
     8
 71
     3
 72
    13
 73
     9
 74
     0
 42
0.00000001
 43
0.00000001
 40
0.0
 40
0.0
 40
0.0
 40
0.0
 40
0.1457391808751174
 40
0.3212501111936943
 40
0.4969251975051659
 40
0.6725367833086316
 40
0.8471078449970249
 40
1.0
 40
1.0
 40
1.0
 40
1.0
 10
0.6120810400341229
 20
0.4304232793922196
 30
0.0
 10
0.6120125467890175
 20
0.4317142975453419
 30
0.0
 10
0.611861568428401
 20
0.434560064364897
 30
0.0
 10
0.6098277289604248
 20
0.4389187478275342
 30
0.0
 10
0.6059727462938157
 20
0.4433841632542053
 30
0.0
 10
0.600677302299779
 20
0.4476393895714396
 30
0.0
 10
0.5943065611247382
 20
0.4514793326412779
 30
0.0
 10
0.589066742640758
 20
0.4536809422280361
 30
0.0
 10
0.5866202781250343
 20
0.4547088709144873
 30
0.0
  0
SPLINE
  5
8A
330
1F
100
AcDbEntity
  8
0
  6
Continuous
 62
     7
370
    25
100
AcDbSpline
210
0.0
220
0.0
230
1.0
 70
     8
 71
     3
 72
    14
 73
    10
 74
     0
 42
0.00000001
 43
0.00000001
 40
0.0
 40
0.0
 40
0.0
 40
0.0
 40
0.0029998230270654
 40
0.1793873855796176
 40
0.3544128720162809
 40
0.5294596309448697
 40
0.705106515030692
 40
0.8808965078498585
 40
1.0
 40
1.0
 40
1.0
 40
1.0
 10
0.4372970593204413
 20
0.4548948170572772
 30
0.0
 10
0.4372450361608988
 20
0.4548761805743078
 30
0.0
 10
0.4341340864496207
 20
0.4537617315131077
 30
0.0
 10
0.4290783732817836
 20
0.4511892765183435
 30
0.0
 10
0.4223710765388582
 20
0.447225493861503
 30
0.0
 10
0.4171878764101355
 20
0.4429531209530401
 30
0.0
 10
0.4137593934103854
 20
0.4384606931045106
 30
0.0
 10
0.4118606888201144
 20
0.4343388441061688
 30
0.0
 10
0.4118358519226568
 20
0.431728154509913
 30
0.0
 10
0.4118258206355238
 20
0.430673732273808
 30
0.0
  0
SPLINE
  5
8B
330
1F
100
AcDbEntity
  8
0
  6
Continuous
 62
     7
370
    25
100
AcDbSpline
210
0.0
220
0.0
230
1.0
 70
     8
 71
     3
 72
    33
 73
    29
 74
     0
 42
0.00000001
 43
0.00000001
 40
0.0
 40
0.0
 40
0.0
 40
0.0
 40
0.0131664470365265
 40
0.0537396456833707
 40
0.0946796419522695
 40
0.1355838398768103
 40
0.1765262920986795
 40
0.2171467792754655
 40
0.257928567723132
 40
0.2987870630456582
 40
0.3398046974471489
 40
0.3806644223851985
 40
0.4214858255943445
 40
0.4621771122408467
 40
0.5031109377401205
 40
0.5440595647611841
 40
0.5847409232300986
 40
0.6256117667166233
 40
0.6664517184659754
 40
0.7072322676589985
 40
0.7483200163302359
 40
0.7890013771577253
 40
0.8299993055240769
 40
0.8706806619465849
 40
0.9114612120622906
 40
0.9525366667832478
 40
0.9930999250467564
 40
1.0
 40
1.0
 40
1.0
 40
1.0
 10
0.4118217637417856
 20
0.4267587183820664
 30
0.0
 10
0.4117665360737979
 20
0.4262587600573413
 30
0.0
 10
0.4115411210243666
 20
0.4242181500770903
 30
0.0
 10
0.4129395814940389
 20
0.42063495972807
 30
0.0
 10
0.4156723617634608
 20
0.4160832098790218
 30
0.0
 10
0.4204403130086809
 20
0.4117291990877847
 30
0.0
 10
0.4263667771521382
 20
0.4075858753278462
 30
0.0
 10
0.4338914522135637
 20
0.4037982738584927
 30
0.0
 10
0.4425374734917941
 20
0.400345285650861
 30
0.0
 10
0.4524918520970521
 20
0.3973621192296656
 30
0.0
 10
0.4633554835656667
 20
0.3948337159800588
 30
0.0
 10
0.4749924921724183
 20
0.3927992777791027
 30
0.0
 10
0.4872737774010139
 20
0.3913923595289453
 30
0.0
 10
0.4999320831040415
 20
0.3905257372861913
 30
0.0
 10
0.5128053369262735
 20
0.3902805197088945
 30
0.0
 10
0.5256668230938618
 20
0.3905756952296869
 30
0.0
 10
0.5382856360383793
 20
0.3915103724769375
 30
0.0
 10
0.5504718718534393
 20
0.3929976094036598
 30
0.0
 10
0.5620295053728555
 20
0.395050555049742
 30
0.0
 10
0.5727584773615875
 20
0.3976355206862261
 30
0.0
 10
0.5825389341284368
 20
0.400666879587373
 30
0.0
 10
0.5910850041935387
 20
0.4041650377212871
 30
0.0
 10
0.5983482935814356
 20
0.4080023162449182
 30
0.0
 10
0.6042799046319448
 20
0.4121373165517022
 30
0.0
 10
0.6085327791977582
 20
0.4165417637918961
 30
0.0
 10
0.6113065399446418
 20
0.4210804879828353
 30
0.0
 10
0.6123593777804455
 20
0.4244454847210744
 30
0.0
 10
0.6121128260768084
 20
0.4262464470739091
 30
0.0
 10
0.6120769831403847
 20
0.426508265500478
 30
0.0
  0
LINE
  5
8C
330
1F
100
AcDbEntity
  8
0
  6
Continuous
 62
     7
370
    25
100
AcDbLine
 10
0.4118258206
 20
0.4306737323
 30
0.0
 11
0.4118217637
 21
0.4267587184
 31
0.0
  0
LINE
  5
8D
330
1F
100
AcDbEntity
  8
0
  6
Continuous
 62
     7
370
    25
100
AcDbLine
 10
0.4375144111
 20
0.6646452383
 30
0.0
 11
0.4372719634
 21
0.4306765437
 31
0.0
  0
LINE
  5
8E
330
1F
100
AcDbEntity
  8
0
  6
Continuous
 62
     7
370
    25
100
AcDbLine
 10
0.4388573078
 20
0.6646827394
 30
0.0
 11
0.4388559095
 21
0.6633333038
 31
0.0
  0
LINE
  5
8F
330
1F
100
AcDbEntity
  8
0
  6
Continuous
 62
     7
370
    25
100
AcDbLine
 10
0.5855410568
 20
0.6636026645
 30
0.0
 11
0.585541964
 21
0.6644781422
 31
0.0
  0
LINE
  5
90
330
1F
100
AcDbEntity
  8
0
  6
Continuous
 62
     7
370
    25
100
AcDbLine
 10
0.5865952215
 20
0.4305285348
 30
0.0
 11
0.5868376692
 21
0.6644972293
 31
0.0
  0
LINE
  5
91
330
1F
100
AcDbEntity
  8
0
  6
Continuous
 62
     7
370
    25
100
AcDbLine
 10
0.6120769831
 20
0.4265082655
 30
0.0
 11
0.61208104
 21
0.4304232794
 31
0.0
  0
LINE
  5
92
330
1F
100
AcDbEntity
  8
0
  6
Continuous
 62
     7
370
    25
100
AcDbLine
 10
0.4946478606
 20
1.1930514982
 30
0.0
 11
0.4947311349
 21
1.1933365822
 31
0.0
  0
ARC
  5
93
330
1F
100
AcDbEntity
  8
0
  6
Continuous
 62
     7
370
    25
100
AcDbCircle
 10
0.504729322
 20
1.1706549049
 30
0.0
 40
0.0174925134472941
100
AcDbArc
 50
259.6451648144
 51
273.2629250902
  0
LWPOLYLINE
  5
94
330
1F
100
AcDbEntity
  8
0
  6
Continuous
 62
     7
370
    25
100
AcDbPolyline
 90
       14
 70
   128
 43
0.0
 10
0.4998581639
 20
1.1935527993
 10
0.5021642904
 20
1.1929407118
 10
0.504670055
 20
1.1922185959
 10
0.5072929426
 20
1.1914070911
 10
0.5100024907
 20
1.1904259043
 10
0.5128290635
 20
1.1892620425
 10
0.5155771679
 20
1.1878764357
 10
0.518384746
 20
1.1852529075
 10
0.5192479856
 20
1.1841771139
 10
0.5199138951
 20
1.1812911004
 10
0.5196015588
 20
1.1774637285
 10
0.5183416318
 20
1.1729616401
 10
0.5164432615
 20
1.1685360587
 10
0.5147361113
 20
1.1656001025
  0
LWPOLYLINE
  5
95
330
1F
100
AcDbEntity
  8
0
  6
Continuous
 62
     7
370
    25
100
AcDbPolyline
 90
        7
 70
   128
 43
0.0
 10
0.4998581639
 20
1.1935527993
 10
0.4875277181
 20
1.1717633724
 10
0.4854990219
 20
1.1718347877
 10
0.4837220224
 20
1.1716955223
 10
0.4824440721
 20
1.1710975301
 10
0.4816653641
 20
1.1702272714
 10
0.4947311349
 20
1.1933365822
  0
LWPOLYLINE
  5
96
330
1F
100
AcDbEntity
  8
0
  6
Continuous
 62
   144
370
    18
100
AcDbPolyline
 90
       24
 70
   128
 43
0.0
 10
0.4947194229
 20
1.1237773657
 10
0.4946976294
 20
1.1236683211
 10
0.495022686
 20
1.1226221006
 10
0.4957387311
 20
1.1216541314
 10
0.4968717928
 20
1.1207140592
 10
0.4984523331
 20
1.1198820653
 10
0.5002848575
 20
1.1191190244
 10
0.5025648597
 20
1.1184640615
 10
0.504988301
 20
1.1179489338
 10
0.5076116705
 20
1.1176034677
 10
0.5103219913
 20
1.1173680105
 10
0.5131497237
 20
1.1173227433
 10
0.5145658071
 20
1.1173653779
 10
0.5158993741
 20
1.1174285403
 10
0.5187099467
 20
1.1176947005
 10
0.5213034321
 20
1.1181026254
 10
0.5235973124
 20
1.1186728439
 10
0.5257001306
 20
1.1193344732
 10
0.5262345592
 20
1.11955256
 10
0.5274468559
 20
1.1201285686
 10
0.5288635155
 20
1.1210047756
 10
0.529867593
 20
1.1219836219
 10
0.5305111419
 20
1.1229643986
 10
0.53059889
 20
1.1237257818
  0
ENDSEC
  0
SECTION
  2
OBJECTS
  0
DICTIONARY
  5
C
330
0
100
AcDbDictionary
281
     1
  3
ACAD_GROUP
350
D
  3
ACAD_LAYOUT
350
1A
  3
ACAD_MLINESTYLE
350
17
  3
ACAD_PLOTSETTINGS
350
19
  3
ACAD_PLOTSTYLENAME
350
E
  3
ACAD_SCALELIST
350
47
  3
DWGPROPS
350
97
  0
DICTIONARY
  5
D
102
{ACAD_REACTORS
330
C
102
}
330
C
100
AcDbDictionary
281
     1
  0
DICTIONARY
  5
1A
102
{ACAD_REACTORS
330
C
102
}
330
C
100
AcDbDictionary
281
     1
  3
Layout1
350
1E
  3
Layout2
350
26
  3
Model
350
22
  0
DICTIONARY
  5
17
102
{ACAD_REACTORS
330
C
102
}
330
C
100
AcDbDictionary
281
     1
  3
Standard
350
18
  0
DICTIONARY
  5
19
102
{ACAD_REACTORS
330
C
102
}
330
C
100
AcDbDictionary
281
     1
  0
ACDBDICTIONARYWDFLT
  5
E
102
{ACAD_REACTORS
330
C
102
}
330
C
100
AcDbDictionary
281
     1
  3
Normal
350
F
100
AcDbDictionaryWithDefault
340
F
  0
DICTIONARY
  5
47
102
{ACAD_REACTORS
330
C
102
}
330
C
100
AcDbDictionary
281
     1
  3
A0
350
48
  3
A1
350
49
  3
A2
350
4A
  3
A3
350
4B
  3
A4
350
4C
  3
A5
350
4D
  3
A6
350
4E
  3
A7
350
4F
  3
A8
350
50
  3
A9
350
51
  3
B0
350
52
  3
B1
350
53
  3
B2
350
54
  3
B3
350
55
  3
B4
350
56
  3
B5
350
57
  3
B6
350
58
  3
B7
350
59
  3
B8
350
5A
  3
B9
350
5B
  3
C0
350
5C
  3
C1
350
5D
  3
C2
350
5E
  3
C3
350
5F
  3
C4
350
60
  3
C5
350
61
  3
C6
350
62
  3
C7
350
63
  3
C8
350
64
  3
C9
350
65
  3
D0
350
66
  3
D1
350
67
  3
D2
350
68
  0
XRECORD
  5
97
102
{ACAD_REACTORS
330
C
102
}
330
C
100
AcDbXrecord
280
     1
  1
DWGPROPS COOKIE
  2

  3

  4

  6

  7

  8
9222
  9

300
=
301
=
302
=
303
=
304
=
305
=
306
=
307
=
308
=
309
=
 40
0.0
 41
2459916.314458438
 42
2459916.314458611
  1

 90
        0
  0
LAYOUT
  5
1E
102
{ACAD_REACTORS
330
1A
102
}
330
1A
100
AcDbPlotSettings
  1

  2
none_device
  4

  6

 40
0.0
 41
0.0
 42
0.0
 43
0.0
 44
0.0
 45
0.0
 46
0.0
 47
0.0
 48
0.0
 49
0.0
140
0.0
141
0.0
142
1.0
143
1.0
 70
   688
 72
     1
 73
     0
 74
     5
  7

 75
    16
147
1.0
148
0.0
149
0.0
100
AcDbLayout
  1
Layout1
 70
     1
 71
     1
 10
0.0
 20
0.0
 11
420.0
 21
297.0
 12
0.0
 22
0.0
 32
0.0
 14
1.0000000000E+20
 24
1.0000000000E+20
 34
1.0000000000E+20
 15
-1.0000000000E+20
 25
-1.0000000000E+20
 35
-1.0000000000E+20
146
0.0
 13
0.0
 23
0.0
 33
0.0
 16
1.0
 26
0.0
 36
0.0
 17
0.0
 27
1.0
 37
0.0
 76
     0
330
1B
  0
LAYOUT
  5
26
102
{ACAD_REACTORS
330
1A
102
}
330
1A
100
AcDbPlotSettings
  1

  2
none_device
  4

  6

 40
0.0
 41
0.0
 42
0.0
 43
0.0
 44
0.0
 45
0.0
 46
0.0
 47
0.0
 48
0.0
 49
0.0
140
0.0
141
0.0
142
1.0
143
1.0
 70
   688
 72
     1
 73
     0
 74
     5
  7

 75
    16
147
1.0
148
0.0
149
0.0
100
AcDbLayout
  1
Layout2
 70
     1
 71
     2
 10
0.0
 20
0.0
 11
0.0
 21
0.0
 12
0.0
 22
0.0
 32
0.0
 14
0.0
 24
0.0
 34
0.0
 15
0.0
 25
0.0
 35
0.0
146
0.0
 13
0.0
 23
0.0
 33
0.0
 16
1.0
 26
0.0
 36
0.0
 17
0.0
 27
1.0
 37
0.0
 76
     0
330
23
  0
LAYOUT
  5
22
102
{ACAD_REACTORS
330
1A
102
}
330
1A
100
AcDbPlotSettings
  1

  2
none_device
  4
Letter_(8.50_x_11.00_Inches)
  6

 40
6.35
 41
6.35
 42
6.35000508
 43
6.35000508
 44
215.9
 45
279.4
 46
0.0
 47
0.0
 48
0.0
 49
0.0
140
0.0
141
0.0
142
1.0
143
1.0
 70
  1712
 72
     1
 73
     0
 74
     0
  7

 75
     0
147
1.0
148
0.0
149
0.0
100
AcDbLayout
  1
Model
 70
     1
 71
     0
 10
0.0
 20
0.0
 11
1.05
 21
1.485
 12
0.0
 22
0.0
 32
0.0
 14
0.0
 24
0.0
 34
0.0
 15
1.05
 25
1.485
 35
0.0
146
0.0
 13
0.0
 23
0.0
 33
0.0
 16
1.0
 26
0.0
 36
0.0
 17
0.0
 27
1.0
 37
0.0
 76
     0
330
1F
331
29
  0
MLINESTYLE
  5
18
102
{ACAD_REACTORS
330
17
102
}
330
17
100
AcDbMlineStyle
  2
Standard
 70
     0
  3

 62
   256
 51
90.0
 52
90.0
 71
     2
 49
0.5
 62
   256
  6
BYLAYER
 49
-0.5
 62
   256
  6
BYLAYER
  0
ACDBPLACEHOLDER
  5
F
102
{ACAD_REACTORS
330
E
102
}
330
E
  0
SCALE
  5
48
102
{ACAD_REACTORS
330
47
102
}
330
47
100
AcDbScale
 70
     0
300
1:1
140
1.0
141
1.0
290
     1
  0
SCALE
  5
49
102
{ACAD_REACTORS
330
47
102
}
330
47
100
AcDbScale
 70
     0
300
1:2
140
1.0
141
2.0
290
     0
  0
SCALE
  5
4A
102
{ACAD_REACTORS
330
47
102
}
330
47
100
AcDbScale
 70
     0
300
1:4
140
1.0
141
4.0
290
     0
  0
SCALE
  5
4B
102
{ACAD_REACTORS
330
47
102
}
330
47
100
AcDbScale
 70
     0
300
1:5
140
1.0
141
5.0
290
     0
  0
SCALE
  5
4C
102
{ACAD_REACTORS
330
47
102
}
330
47
100
AcDbScale
 70
     0
300
1:8
140
1.0
141
8.0
290
     0
  0
SCALE
  5
4D
102
{ACAD_REACTORS
330
47
102
}
330
47
100
AcDbScale
 70
     0
300
1:10
140
1.0
141
10.0
290
     0
  0
SCALE
  5
4E
102
{ACAD_REACTORS
330
47
102
}
330
47
100
AcDbScale
 70
     0
300
1:16
140
1.0
141
16.0
290
     0
  0
SCALE
  5
4F
102
{ACAD_REACTORS
330
47
102
}
330
47
100
AcDbScale
 70
     0
300
1:20
140
1.0
141
20.0
290
     0
  0
SCALE
  5
50
102
{ACAD_REACTORS
330
47
102
}
330
47
100
AcDbScale
 70
     0
300
1:30
140
1.0
141
30.0
290
     0
  0
SCALE
  5
51
102
{ACAD_REACTORS
330
47
102
}
330
47
100
AcDbScale
 70
     0
300
1:40
140
1.0
141
40.0
290
     0
  0
SCALE
  5
52
102
{ACAD_REACTORS
330
47
102
}
330
47
100
AcDbScale
 70
     0
300
1:50
140
1.0
141
50.0
290
     0
  0
SCALE
  5
53
102
{ACAD_REACTORS
330
47
102
}
330
47
100
AcDbScale
 70
     0
300
1:100
140
1.0
141
100.0
290
     0
  0
SCALE
  5
54
102
{ACAD_REACTORS
330
47
102
}
330
47
100
AcDbScale
 70
     0
300
2:1
140
2.0
141
1.0
290
     0
  0
SCALE
  5
55
102
{ACAD_REACTORS
330
47
102
}
330
47
100
AcDbScale
 70
     0
300
4:1
140
4.0
141
1.0
290
     0
  0
SCALE
  5
56
102
{ACAD_REACTORS
330
47
102
}
330
47
100
AcDbScale
 70
     0
300
8:1
140
8.0
141
1.0
290
     0
  0
SCALE
  5
57
102
{ACAD_REACTORS
330
47
102
}
330
47
100
AcDbScale
 70
     0
300
10:1
140
10.0
141
1.0
290
     0
  0
SCALE
  5
58
102
{ACAD_REACTORS
330
47
102
}
330
47
100
AcDbScale
 70
     0
300
100:1
140
100.0
141
1.0
290
     0
  0
SCALE
  5
59
102
{ACAD_REACTORS
330
47
102
}
330
47
100
AcDbScale
 70
     0
300
1/128" = 1'-0"
140
0.0078125
141
12.0
290
     0
  0
SCALE
  5
5A
102
{ACAD_REACTORS
330
47
102
}
330
47
100
AcDbScale
 70
     0
300
1/64" = 1'-0"
140
0.015625
141
12.0
290
     0
  0
SCALE
  5
5B
102
{ACAD_REACTORS
330
47
102
}
330
47
100
AcDbScale
 70
     0
300
1/32" = 1'-0"
140
0.03125
141
12.0
290
     0
  0
SCALE
  5
5C
102
{ACAD_REACTORS
330
47
102
}
330
47
100
AcDbScale
 70
     0
300
1/16" = 1'-0"
140
0.0625
141
12.0
290
     0
  0
SCALE
  5
5D
102
{ACAD_REACTORS
330
47
102
}
330
47
100
AcDbScale
 70
     0
300
3/32" = 1'-0"
140
0.09375
141
12.0
290
     0
  0
SCALE
  5
5E
102
{ACAD_REACTORS
330
47
102
}
330
47
100
AcDbScale
 70
     0
300
1/8" = 1'-0"
140
0.125
141
12.0
290
     0
  0
SCALE
  5
5F
102
{ACAD_REACTORS
330
47
102
}
330
47
100
AcDbScale
 70
     0
300
3/16" = 1'-0"
140
0.1875
141
12.0
290
     0
  0
SCALE
  5
60
102
{ACAD_REACTORS
330
47
102
}
330
47
100
AcDbScale
 70
     0
300
1/4" = 1'-0"
140
0.25
141
12.0
290
     0
  0
SCALE
  5
61
102
{ACAD_REACTORS
330
47
102
}
330
47
100
AcDbScale
 70
     0
300
3/8" = 1'-0"
140
0.375
141
12.0
290
     0
  0
SCALE
  5
62
102
{ACAD_REACTORS
330
47
102
}
330
47
100
AcDbScale
 70
     0
300
1/2" = 1'-0"
140
0.5
141
12.0
290
     0
  0
SCALE
  5
63
102
{ACAD_REACTORS
330
47
102
}
330
47
100
AcDbScale
 70
     0
300
3/4" = 1'-0"
140
0.75
141
12.0
290
     0
  0
SCALE
  5
64
102
{ACAD_REACTORS
330
47
102
}
330
47
100
AcDbScale
 70
     0
300
1" = 1'-0"
140
1.0
141
12.0
290
     0
  0
SCALE
  5
65
102
{ACAD_REACTORS
330
47
102
}
330
47
100
AcDbScale
 70
     0
300
1-1/2" = 1'-0"
140
1.5
141
12.0
290
     0
  0
SCALE
  5
66
102
{ACAD_REACTORS
330
47
102
}
330
47
100
AcDbScale
 70
     0
300
3" = 1'-0"
140
3.0
141
12.0
290
     0
  0
SCALE
  5
67
102
{ACAD_REACTORS
330
47
102
}
330
47
100
AcDbScale
 70
     0
300
6" = 1'-0"
140
6.0
141
12.0
290
     0
  0
SCALE
  5
68
102
{ACAD_REACTORS
330
47
102
}
330
47
100
AcDbScale
 70
     0
300
1'-0" = 1'-0"
140
12.0
141
12.0
290
     0
  0
ENDSEC
  0
EOF
