  0
SECTION
  2
HEADER
  9
$ACADVER
  1
AC1015
  9
$ACADMAINTVER
 70
     6
  9
$DWGCODEPAGE
  3
DOS932
  9
$INSBASE
 10
0.0
 20
0.0
 30
0.0
  9
$EXTMIN
 10
0.0
 20
0.0
 30
0.0
  9
$EXTMAX
 10
1.05
 20
1.485
 30
0.0
  9
$LIMMIN
 10
0.0
 20
0.0
  9
$LIMMAX
 10
1.05
 20
1.485
  9
$ORTHOMODE
 70
     0
  9
$REGENMODE
 70
     1
  9
$FILLMODE
 70
     1
  9
$QTEXTMODE
 70
     0
  9
$MIRRTEXT
 70
     1
  9
$LTSCALE
 40
0.005
  9
$ATTMODE
 70
     1
  9
$TEXTSIZE
 40
0.0175
  9
$TRACEWID
 40
1.0
  9
$TEXTSTYLE
  7
Standard
  9
$CLAYER
  8
0
  9
$CELTYPE
  6
ByLayer
  9
$CECOLOR
 62
   256
  9
$CELTSCALE
 40
1.0
  9
$DISPSILH
 70
     0
  9
$DIMSCALE
 40
1.0
  9
$DIMASZ
 40
0.01651
  9
$DIMEXO
 40
0.005
  9
$DIMDLI
 40
3.75
  9
$DIMRND
 40
0.0
  9
$DIMDLE
 40
0.0
  9
$DIMEXE
 40
0.005
  9
$DIMTP
 40
0.0
  9
$DIMTM
 40
0.0
  9
$DIMTXT
 40
0.0175
  9
$DIMCEN
 40
2.5
  9
$DIMTSZ
 40
0.0
  9
$DIMTOL
 70
     0
  9
$DIMLIM
 70
     0
  9
$DIMTIH
 70
     1
  9
$DIMTOH
 70
     1
  9
$DIMSE1
 70
     0
  9
$DIMSE2
 70
     0
  9
$DIMTAD
 70
     1
  9
$DIMZIN
 70
     1
  9
$DIMBLK
  1

  9
$DIMASO
 70
     1
  9
$DIMSHO
 70
     1
  9
$DIMPOST
  1

  9
$DIMAPOST
  1

  9
$DIMALT
 70
     0
  9
$DIMALTD
 70
     3
  9
$DIMALTF
 40
0.0393700787
  9
$DIMLFAC
 40
1.0
  9
$DIMTOFL
 70
     1
  9
$DIMTVP
 40
0.0
  9
$DIMTIX
 70
     0
  9
$DIMSOXD
 70
     0
  9
$DIMSAH
 70
     0
  9
$DIMBLK1
  1

  9
$DIMBLK2
  1

  9
$DIMSTYLE
  2
ISO-25
  9
$DIMCLRD
 70
     0
  9
$DIMCLRE
 70
     0
  9
$DIMCLRT
 70
     0
  9
$DIMTFAC
 40
1.0
  9
$DIMGAP
 40
0.00762
  9
$DIMJUST
 70
     0
  9
$DIMSD1
 70
     0
  9
$DIMSD2
 70
     0
  9
$DIMTOLJ
 70
     0
  9
$DIMTZIN
 70
     1
  9
$DIMALTZ
 70
     0
  9
$DIMALTTZ
 70
     0
  9
$DIMUPT
 70
     0
  9
$DIMDEC
 70
     2
  9
$DIMTDEC
 70
     2
  9
$DIMALTU
 70
     2
  9
$DIMALTTD
 70
     3
  9
$DIMTXSTY
  7
Standard
  9
$DIMAUNIT
 70
     0
  9
$DIMADEC
 70
     2
  9
$DIMALTRND
 40
0.0
  9
$DIMAZIN
 70
     0
  9
$DIMDSEP
 70
    44
  9
$DIMATFIT
 70
     3
  9
$DIMFRAC
 70
     0
  9
$DIMLDRBLK
  1

  9
$DIMLUNIT
 70
     2
  9
$DIMLWD
 70
    -2
  9
$DIMLWE
 70
    -2
  9
$DIMTMOVE
 70
     0
  9
$LUNITS
 70
     2
  9
$LUPREC
 70
     2
  9
$SKETCHINC
 40
1.0
  9
$FILLETRAD
 40
10.0
  9
$AUNITS
 70
     0
  9
$AUPREC
 70
     2
  9
$MENU
  1
.
  9
$ELEVATION
 40
0.0
  9
$PELEVATION
 40
0.0
  9
$THICKNESS
 40
0.0
  9
$LIMCHECK
 70
     0
  9
$CHAMFERA
 40
0.0
  9
$CHAMFERB
 40
0.0
  9
$CHAMFERC
 40
0.0
  9
$CHAMFERD
 40
0.0
  9
$SKPOLY
 70
     0
  9
$TDCREATE
 40
2459916.694833819
  9
$TDUCREATE
 40
2459916.319833819
  9
$TDUPDATE
 40
2459916.694834005
  9
$TDUUPDATE
 40
2459916.319834005
  9
$TDINDWG
 40
0.0000000116
  9
$TDUSRTIMER
 40
0.0000000116
  9
$USRTIMER
 70
     1
  9
$ANGBASE
 50
0.0
  9
$ANGDIR
 70
     0
  9
$PDMODE
 70
     0
  9
$PDSIZE
 40
-1.0
  9
$PLINEWID
 40
0.0
  9
$SPLFRAME
 70
     0
  9
$SPLINETYPE
 70
     6
  9
$SPLINESEGS
 70
     8
  9
$HANDSEED
  5
A8
  9
$SURFTAB1
 70
     6
  9
$SURFTAB2
 70
     6
  9
$SURFTYPE
 70
     6
  9
$SURFU
 70
     6
  9
$SURFV
 70
     6
  9
$UCSBASE
  2

  9
$UCSNAME
  2

  9
$UCSORG
 10
0.0
 20
0.0
 30
0.0
  9
$UCSXDIR
 10
1.0
 20
0.0
 30
0.0
  9
$UCSYDIR
 10
0.0
 20
1.0
 30
0.0
  9
$UCSORTHOREF
  2

  9
$UCSORTHOVIEW
 70
     0
  9
$UCSORGTOP
 10
0.0
 20
0.0
 30
0.0
  9
$UCSORGBOTTOM
 10
0.0
 20
0.0
 30
0.0
  9
$UCSORGLEFT
 10
0.0
 20
0.0
 30
0.0
  9
$UCSORGRIGHT
 10
0.0
 20
0.0
 30
0.0
  9
$UCSORGFRONT
 10
0.0
 20
0.0
 30
0.0
  9
$UCSORGBACK
 10
0.0
 20
0.0
 30
0.0
  9
$PUCSBASE
  2

  9
$PUCSNAME
  2

  9
$PUCSORG
 10
0.0
 20
0.0
 30
0.0
  9
$PUCSXDIR
 10
1.0
 20
0.0
 30
0.0
  9
$PUCSYDIR
 10
0.0
 20
1.0
 30
0.0
  9
$PUCSORTHOREF
  2

  9
$PUCSORTHOVIEW
 70
     0
  9
$PUCSORGTOP
 10
0.0
 20
0.0
 30
0.0
  9
$PUCSORGBOTTOM
 10
0.0
 20
0.0
 30
0.0
  9
$PUCSORGLEFT
 10
0.0
 20
0.0
 30
0.0
  9
$PUCSORGRIGHT
 10
0.0
 20
0.0
 30
0.0
  9
$PUCSORGFRONT
 10
0.0
 20
0.0
 30
0.0
  9
$PUCSORGBACK
 10
0.0
 20
0.0
 30
0.0
  9
$USERI1
 70
     0
  9
$USERI2
 70
     0
  9
$USERI3
 70
     0
  9
$USERI4
 70
     0
  9
$USERI5
 70
     0
  9
$USERR1
 40
0.0
  9
$USERR2
 40
0.0
  9
$USERR3
 40
0.0
  9
$USERR4
 40
0.0
  9
$USERR5
 40
0.0
  9
$WORLDVIEW
 70
     1
  9
$SHADEDGE
 70
     3
  9
$SHADEDIF
 70
    70
  9
$TILEMODE
 70
     1
  9
$MAXACTVP
 70
    64
  9
$PINSBASE
 10
0.0
 20
0.0
 30
0.0
  9
$PLIMCHECK
 70
     0
  9
$PEXTMIN
 10
1.0000000000E+20
 20
1.0000000000E+20
 30
1.0000000000E+20
  9
$PEXTMAX
 10
-1.0000000000E+20
 20
-1.0000000000E+20
 30
-1.0000000000E+20
  9
$PLIMMIN
 10
0.0
 20
0.0
  9
$PLIMMAX
 10
420.0
 20
297.0
  9
$UNITMODE
 70
     0
  9
$VISRETAIN
 70
     1
  9
$PLINEGEN
 70
     0
  9
$PSLTSCALE
 70
     1
  9
$TREEDEPTH
 70
  3020
  9
$CMLSTYLE
  2
Standard
  9
$CMLJUST
 70
     0
  9
$CMLSCALE
 40
20.0
  9
$PROXYGRAPHICS
 70
     1
  9
$MEASUREMENT
 70
     1
  9
$CELWEIGHT
370
    -1
  9
$ENDCAPS
280
     0
  9
$JOINSTYLE
280
     0
  9
$LWDISPLAY
290
     1
  9
$INSUNITS
 70
     4
  9
$HYPERLINKBASE
  1

  9
$STYLESHEET
  1

  9
$XEDIT
290
     1
  9
$CEPSNTYPE
380
     0
  9
$PSTYLEMODE
290
     1
  9
$FINGERPRINTGUID
  2
{8a927a0c-8a04-47bc-a7e7-725647885601}
  9
$VERSIONGUID
  2
{FAEB1C32-E019-11D5-929B-00C0DF256EC4}
  9
$EXTNAMES
290
     1
  9
$PSVPSCALE
 40
0.0
  9
$OLESTARTUP
290
     0
  0
ENDSEC
  0
SECTION
  2
CLASSES
  0
CLASS
  1
ACDBDICTIONARYWDFLT
  2
AcDbDictionaryWithDefault
  3
ObjectDBX Classes
 90
        0
280
     0
281
     0
  0
CLASS
  1
VISUALSTYLE
  2
AcDbVisualStyle
  3
ObjectDBX Classes
 90
     4095
280
     0
281
     0
  0
CLASS
  1
MATERIAL
  2
AcDbMaterial
  3
ObjectDBX Classes
 90
     1153
280
     0
281
     0
  0
CLASS
  1
SCALE
  2
AcDbScale
  3
ObjectDBX Classes
 90
     1153
280
     0
281
     0
  0
CLASS
  1
TABLESTYLE
  2
AcDbTableStyle
  3
ObjectDBX Classes
 90
     4095
280
     0
281
     0
  0
CLASS
  1
MLEADERSTYLE
  2
AcDbMLeaderStyle
  3
ACDB_MLEADERSTYLE_CLASS
 90
     4095
280
     0
281
     0
  0
CLASS
  1
SUN
  2
AcDbSun
  3
SCENEOE
 90
     1153
280
     0
281
     0
  0
CLASS
  1
ACDBPLACEHOLDER
  2
AcDbPlaceHolder
  3
ObjectDBX Classes
 90
        0
280
     0
281
     0
  0
CLASS
  1
LAYOUT
  2
AcDbLayout
  3
ObjectDBX Classes
 90
        0
280
     0
281
     0
  0
ENDSEC
  0
SECTION
  2
TABLES
  0
TABLE
  2
VPORT
  5
8
330
0
100
AcDbSymbolTable
 70
     1
  0
VPORT
  5
29
330
8
100
AcDbSymbolTableRecord
100
AcDbViewportTableRecord
  2
*Active
 70
     0
 10
0.0
 20
0.0
 11
1.0
 21
1.0
 12
0.525
 22
0.7425
 13
0.0
 23
0.0
 14
10.0
 24
10.0
 15
10.0
 25
10.0
 16
0.0
 26
0.0
 36
1.0
 17
0.0
 27
0.0
 37
0.0
 40
1.485
 41
0.7070707071
 42
50.0
 43
0.0
 44
0.0
 50
0.0
 51
0.0
 71
     0
 72
  2000
 73
     1
 74
     3
 75
     0
 76
     0
 77
     0
 78
     0
281
     0
 65
     1
110
0.0
120
0.0
130
0.0
111
1.0
121
0.0
131
0.0
112
0.0
122
1.0
132
0.0
 79
     0
146
0.0
  0
ENDTAB
  0
TABLE
  2
LTYPE
  5
5
330
0
100
AcDbSymbolTable
 70
     6
  0
LTYPE
  5
14
330
5
100
AcDbSymbolTableRecord
100
AcDbLinetypeTableRecord
  2
ByBlock
 70
     0
  3

 72
    65
 73
     0
 40
0.0
  0
LTYPE
  5
15
330
5
100
AcDbSymbolTableRecord
100
AcDbLinetypeTableRecord
  2
ByLayer
 70
     0
  3

 72
    65
 73
     0
 40
0.0
  0
LTYPE
  5
16
330
5
100
AcDbSymbolTableRecord
100
AcDbLinetypeTableRecord
  2
Continuous
 70
     0
  3
Solid line
 72
    65
 73
     0
 40
0.0
  0
LTYPE
  5
6E
330
5
100
AcDbSymbolTableRecord
100
AcDbLinetypeTableRecord
  2
HIDDEN
 70
     0
  3
Hidden __ __ __ __ __ __ __ __ __ __ __ __ __ __
 72
    65
 73
     2
 40
1.905
 49
1.27
 74
     0
 49
-0.635
 74
     0
  0
LTYPE
  5
6F
330
5
100
AcDbSymbolTableRecord
100
AcDbLinetypeTableRecord
  2
PHANTOM
 70
     0
  3
Phantom ______  __  __  ______  __  __  ______
 72
    65
 73
     6
 40
12.7
 49
6.35
 74
     0
 49
-1.27
 74
     0
 49
1.27
 74
     0
 49
-1.27
 74
     0
 49
1.27
 74
     0
 49
-1.27
 74
     0
  0
LTYPE
  5
70
330
5
100
AcDbSymbolTableRecord
100
AcDbLinetypeTableRecord
  2
CENTER
 70
     0
  3
Center ____ _ ____ _ ____ _ ____ _ ____ _ ____
 72
    65
 73
     4
 40
10.16
 49
6.35
 74
     0
 49
-1.27
 74
     0
 49
1.27
 74
     0
 49
-1.27
 74
     0
  0
LTYPE
  5
71
330
5
100
AcDbSymbolTableRecord
100
AcDbLinetypeTableRecord
  2
CENTERX2
 70
     0
  3
Center (2x) ________  __  ________  __  _____
 72
    65
 73
     4
 40
20.32
 49
12.7
 74
     0
 49
-2.54
 74
     0
 49
2.54
 74
     0
 49
-2.54
 74
     0
  0
LTYPE
  5
72
330
5
100
AcDbSymbolTableRecord
100
AcDbLinetypeTableRecord
  2
DOT2
 70
     0
  3
Dot (.5x) ........................................
 72
    65
 73
     2
 40
0.635
 49
0.0
 74
     0
 49
-0.635
 74
     0
  0
ENDTAB
  0
TABLE
  2
LAYER
  5
2
330
0
100
AcDbSymbolTable
 70
     1
  0
LAYER
  5
10
330
2
100
AcDbSymbolTableRecord
100
AcDbLayerTableRecord
  2
0
 70
     0
 62
     7
  6
Continuous
370
    -3
390
F
  0
ENDTAB
  0
TABLE
  2
STYLE
  5
3
330
0
100
AcDbSymbolTable
 70
     2
  0
STYLE
  5
11
330
3
100
AcDbSymbolTableRecord
100
AcDbTextStyleTableRecord
  2
Standard
 70
     0
 40
0.0
 41
1.0
 50
0.0
 71
     0
 42
0.0175
  3
txt
  4
bigfont
  0
STYLE
  5
76
330
3
100
AcDbSymbolTableRecord
100
AcDbTextStyleTableRecord
  2
SLDTEXTSTYLE0
 70
     0
 40
0.0
 41
0.7
 50
0.0
 71
     0
 42
0.0175
  3
TXT
  4
bigfont
  0
ENDTAB
  0
TABLE
  2
VIEW
  5
6
330
0
100
AcDbSymbolTable
 70
     0
  0
ENDTAB
  0
TABLE
  2
UCS
  5
7
330
0
100
AcDbSymbolTable
 70
     0
  0
ENDTAB
  0
TABLE
  2
APPID
  5
9
330
0
100
AcDbSymbolTable
 70
     1
  0
APPID
  5
12
330
9
100
AcDbSymbolTableRecord
100
AcDbRegAppTableRecord
  2
ACAD
 70
     0
  0
ENDTAB
  0
TABLE
  2
DIMSTYLE
  5
A
330
0
100
AcDbSymbolTable
 70
     1
100
AcDbDimStyleTable
  0
DIMSTYLE
105
27
330
A
100
AcDbSymbolTableRecord
100
AcDbDimStyleTableRecord
  2
ISO-25
 70
     0
 41
2.5
 42
0.625
 43
3.75
 44
1.25
 73
     0
 74
     0
 77
     1
 78
     8
140
2.5
141
2.5
143
0.0393700787
147
0.625
171
     3
172
     1
178
     0
271
     2
272
     2
274
     3
278
    44
283
     0
284
     8
340
11
  0
ENDTAB
  0
TABLE
  2
BLOCK_RECORD
  5
1
330
0
100
AcDbSymbolTable
 70
     2
  0
BLOCK_RECORD
  5
1F
330
1
100
AcDbSymbolTableRecord
100
AcDbBlockTableRecord
  2
*Model_Space
340
22
  0
BLOCK_RECORD
  5
1B
330
1
100
AcDbSymbolTableRecord
100
AcDbBlockTableRecord
  2
*Paper_Space
340
1E
  0
BLOCK_RECORD
  5
23
330
1
100
AcDbSymbolTableRecord
100
AcDbBlockTableRecord
  2
*Paper_Space0
340
26
  0
BLOCK_RECORD
  5
73
330
1
100
AcDbSymbolTableRecord
100
AcDbBlockTableRecord
  2
SW_NOTE_0
340
0
102
{BLKREFS
331
7A
102
}
  0
ENDTAB
  0
ENDSEC
  0
SECTION
  2
BLOCKS
  0
BLOCK
  5
20
330
1F
100
AcDbEntity
  8
0
100
AcDbBlockBegin
  2
*Model_Space
 70
     0
 10
0.0
 20
0.0
 30
0.0
  3
*Model_Space
  1

  0
ENDBLK
  5
21
330
1F
100
AcDbEntity
  8
0
100
AcDbBlockEnd
  0
BLOCK
  5
1C
330
1B
100
AcDbEntity
 67
     1
  8
0
100
AcDbBlockBegin
  2
*Paper_Space
 70
     0
 10
0.0
 20
0.0
 30
0.0
  3
*Paper_Space
  1

  0
ENDBLK
  5
1D
330
1B
100
AcDbEntity
 67
     1
  8
0
100
AcDbBlockEnd
  0
BLOCK
  5
24
330
23
100
AcDbEntity
  8
0
100
AcDbBlockBegin
  2
*Paper_Space0
 70
     0
 10
0.0
 20
0.0
 30
0.0
  3
*Paper_Space0
  1

  0
ENDBLK
  5
25
330
23
100
AcDbEntity
  8
0
100
AcDbBlockEnd
  0
BLOCK
  5
74
330
73
100
AcDbEntity
  8
0
100
AcDbBlockBegin
  2
SW_NOTE_0
 70
     0
 10
0.0
 20
0.0
 30
0.0
  3
SW_NOTE_0
  1

  0
MTEXT
  5
77
330
73
100
AcDbEntity
  8
0
  6
Continuous
 62
     0
370
     0
100
AcDbMText
 10
0.0
 20
0.0341065839
 30
0.0
 40
0.0264583333
 41
0.0
 71
     1
 72
     1
  1
HOA-D13K
  7
SLDTEXTSTYLE0
 73
     1
 44
1.0
  0
MTEXT
  5
78
330
73
100
AcDbEntity
  8
0
  6
Continuous
 62
     0
370
     0
100
AcDbMText
 10
0.0
 20
-0.0061711942
 30
0.0
 40
0.0264583333
 41
0.0
 71
     1
 72
     1
  1
HOA-D13O
  7
SLDTEXTSTYLE0
 73
     1
 44
1.0
  0
MTEXT
  5
79
330
73
100
AcDbEntity
  8
0
  6
Continuous
 62
     0
370
     0
100
AcDbMText
 10
0.0
 20
-0.0464489724
 30
0.0
 40
0.0264583333
 41
0.0
 71
     1
 72
     1
  1
HOA-D13W
  7
SLDTEXTSTYLE0
 73
     1
 44
1.0
  0
ENDBLK
  5
75
330
73
100
AcDbEntity
  8
0
100
AcDbBlockEnd
  0
ENDSEC
  0
SECTION
  2
ENTITIES
  0
INSERT
  5
7A
330
1F
100
AcDbEntity
  8
0
  6
Continuous
 62
     7
370
     0
100
AcDbBlockReference
  2
SW_NOTE_0
 10
0.7664923901
 20
0.2900816209
 30
0.0
  0
SPLINE
  5
7B
330
1F
100
AcDbEntity
  8
0
  6
Continuous
 62
     7
370
    25
100
AcDbSpline
210
0.0
220
0.0
230
1.0
 70
     8
 71
     3
 72
    10
 73
     6
 74
     0
 42
0.00000001
 43
0.00000001
 40
0.0
 40
0.0
 40
0.0
 40
0.0
 40
0.9786476968842694
 40
0.986893062416309
 40
1.0
 40
1.0
 40
1.0
 40
1.0
 10
0.5138965211053669
 20
0.5451284844763542
 30
0.0
 10
0.4867560372475316
 20
0.4944672620104545
 30
0.0
 10
0.4593868876391543
 20
0.4433792053540067
 30
0.0
 10
0.5167516356184199
 20
0.4361571237406162
 30
0.0
 10
0.5165612770087848
 20
0.4369477670188627
 30
0.0
 10
0.5164444269246754
 20
0.4374330969639639
 30
0.0
  0
SPLINE
  5
7C
330
1F
100
AcDbEntity
  8
0
  6
Continuous
 62
     7
370
    25
100
AcDbSpline
210
0.0
220
0.0
230
1.0
 70
     8
 71
     3
 72
     9
 73
     5
 74
     0
 42
0.00000001
 43
0.00000001
 40
0.0
 40
0.0
 40
0.0
 40
0.0
 40
0.936694681815182
 40
1.0
 40
1.0
 40
1.0
 40
1.0
 10
0.5204750082040598
 20
0.4563796440272802
 30
0.0
 10
0.5344026099894494
 20
0.4865495309259613
 30
0.0
 10
0.5492714910194986
 20
0.5187584112413871
 30
0.0
 10
0.526868199618012
 20
0.5446426388068766
 30
0.0
 10
0.5254499521274537
 20
0.5462812480688781
 30
0.0
  0
SPLINE
  5
7D
330
1F
100
AcDbEntity
  8
0
  6
Continuous
 62
     7
370
    25
100
AcDbSpline
210
0.0
220
0.0
230
1.0
 70
     8
 71
     3
 72
     9
 73
     5
 74
     0
 42
0.00000001
 43
0.00000001
 40
0.0
 40
0.0
 40
0.0
 40
0.0
 40
0.9870868414890921
 40
1.0
 40
1.0
 40
1.0
 40
1.0
 10
0.501410579331485
 20
0.5478401917649721
 30
0.0
 10
0.4852448872415085
 20
0.4938093318784557
 30
0.0
 10
0.468867714119041
 20
0.4390716354413245
 30
0.0
 10
0.5144589896925973
 20
0.4375085042213947
 30
0.0
 10
0.515047717060793
 20
0.4374883192601783
 30
0.0
  0
SPLINE
  5
7E
330
1F
100
AcDbEntity
  8
0
  6
Continuous
 62
     7
370
    25
100
AcDbSpline
210
0.0
220
0.0
230
1.0
 70
     8
 71
     3
 72
     9
 73
     5
 74
     0
 42
0.00000001
 43
0.00000001
 40
0.0
 40
0.0
 40
0.0
 40
0.0
 40
0.0852803956690557
 40
0.9999999999999999
 40
0.9999999999999999
 40
0.9999999999999999
 40
0.9999999999999999
 10
0.5164444269246754
 20
0.4374330969639639
 30
0.0
 10
0.5171402925628894
 20
0.4373822623843554
 30
0.0
 10
0.5253000300119791
 20
0.4367861748637741
 30
0.0
 10
0.52269681675443
 20
0.446235865803183
 30
0.0
 10
0.5203156065534955
 20
0.4548796833603287
 30
0.0
  0
SPLINE
  5
7F
330
1F
100
AcDbEntity
  8
0
  6
Continuous
 62
     7
370
    25
100
AcDbSpline
210
0.0
220
0.0
230
1.0
 70
     8
 71
     3
 72
     9
 73
     5
 74
     0
 42
0.00000001
 43
0.00000001
 40
0.0
 40
0.0
 40
0.0
 40
0.0
 40
0.1744376259451766
 40
1.0
 40
1.0
 40
1.0
 40
1.0
 10
0.5203156065534955
 20
0.4548796833603287
 30
0.0
 10
0.5203287127712372
 20
0.4549705839930221
 30
0.0
 10
0.520403846892506
 20
0.455491690790944
 30
0.0
 10
0.5204428273801438
 20
0.4559780906252942
 30
0.0
 10
0.5204750082040598
 20
0.4563796440272802
 30
0.0
  0
SPLINE
  5
80
330
1F
100
AcDbEntity
  8
0
  6
Continuous
 62
     7
370
    25
100
AcDbSpline
210
0.0
220
0.0
230
1.0
 70
     8
 71
     3
 72
    13
 73
     9
 74
     0
 42
0.00000001
 43
0.00000001
 40
0.0
 40
0.0
 40
0.0
 40
0.0
 40
0.1242820736556816
 40
0.3142742962277394
 40
0.4999999999999915
 40
0.6857257037722434
 40
0.8757179263443013
 40
1.0
 40
1.0
 40
1.0
 40
1.0
 10
0.5068482576267006
 20
0.5461635543859039
 30
0.0
 10
0.5075495618942295
 20
0.5459714858023921
 30
0.0
 10
0.5093229625033131
 20
0.5454857985497162
 30
0.0
 10
0.5124124196726757
 20
0.5451354992774291
 30
0.0
 10
0.5159081632653059
 20
0.5450187717978348
 30
0.0
 10
0.519403906857936
 20
0.5451354992774291
 30
0.0
 10
0.5224933640272987
 20
0.5454857985497162
 30
0.0
 10
0.5242667646363823
 20
0.5459714858023921
 30
0.0
 10
0.5249680689039113
 20
0.546163554385904
 30
0.0
  0
SPLINE
  5
81
330
1F
100
AcDbEntity
  8
0
  6
Continuous
 62
     7
370
    25
100
AcDbSpline
210
0.0
220
0.0
230
1.0
 70
     8
 71
     3
 72
    27
 73
    23
 74
     0
 42
0.00000001
 43
0.00000001
 40
0.0
 40
0.0
 40
0.0
 40
0.0
 40
0.0497448134308078
 40
0.0995711184589917
 40
0.1504288739417044
 40
0.2001736977014841
 40
0.2499999999999999
 40
0.2998263022985159
 40
0.3495711260582955
 40
0.4004288815410082
 40
0.4502551865691921
 40
0.4999999999999999
 40
0.5497448134308077
 40
0.5995711184589916
 40
0.6504288739417043
 40
0.700173697701484
 40
0.7499999999999999
 40
0.7998263022985158
 40
0.8495711260582954
 40
0.9004288815410083
 40
0.9502551865691921
 40
1.0
 40
1.0
 40
1.0
 40
1.0
 10
0.4908765835864091
 20
0.5595897145247314
 30
0.0
 10
0.4909636803576811
 20
0.5588395869142542
 30
0.0
 10
0.4911380165815327
 20
0.5573381028396163
 30
0.0
 10
0.4919598647678491
 20
0.5551015527309333
 30
0.0
 10
0.4935408476242457
 20
0.5530077724013575
 30
0.0
 10
0.4956001740857063
 20
0.5510622970954658
 30
0.0
 10
0.4981614656703819
 20
0.5493448846300552
 30
0.0
 10
0.5011366983104707
 20
0.5478657123019152
 30
0.0
 10
0.5045066543964458
 20
0.5466790288091493
 30
0.0
 10
0.5081336006466466
 20
0.5457582439252097
 30
0.0
 10
0.5120078338217677
 20
0.5453135710234058
 30
0.0
 10
0.5159081632653059
 20
0.5450522225489075
 30
0.0
 10
0.519808492708844
 20
0.5453135710234058
 30
0.0
 10
0.5236827258839651
 20
0.5457582439252097
 30
0.0
 10
0.5273096721341659
 20
0.5466790288091493
 30
0.0
 10
0.530679628220141
 20
0.5478657123019152
 30
0.0
 10
0.5336548608602298
 20
0.5493448846300552
 30
0.0
 10
0.5362161524449055
 20
0.5510622970954658
 30
0.0
 10
0.5382754789063662
 20
0.5530077724013573
 30
0.0
 10
0.5398564617627626
 20
0.5551015527309333
 30
0.0
 10
0.5406783099490791
 20
0.5573381028396163
 30
0.0
 10
0.5408526461729306
 20
0.558839586914254
 30
0.0
 10
0.5409397429442028
 20
0.5595897145247313
 30
0.0
  0
SPLINE
  5
82
330
1F
100
AcDbEntity
  8
0
  6
Continuous
 62
     7
370
    25
100
AcDbSpline
210
0.0
220
0.0
230
1.0
 70
     8
 71
     3
 72
    12
 73
     8
 74
     0
 42
0.00000001
 43
0.00000001
 40
0.0
 40
0.0
 40
0.0
 40
0.0
 40
0.2055673855739309
 40
0.4114715301678172
 40
0.6216380804008658
 40
0.827205508658638
 40
1.0
 40
1.0
 40
1.0
 40
1.0
 10
0.5409397429442028
 20
0.5612227962260701
 30
0.0
 10
0.5408524777682137
 20
0.5619728346038181
 30
0.0
 10
0.5406778044590487
 20
0.5634741400668174
 30
0.0
 10
0.5398585050642878
 20
0.5657120407055239
 30
0.0
 10
0.5382677121926559
 20
0.5678006229952366
 30
0.0
 10
0.5363522061886592
 20
0.5696605666166487
 30
0.0
 10
0.5347341280268707
 20
0.570684561646714
 30
0.0
 10
0.5339951662592249
 20
0.571152210982418
 30
0.0
  0
SPLINE
  5
83
330
1F
100
AcDbEntity
  8
0
  6
Continuous
 62
     7
370
    25
100
AcDbSpline
210
0.0
220
0.0
230
1.0
 70
     8
 71
     3
 72
    12
 73
     8
 74
     0
 42
0.00000001
 43
0.00000001
 40
0.0
 40
0.0
 40
0.0
 40
0.0
 40
0.1910336390427524
 40
0.3920684878540117
 40
0.5976010520805983
 40
0.7989651929314413
 40
1.0
 40
1.0
 40
1.0
 40
1.0
 10
0.498099898518369
 20
0.571339941792868
 30
0.0
 10
0.4972626250573234
 20
0.5708121140291664
 30
0.0
 10
0.4955442442452457
 20
0.5697288250639411
 30
0.0
 10
0.493546722509588
 20
0.5678014634497187
 30
0.0
 10
0.4919583191769303
 20
0.5657118195950275
 30
0.0
 10
0.4911383989435048
 20
0.5634741947670906
 30
0.0
 10
0.4909638077421118
 20
0.5619728528272914
 30
0.0
 10
0.4908765835864091
 20
0.5612227962260701
 30
0.0
  0
LINE
  5
84
330
1F
100
AcDbEntity
  8
0
  6
Continuous
 62
     7
370
    25
100
AcDbLine
 10
0.5409397429
 20
0.5595897145
 30
0.0
 11
0.5409397429
 21
0.5612227962
 31
0.0
  0
LINE
  5
85
330
1F
100
AcDbEntity
  8
0
  6
Continuous
 62
     7
370
    25
100
AcDbLine
 10
0.4908765836
 20
0.5612227962
 30
0.0
 11
0.4908765836
 21
0.5595897145
 31
0.0
  0
SPLINE
  5
86
330
1F
100
AcDbEntity
  8
0
  6
Continuous
 62
     7
370
    25
100
AcDbSpline
210
0.0
220
0.0
230
1.0
 70
     8
 71
     3
 72
    28
 73
    24
 74
     0
 42
0.00000001
 43
0.00000001
 40
0.0
 40
0.0
 40
0.0
 40
0.0
 40
0.0463698115935079
 40
0.0971749460821947
 40
0.147231975139917
 40
0.1966887360213984
 40
0.2464623353110277
 40
0.296235935115389
 40
0.3474109979449801
 40
0.3974680270027025
 40
0.4467337321141788
 40
0.4969475444452093
 40
0.5459893726058029
 40
0.5961718588333703
 40
0.6462288954952354
 40
0.69700306409598
 40
0.7469343260391061
 40
0.7968655879822322
 40
0.8459074143517009
 40
0.895964451013566
 40
0.9461469372411334
 40
0.9965482206364464
 40
1.0
 40
1.0
 40
1.0
 40
1.0
 10
0.498099898518369
 20
0.5610161591132444
 30
0.0
 10
0.4980985710408481
 20
0.5605097173501815
 30
0.0
 10
0.4980957891111382
 20
0.5594483921187826
 30
0.0
 10
0.4989870582351438
 20
0.5579169104580342
 30
0.0
 10
0.4999952495589127
 20
0.5563956938788743
 30
0.0
 10
0.501409741301409
 20
0.5549819657329641
 30
0.0
 10
0.5032836577948129
 20
0.5537711816597158
 30
0.0
 10
0.5054093562584313
 20
0.5526814971501857
 30
0.0
 10
0.507867582101249
 20
0.5518391044733157
 30
0.0
 10
0.5105041251340277
 20
0.5512442008632947
 30
0.0
 10
0.5132196318646984
 20
0.5507807987928498
 30
0.0
 10
0.5160307978810289
 20
0.5507507774125711
 30
0.0
 10
0.5188393403042802
 20
0.5508513515719856
 30
0.0
 10
0.5215796455666971
 20
0.5512268056244994
 30
0.0
 10
0.5242499798626634
 20
0.5518199847884198
 30
0.0
 10
0.5265762174992299
 20
0.552762565897648
 30
0.0
 10
0.5288784593896697
 20
0.5537345869187983
 30
0.0
 10
0.5305521086843985
 20
0.5550467024499811
 30
0.0
 10
0.5321275859407412
 20
0.5563858110860478
 30
0.0
 10
0.5331727071430954
 20
0.5579073948655554
 30
0.0
 10
0.5337393934804914
 20
0.5595044668440399
 30
0.0
 10
0.5340837357468855
 20
0.5606331659130249
 30
0.0
 10
0.5340005012766235
 20
0.56121585842661
 30
0.0
 10
0.5339951662592249
 20
0.5612532068315224
 30
0.0
  0
LWPOLYLINE
  5
87
330
1F
100
AcDbEntity
  8
0
  6
Continuous
 62
     7
370
    25
100
AcDbPolyline
 90
        4
 70
   128
 43
0.0
 10
0.4981003621
 20
0.8029219651
 10
0.4980890724
 20
0.802837239
 10
0.4980998985
 20
0.8027122425
 10
0.4980998985
 20
0.8027122425
  0
LINE
  5
88
330
1F
100
AcDbEntity
  8
0
  6
Continuous
 62
     7
370
    25
100
AcDbLine
 10
0.5339951663
 20
0.5612532068
 30
0.0
 11
0.5339951663
 21
0.8029492903
 31
0.0
  0
LINE
  5
89
330
1F
100
AcDbEntity
  8
0
  6
Continuous
 62
     7
370
    25
100
AcDbLine
 10
0.4980998985
 20
0.8027122425
 30
0.0
 11
0.4980998985
 21
0.5610161591
 31
0.0
  0
SPLINE
  5
8A
330
1F
100
AcDbEntity
  8
0
  6
Continuous
 62
     7
370
    25
100
AcDbSpline
210
0.0
220
0.0
230
1.0
 70
     8
 71
     3
 72
    10
 73
     6
 74
     0
 42
0.00000001
 43
0.00000001
 40
0.0
 40
0.0
 40
0.0
 40
0.0
 40
0.3957588237671262
 40
0.8080343253363702
 40
1.0
 40
1.0
 40
1.0
 40
1.0
 10
0.5050894291227666
 20
0.8236201579059772
 30
0.0
 10
0.5054307690332287
 20
0.8234895019581987
 30
0.0
 10
0.5061276944021574
 20
0.8232227372412187
 30
0.0
 10
0.5068144193783655
 20
0.8232309409524017
 30
0.0
 10
0.5068443790756502
 20
0.8233674911966021
 30
0.0
 10
0.5068538971848559
 20
0.8234108728143807
 30
0.0
  0
SPLINE
  5
8B
330
1F
100
AcDbEntity
  8
0
  6
Continuous
 62
     7
370
    25
100
AcDbSpline
210
0.0
220
0.0
230
1.0
 70
     8
 71
     3
 72
    24
 73
    20
 74
     0
 42
0.00000001
 43
0.00000001
 40
0.0
 40
0.0
 40
0.0
 40
0.0
 40
0.04739019315152
 40
0.108613430425491
 40
0.1709570069187609
 40
0.2334392022537475
 40
0.2962435430070993
 40
0.3590478868870308
 40
0.4215300822220174
 40
0.4838736488085769
 40
0.5450968860825479
 40
0.608130289057548
 40
0.6699163737479448
 40
0.7319356268624226
 40
0.795741823231403
 40
0.8558245219697521
 40
0.9194496810385822
 40
0.9802478679495527
 40
1.0
 40
1.0
 40
1.0
 40
1.0
 10
0.4829740189096553
 20
0.8399810945877971
 30
0.0
 10
0.4830388141490835
 20
0.8400204840320263
 30
0.0
 10
0.4831873181487832
 20
0.8401107605718711
 30
0.0
 10
0.4840116048859228
 20
0.8400383860192604
 30
0.0
 10
0.4849788545351357
 20
0.8394208406091981
 30
0.0
 10
0.4865579572632137
 20
0.8387930342380866
 30
0.0
 10
0.4881891379004548
 20
0.837756234527967
 30
0.0
 10
0.4902464881520347
 20
0.8366638221273632
 30
0.0
 10
0.4922402424858747
 20
0.8352284084413186
 30
0.0
 10
0.4945091572240764
 20
0.8339802167470111
 30
0.0
 10
0.4965475476510084
 20
0.8323539623635818
 30
0.0
 10
0.498614782727979
 20
0.8309135687713536
 30
0.0
 10
0.5004291014671556
 20
0.8293766737790297
 30
0.0
 10
0.5022246813076622
 20
0.8280777385457955
 30
0.0
 10
0.503468785540022
 20
0.8269251000227
 30
0.0
 10
0.504548915329923
 20
0.8259117211200849
 30
0.0
 10
0.5051344986068937
 20
0.8250242407502899
 30
0.0
 10
0.5053526052499543
 20
0.8246855404933473
 30
0.0
 10
0.5052758685984566
 20
0.8245881618041326
 30
0.0
 10
0.505257051634191
 20
0.8245642831062817
 30
0.0
  0
SPLINE
  5
8C
330
1F
100
AcDbEntity
  8
0
  6
Continuous
 62
     7
370
    25
100
AcDbSpline
210
0.0
220
0.0
230
1.0
 70
     8
 71
     3
 72
    19
 73
    15
 74
     0
 42
0.00000001
 43
0.00000001
 40
0.0
 40
0.0
 40
0.0
 40
0.0
 40
0.0834915382950648
 40
0.1662690458801648
 40
0.2496187504669188
 40
0.3341925674958769
 40
0.4170178560617771
 40
0.4985923192392272
 40
0.581798731503033
 40
0.6669791530805423
 40
0.7510844143138246
 40
0.8320742712119124
 40
0.9156130572736502
 40
1.0
 40
1.0
 40
1.0
 40
1.0
 10
0.4812599299176887
 20
0.8410529210314638
 30
0.0
 10
0.4812525666448558
 20
0.8409750765973749
 30
0.0
 10
0.4812379030708759
 20
0.8408200534651227
 30
0.0
 10
0.4817684195477184
 20
0.8397887857782069
 30
0.0
 10
0.4826562832385901
 20
0.8389754503411488
 30
0.0
 10
0.4841074303389663
 20
0.8376111679387477
 30
0.0
 10
0.4857902302220259
 20
0.8361419630978827
 30
0.0
 10
0.4878046337850566
 20
0.8345477524126328
 30
0.0
 10
0.4901146756301802
 20
0.832953383386162
 30
0.0
 10
0.4924624321909202
 20
0.8311073689545676
 30
0.0
 10
0.4949676705894842
 20
0.8294631467231841
 30
0.0
 10
0.4973343031505177
 20
0.8279155724112409
 30
0.0
 10
0.4997111956115747
 20
0.8264635866539037
 30
0.0
 10
0.5010787808889032
 20
0.8256849336289653
 30
0.0
 10
0.5017660272168137
 20
0.8252936407121897
 30
0.0
  0
SPLINE
  5
8D
330
1F
100
AcDbEntity
  8
0
  6
Continuous
 62
     7
370
    25
100
AcDbSpline
210
0.0
220
0.0
230
1.0
 70
     8
 71
     3
 72
     9
 73
     5
 74
     0
 42
0.00000001
 43
0.00000001
 40
0.0
 40
0.0
 40
0.0
 40
0.0
 40
0.4355372996048368
 40
0.9999999999999999
 40
0.9999999999999999
 40
0.9999999999999999
 40
0.9999999999999999
 10
0.5068538971848559
 20
0.8234108728143807
 30
0.0
 10
0.507964855207784
 20
0.8250025125725656
 30
0.0
 10
0.5105156310516352
 20
0.8286569406999129
 30
0.0
 10
0.5130567307696154
 20
0.8323441341318506
 30
0.0
 10
0.5144910867783999
 20
0.8344254172933216
 30
0.0
  0
LINE
  5
8E
330
1F
100
AcDbEntity
  8
0
  6
Continuous
 62
     7
370
    25
100
AcDbLine
 10
0.5052570516
 20
0.8245642831
 30
0.0
 11
0.5052876997
 21
0.8246707987
 31
0.0
  0
LINE
  5
8F
330
1F
100
AcDbEntity
  8
0
  6
Continuous
 62
     7
370
    25
100
AcDbLine
 10
0.5339951663
 20
0.8904824626
 30
0.0
 11
0.5339951663
 21
1.2086884377
 31
0.0
  0
LINE
  5
90
330
1F
100
AcDbEntity
  8
0
  6
Continuous
 62
     7
370
    25
100
AcDbLine
 10
0.4980998985
 20
1.20845139
 30
0.0
 11
0.4980998985
 21
0.8902454149
 31
0.0
  0
SPLINE
  5
91
330
1F
100
AcDbEntity
  8
0
  6
Continuous
 62
     7
370
    25
100
AcDbSpline
210
0.0
220
0.0
230
1.0
 70
     8
 71
     3
 72
     9
 73
     5
 74
     0
 42
0.00000001
 43
0.00000001
 40
0.0
 40
0.0
 40
0.0
 40
0.0
 40
0.5552436289794797
 40
1.0
 40
1.0
 40
1.0
 40
1.0
 10
0.5139848717326909
 20
0.8337010055620169
 30
0.0
 10
0.5139819472799672
 20
0.8336915804904053
 30
0.0
 10
0.5139766803078287
 20
0.8336746058307791
 30
0.0
 10
0.5139537385761372
 20
0.8336536625821866
 30
0.0
 10
0.5139435350948052
 20
0.8336443479389454
 30
0.0
  0
LINE
  5
92
330
1F
100
AcDbEntity
  8
0
  6
Continuous
 62
     7
370
    25
100
AcDbLine
 10
0.4981792856
 20
0.8274155322
 30
0.0
 11
0.4980996939
 21
0.802714605
 31
0.0
  0
LINE
  5
93
330
1F
100
AcDbEntity
  8
0
  6
Continuous
 62
     7
370
    25
100
AcDbLine
 10
0.5339951663
 20
0.8029492903
 30
0.0
 11
0.5339951663
 21
0.8904824626
 31
0.0
  0
SPLINE
  5
94
330
1F
100
AcDbEntity
  8
0
  6
Continuous
 62
     7
370
    25
100
AcDbSpline
210
0.0
220
0.0
230
1.0
 70
     8
 71
     3
 72
    18
 73
    14
 74
     0
 42
0.00000001
 43
0.00000001
 40
0.0
 40
0.0
 40
0.0
 40
0.0
 40
0.2599745933568455
 40
0.2812890779866342
 40
0.3293947049173688
 40
0.6588761570696758
 40
0.8943514814884258
 40
0.9390397321961392
 40
0.9603562935615673
 40
0.9616360955984359
 40
0.9775222376880238
 40
0.997607853880583
 40
1.0
 40
1.0
 40
1.0
 40
1.0
 10
0.498099898518369
 20
0.8902454148938715
 30
0.0
 10
0.4981004561143454
 20
0.8880113635566328
 30
0.0
 10
0.4981010594258309
 20
0.8855941495023189
 30
0.0
 10
0.4980993217164265
 20
0.8827455718493472
 30
0.0
 10
0.4981232023316132
 20
0.8793604466271275
 30
0.0
 10
0.4981041431363531
 20
0.8741195486349607
 30
0.0
 10
0.4980466472503447
 20
0.8691694146322251
 30
0.0
 10
0.4981306978141739
 20
0.8664585621355532
 30
0.0
 10
0.4980604825567909
 20
0.8659083404745492
 30
0.0
 10
0.4980067940028035
 20
0.8655084631198446
 30
0.0
 10
0.4978489718008205
 20
0.8650975588928976
 30
0.0
 10
0.4977432470674726
 20
0.8648738972802328
 30
0.0
 10
0.4976237566719524
 20
0.8646813593241589
 30
0.0
 10
0.4976110401709953
 20
0.864660868898196
 30
0.0
  0
SPLINE
  5
95
330
1F
100
AcDbEntity
  8
0
  6
Continuous
 62
     7
370
    25
100
AcDbSpline
210
0.0
220
0.0
230
1.0
 70
     8
 71
     3
 72
    28
 73
    24
 74
     0
 42
0.00000001
 43
0.00000001
 40
0.0
 40
0.0
 40
0.0
 40
0.0
 40
0.0456393835314356
 40
0.0958761969255019
 40
0.145322803403562
 40
0.1965532447247097
 40
0.2463807064439197
 40
0.2962081676478408
 40
0.3457184475806619
 40
0.3951650540587221
 40
0.4469156386135399
 40
0.4960105368109161
 40
0.5464663613614835
 40
0.5967031432139804
 40
0.6468143485085516
 40
0.6959092520851281
 40
0.7458945430330723
 40
0.7958798339810167
 40
0.8467089541779056
 40
0.8968201594724768
 40
0.9470569413249735
 40
0.9961518395223498
 40
0.9999999999999999
 40
0.9999999999999999
 40
0.9999999999999999
 40
0.9999999999999999
 10
0.5339951662592249
 20
1.296303253322472
 30
0.0
 10
0.5339524070370179
 20
1.296797671773235
 30
0.0
 10
0.5338625812924198
 20
1.297836313338502
 30
0.0
 10
0.5332653935971883
 20
1.299388468535503
 30
0.0
 10
0.5320457044208639
 20
1.300870903248065
 30
0.0
 10
0.5306438803075907
 20
1.302295697315213
 30
0.0
 10
0.5287415428630275
 20
1.303517635120696
 30
0.0
 10
0.5266528516035095
 20
1.304608406392876
 30
0.0
 10
0.524194844083362
 20
1.305390761984211
 30
0.0
 10
0.5216291442919475
 20
1.306090124380979
 30
0.0
 10
0.5188674818451187
 20
1.306473339157364
 30
0.0
 10
0.5160224278037526
 20
1.306614217238992
 30
0.0
 10
0.5132155263941476
 20
1.306423540722372
 30
0.0
 10
0.5104476508146589
 20
1.306070770569673
 30
0.0
 10
0.5078122807678801
 20
1.305474245636893
 30
0.0
 10
0.5054924787774409
 20
1.304562947876144
 30
0.0
 10
0.5032197945193971
 20
1.303597261306409
 30
0.0
 10
0.5015353195062712
 20
1.302268049269422
 30
0.0
 10
0.4999051613035549
 20
1.300925275455857
 30
0.0
 10
0.4988679763732154
 20
1.299383344113068
 30
0.0
 10
0.498253337466241
 20
1.297802775480574
 30
0.0
 10
0.4980424362705471
 20
1.296681043088639
 30
0.0
 10
0.4980960048891367
 20
1.296107866856463
 30
0.0
 10
0.498099898518369
 20
1.296066205604194
 30
0.0
  0
SPLINE
  5
96
330
1F
100
AcDbEntity
  8
0
  6
Continuous
 62
     7
370
    25
100
AcDbSpline
210
0.0
220
0.0
230
1.0
 70
     8
 71
     3
 72
    11
 73
     7
 74
     0
 42
0.00000001
 43
0.00000001
 40
0.0
 40
0.0
 40
0.0
 40
0.0
 40
0.8241316120473335
 40
0.9709889937847404
 40
0.990955632546197
 40
0.9999999999999999
 40
0.9999999999999999
 40
0.9999999999999999
 40
0.9999999999999999
 10
0.5339950023410748
 20
1.208689667840261
 30
0.0
 10
0.5340213001715814
 20
1.2171179956655
 30
0.0
 10
0.5340522841838545
 20
1.227048222142297
 30
0.0
 10
0.5337773083014055
 20
1.251212216640276
 30
0.0
 10
0.5338831859874154
 20
1.249729160259662
 30
0.0
 10
0.5338854433155134
 20
1.250245099956701
 30
0.0
 10
0.5338861470520412
 20
1.250405947469863
 30
0.0
  0
SPLINE
  5
97
330
1F
100
AcDbEntity
  8
0
  6
Continuous
 62
     7
370
    25
100
AcDbSpline
210
0.0
220
0.0
230
1.0
 70
     8
 71
     3
 72
    11
 73
     7
 74
     0
 42
0.00000001
 43
0.00000001
 40
0.0
 40
0.0
 40
0.0
 40
0.0
 40
0.6321584390543749
 40
0.6995124406756473
 40
0.7178399789394775
 40
1.0
 40
1.0
 40
1.0
 40
1.0
 10
0.5339941128165331
 20
1.272010577033584
 30
0.0
 10
0.5339543627827532
 20
1.277275642927626
 30
0.0
 10
0.5339103775388201
 20
1.283101680936972
 30
0.0
 10
0.5339984619990679
 20
1.288620532745048
 30
0.0
 10
0.5339937927445298
 20
1.29160497899439
 30
0.0
 10
0.5339945011042525
 20
1.294028009713833
 30
0.0
 10
0.5339951662592249
 20
1.296303253322472
 30
0.0
  0
LINE
  5
98
330
1F
100
AcDbEntity
  8
0
  6
Continuous
 62
     7
370
    25
100
AcDbLine
 10
0.4980998985
 20
1.2960662056
 30
0.0
 11
0.4980998985
 21
1.20845139
 31
0.0
  0
SPLINE
  5
99
330
1F
100
AcDbEntity
  8
0
  6
Continuous
 62
     7
370
    25
100
AcDbSpline
210
0.0
220
0.0
230
1.0
 70
     8
 71
     3
 72
    18
 73
    14
 74
     0
 42
0.00000001
 43
0.00000001
 40
0.0
 40
0.0
 40
0.0
 40
0.0
 40
0.036430338195371
 40
0.1317937176093375
 40
0.2280410818741934
 40
0.324783005359672
 40
0.4210310585527502
 40
0.5177726477373195
 40
0.6135784630594192
 40
0.7088316789065171
 40
0.8077906489403763
 40
0.9028765338642125
 40
1.0
 40
1.0
 40
1.0
 40
1.0
 10
0.53385630368381
 20
1.248212030383941
 30
0.0
 10
0.5341402142543329
 20
1.248108218968222
 30
0.0
 10
0.5351673150557892
 20
1.247732661312555
 30
0.0
 10
0.5371521142706316
 20
1.247805257517204
 30
0.0
 10
0.5395217881271824
 20
1.248176380563421
 30
0.0
 10
0.5419457648367256
 20
1.249052186125768
 30
0.0
 10
0.5442531367275196
 20
1.250550310565469
 30
0.0
 10
0.5462114890891636
 20
1.252522718662761
 30
0.0
 10
0.5478936738651001
 20
1.254831529614721
 30
0.0
 10
0.5494227200176395
 20
1.257383472190259
 30
0.0
 10
0.55020749074893
 20
1.260261095192265
 30
0.0
 10
0.5509099043443788
 20
1.263177009484506
 30
0.0
 10
0.5508159850748653
 20
1.265118873931018
 30
0.0
 10
0.5507685276283789
 20
1.266100098854631
 30
0.0
  0
SPLINE
  5
9A
330
1F
100
AcDbEntity
  8
0
  6
Continuous
 62
     7
370
    25
100
AcDbSpline
210
0.0
220
0.0
230
1.0
 70
     8
 71
     3
 72
    12
 73
     8
 74
     0
 42
0.00000001
 43
0.00000001
 40
0.0
 40
0.0
 40
0.0
 40
0.0
 40
0.1404419778442537
 40
0.2856819043586558
 40
0.2863689012949829
 40
0.8239883072576233
 40
1.0
 40
1.0
 40
1.0
 40
1.0
 10
0.5465258873982896
 20
1.275734374729697
 30
0.0
 10
0.5459094008320944
 20
1.27622862720737
 30
0.0
 10
0.5446553665401714
 20
1.27723401741351
 30
0.0
 10
0.5431505753117648
 20
1.27801788814883
 30
0.0
 10
0.5393836182055729
 20
1.278608485577452
 30
0.0
 10
0.5375677588596824
 20
1.27958154336376
 30
0.0
 10
0.5346952567935477
 20
1.28037421724973
 30
0.0
 10
0.5339867759664316
 20
1.280569724245873
 30
0.0
  0
ARC
  5
9B
330
1F
100
AcDbEntity
  8
0
  6
Continuous
 62
   144
370
    18
100
AcDbCircle
 10
0.5177208169
 20
0.852841821
 30
0.0
 40
0.0318348480638498
100
AcDbArc
 50
239.9223158973
 51
246.6230503032
  0
LWPOLYLINE
  5
9C
330
1F
100
AcDbEntity
  8
0
  6
Continuous
 62
   144
370
    18
100
AcDbPolyline
 90
       21
 70
   128
 43
0.0
 10
0.5144910868
 20
0.8344254173
 10
0.5163324273
 20
0.8370520454
 10
0.5182416156
 20
0.8409305851
 10
0.5196558288
 20
0.8448499425
 10
0.5200093822
 20
0.8481569331
 10
0.5193729865
 20
0.8507290385
 10
0.5183123262
 20
0.8517497536
 10
0.515413188
 20
0.8541585511
 10
0.5127968934
 20
0.8555058319
 10
0.5100391771
 20
0.8568530573
 10
0.5074228821
 20
0.8582002503
 10
0.5050894293
 20
0.8594657436
 10
0.5027559772
 20
0.8607312057
 10
0.5009174993
 20
0.8618741475
 10
0.4855025726
 20
0.8395840471
 10
0.4838055143
 20
0.8404820071
 10
0.4826034332
 20
0.8410125234
 10
0.4816841939
 20
0.8412164424
 10
0.4812599299
 20
0.841052921
 10
0.4975940978
 20
0.8646902427
 10
0.4975960512
 20
0.864686856
  0
LINE
  5
9D
330
1F
100
AcDbEntity
  8
0
  6
Continuous
 62
   144
370
    18
100
AcDbLine
 10
0.4976110402
 20
0.8646608689
 30
0.0
 11
0.4976210328
 21
0.8646435442
 31
0.0
  0
LWPOLYLINE
  5
9E
330
1F
100
AcDbEntity
  8
0
  6
Continuous
 62
   144
370
    18
100
AcDbPolyline
 90
       22
 70
   128
 43
0.0
 10
0.4980998985
 20
0.8902454149
 10
0.4982304935
 20
0.8887375948
 10
0.4990083109
 20
0.8871455987
 10
0.5000689709
 20
0.8856352438
 10
0.5014831852
 20
0.8842473505
 10
0.5033216631
 20
0.8830227385
 10
0.5054429832
 20
0.8819614078
 10
0.5079178561
 20
0.8811041788
 10
0.510534151
 20
0.8804918729
 10
0.5132211575
 20
0.8800836687
 10
0.516049585
 20
0.8800020281
 10
0.5188073014
 20
0.8801244894
 10
0.5215650178
 20
0.8804918729
 10
0.524181313
 20
0.881104179
 10
0.5265854753
 20
0.8820022283
 10
0.5287775072
 20
0.8830227379
 10
0.5305452731
 20
0.884288171
 10
0.5320301981
 20
0.885635244
 10
0.5330908585
 20
0.8871455991
 10
0.5337272542
 20
0.8887375948
 10
0.5340100971
 20
0.890370411
 10
0.5339951663
 20
0.8904824626
  0
LWPOLYLINE
  5
9F
330
1F
100
AcDbEntity
  8
0
  6
Continuous
 62
   144
370
    18
100
AcDbPolyline
 90
       23
 70
   128
 43
0.0
 10
0.5339951663
 20
0.8904824626
 10
0.5340100971
 20
0.890370411
 10
0.5337272542
 20
0.8887375948
 10
0.5330908585
 20
0.8871455991
 10
0.5320301981
 20
0.885635244
 10
0.5305452731
 20
0.884288171
 10
0.5287775072
 20
0.8830227379
 10
0.5265854753
 20
0.8820022283
 10
0.524181313
 20
0.881104179
 10
0.5215650178
 20
0.8804918729
 10
0.5188073014
 20
0.8801244894
 10
0.516049585
 20
0.8800020281
 10
0.5132211575
 20
0.8800836687
 10
0.510534151
 20
0.8804918729
 10
0.5079178561
 20
0.8811041788
 10
0.5054429832
 20
0.8819614078
 10
0.5033216631
 20
0.8830227385
 10
0.5014831852
 20
0.8842473505
 10
0.5000689709
 20
0.8856352438
 10
0.4990083109
 20
0.8871455987
 10
0.4982304935
 20
0.8887375948
 10
0.4980890724
 20
0.8903704113
 10
0.4980998985
 20
0.8904516588
  0
LWPOLYLINE
  5
A0
330
1F
100
AcDbEntity
  8
0
  6
Continuous
 62
   144
370
    18
100
AcDbPolyline
 90
       24
 70
   128
 43
0.0
 10
0.4980996939
 20
0.802714605
 10
0.4982304935
 20
0.8012044225
 10
0.4990083109
 20
0.7996124263
 10
0.5000689709
 20
0.7981020714
 10
0.5014831852
 20
0.7967141782
 10
0.5033216631
 20
0.7954895662
 10
0.5054429832
 20
0.7944282355
 10
0.5079178561
 20
0.7935710065
 10
0.510534151
 20
0.7929587005
 10
0.5132211575
 20
0.7925504964
 10
0.5146353712
 20
0.7925504964
 10
0.516049585
 20
0.7924688557
 10
0.5188073014
 20
0.7925913171
 10
0.5215650178
 20
0.7929587005
 10
0.524181313
 20
0.7935710067
 10
0.5265854753
 20
0.794469056
 10
0.5272218711
 20
0.7947547988
 10
0.5287775072
 20
0.7954895655
 10
0.5305452731
 20
0.7967549986
 10
0.5320301981
 20
0.7981020716
 10
0.5330908585
 20
0.7996124267
 10
0.5337272542
 20
0.8012044225
 10
0.5340100971
 20
0.8028372386
 10
0.5339951663
 20
0.8029492903
  0
LWPOLYLINE
  5
A1
330
1F
100
AcDbEntity
  8
0
  6
Continuous
 62
   144
370
    18
100
AcDbPolyline
 90
       21
 70
   128
 43
0.0
 10
0.4976110402
 20
0.8646608689
 10
0.4975940978
 20
0.8646902427
 10
0.4812599299
 20
0.841052921
 10
0.4816841939
 20
0.8412164424
 10
0.4826034332
 20
0.8410125234
 10
0.4838055143
 20
0.8404820071
 10
0.4855025726
 20
0.8395840471
 10
0.5009174993
 20
0.8618741475
 10
0.5027559772
 20
0.8607312057
 10
0.5050894293
 20
0.8594657436
 10
0.5074228821
 20
0.8582002503
 10
0.5100391771
 20
0.8568530573
 10
0.5127968934
 20
0.8555058319
 10
0.515413188
 20
0.8541585511
 10
0.5183123262
 20
0.8517497536
 10
0.5193729865
 20
0.8507290385
 10
0.5200093822
 20
0.8481569331
 10
0.5196558288
 20
0.8448499425
 10
0.5182416156
 20
0.8409305851
 10
0.5163324273
 20
0.8370520454
 10
0.5144796062
 20
0.8344090406
  0
ARC
  5
A2
330
1F
100
AcDbEntity
  8
0
  6
Continuous
 62
   144
370
    18
100
AcDbCircle
 10
0.5177208169
 20
0.852841821
 30
0.0
 40
0.0318348480638498
100
AcDbArc
 50
239.9223158973
 51
246.6230503032
  0
LWPOLYLINE
  5
A3
330
1F
100
AcDbEntity
  8
0
  6
Continuous
 62
   144
370
    18
100
AcDbPolyline
 90
       24
 70
   128
 43
0.0
 10
0.4980998985
 20
1.20845139
 10
0.4982304935
 20
1.2069435699
 10
0.4990083109
 20
1.2053515738
 10
0.5000689709
 20
1.2038412188
 10
0.5014831852
 20
1.2024533256
 10
0.5033216631
 20
1.2012287136
 10
0.5054429832
 20
1.2001673829
 10
0.5079178561
 20
1.1993101539
 10
0.510534151
 20
1.1986978479
 10
0.5132211575
 20
1.1982896438
 10
0.516049585
 20
1.1982080031
 10
0.5188073014
 20
1.1983304645
 10
0.5215650178
 20
1.1986978479
 10
0.524181313
 20
1.1993101541
 10
0.5265854753
 20
1.2002082034
 10
0.5287775072
 20
1.201228713
 10
0.5300502984
 20
1.2021267625
 10
0.5305452731
 20
1.202494146
 10
0.5320301981
 20
1.203841219
 10
0.5330908585
 20
1.2053515741
 10
0.5334444113
 20
1.206127162
 10
0.5337272542
 20
1.2069435699
 10
0.5340100971
 20
1.208576386
 10
0.5339950023
 20
1.2086896678
  0
LWPOLYLINE
  5
A4
330
1F
100
AcDbEntity
  8
0
  6
Continuous
 62
   144
370
    18
100
AcDbPolyline
 90
       13
 70
   128
 43
0.0
 10
0.5343636499
 20
1.2559768143
 10
0.5340100964
 20
1.2589573051
 10
0.5338686759
 20
1.2619785518
 10
0.5339393858
 20
1.2650405028
 10
0.5342929393
 20
1.2679390549
 10
0.5344343611
 20
1.2708784168
 10
0.5507685276
 20
1.2661000989
 10
0.5504149748
 20
1.268916947
 10
0.5494957363
 20
1.2714888132
 10
0.5482229429
 20
1.2737749045
 10
0.5465258874
 20
1.2757343747
 10
0.5311109594
 20
1.2802268275
 10
0.5339877886
 20
1.2793884182
  0
ARC
  5
A5
330
1F
100
AcDbEntity
  8
0
  6
Continuous
 62
   144
370
    18
100
AcDbCircle
 10
0.5270088531
 20
1.2532017721
 30
0.0
 40
0.00786090924891
100
AcDbArc
 50
330.5793995508
 51
20.672019038
  0
LWPOLYLINE
  5
A6
330
1F
100
AcDbEntity
  8
0
  6
Continuous
 62
   144
370
    18
100
AcDbPolyline
 90
       16
 70
   128
 43
0.0
 10
0.5339877886
 20
1.2793884182
 10
0.5465258874
 20
1.2757343747
 10
0.5482229429
 20
1.2737749045
 10
0.5494957363
 20
1.2714888132
 10
0.5504149748
 20
1.268916947
 10
0.5507685276
 20
1.2661000989
 10
0.5344343611
 20
1.2708784168
 10
0.5342929393
 20
1.2679390549
 10
0.5339393858
 20
1.2650405028
 10
0.5338686759
 20
1.2619785518
 10
0.5340100964
 20
1.2589573051
 10
0.5343636499
 20
1.2559768143
 10
0.5346464927
 20
1.2533637073
 10
0.5347172033
 20
1.2512812973
 10
0.5345050716
 20
1.2502604571
 10
0.5338559979
 20
1.2493403601
  0
ENDSEC
  0
SECTION
  2
OBJECTS
  0
DICTIONARY
  5
C
330
0
100
AcDbDictionary
281
     1
  3
ACAD_GROUP
350
D
  3
ACAD_LAYOUT
350
1A
  3
ACAD_MLINESTYLE
350
17
  3
ACAD_PLOTSETTINGS
350
19
  3
ACAD_PLOTSTYLENAME
350
E
  3
ACAD_SCALELIST
350
47
  3
DWGPROPS
350
A7
  0
DICTIONARY
  5
D
102
{ACAD_REACTORS
330
C
102
}
330
C
100
AcDbDictionary
281
     1
  0
DICTIONARY
  5
1A
102
{ACAD_REACTORS
330
C
102
}
330
C
100
AcDbDictionary
281
     1
  3
Layout1
350
1E
  3
Layout2
350
26
  3
Model
350
22
  0
DICTIONARY
  5
17
102
{ACAD_REACTORS
330
C
102
}
330
C
100
AcDbDictionary
281
     1
  3
Standard
350
18
  0
DICTIONARY
  5
19
102
{ACAD_REACTORS
330
C
102
}
330
C
100
AcDbDictionary
281
     1
  0
ACDBDICTIONARYWDFLT
  5
E
102
{ACAD_REACTORS
330
C
102
}
330
C
100
AcDbDictionary
281
     1
  3
Normal
350
F
100
AcDbDictionaryWithDefault
340
F
  0
DICTIONARY
  5
47
102
{ACAD_REACTORS
330
C
102
}
330
C
100
AcDbDictionary
281
     1
  3
A0
350
48
  3
A1
350
49
  3
A2
350
4A
  3
A3
350
4B
  3
A4
350
4C
  3
A5
350
4D
  3
A6
350
4E
  3
A7
350
4F
  3
A8
350
50
  3
A9
350
51
  3
B0
350
52
  3
B1
350
53
  3
B2
350
54
  3
B3
350
55
  3
B4
350
56
  3
B5
350
57
  3
B6
350
58
  3
B7
350
59
  3
B8
350
5A
  3
B9
350
5B
  3
C0
350
5C
  3
C1
350
5D
  3
C2
350
5E
  3
C3
350
5F
  3
C4
350
60
  3
C5
350
61
  3
C6
350
62
  3
C7
350
63
  3
C8
350
64
  3
C9
350
65
  3
D0
350
66
  3
D1
350
67
  3
D2
350
68
  0
XRECORD
  5
A7
102
{ACAD_REACTORS
330
C
102
}
330
C
100
AcDbXrecord
280
     1
  1
DWGPROPS COOKIE
  2

  3

  4

  6

  7

  8
9222
  9

300
=
301
=
302
=
303
=
304
=
305
=
306
=
307
=
308
=
309
=
 40
0.0
 41
2459916.319833819
 42
2459916.319834005
  1

 90
        0
  0
LAYOUT
  5
1E
102
{ACAD_REACTORS
330
1A
102
}
330
1A
100
AcDbPlotSettings
  1

  2
none_device
  4

  6

 40
0.0
 41
0.0
 42
0.0
 43
0.0
 44
0.0
 45
0.0
 46
0.0
 47
0.0
 48
0.0
 49
0.0
140
0.0
141
0.0
142
1.0
143
1.0
 70
   688
 72
     1
 73
     0
 74
     5
  7

 75
    16
147
1.0
148
0.0
149
0.0
100
AcDbLayout
  1
Layout1
 70
     1
 71
     1
 10
0.0
 20
0.0
 11
420.0
 21
297.0
 12
0.0
 22
0.0
 32
0.0
 14
1.0000000000E+20
 24
1.0000000000E+20
 34
1.0000000000E+20
 15
-1.0000000000E+20
 25
-1.0000000000E+20
 35
-1.0000000000E+20
146
0.0
 13
0.0
 23
0.0
 33
0.0
 16
1.0
 26
0.0
 36
0.0
 17
0.0
 27
1.0
 37
0.0
 76
     0
330
1B
  0
LAYOUT
  5
26
102
{ACAD_REACTORS
330
1A
102
}
330
1A
100
AcDbPlotSettings
  1

  2
none_device
  4

  6

 40
0.0
 41
0.0
 42
0.0
 43
0.0
 44
0.0
 45
0.0
 46
0.0
 47
0.0
 48
0.0
 49
0.0
140
0.0
141
0.0
142
1.0
143
1.0
 70
   688
 72
     1
 73
     0
 74
     5
  7

 75
    16
147
1.0
148
0.0
149
0.0
100
AcDbLayout
  1
Layout2
 70
     1
 71
     2
 10
0.0
 20
0.0
 11
0.0
 21
0.0
 12
0.0
 22
0.0
 32
0.0
 14
0.0
 24
0.0
 34
0.0
 15
0.0
 25
0.0
 35
0.0
146
0.0
 13
0.0
 23
0.0
 33
0.0
 16
1.0
 26
0.0
 36
0.0
 17
0.0
 27
1.0
 37
0.0
 76
     0
330
23
  0
LAYOUT
  5
22
102
{ACAD_REACTORS
330
1A
102
}
330
1A
100
AcDbPlotSettings
  1

  2
none_device
  4
Letter_(8.50_x_11.00_Inches)
  6

 40
6.35
 41
6.35
 42
6.35000508
 43
6.35000508
 44
215.9
 45
279.4
 46
0.0
 47
0.0
 48
0.0
 49
0.0
140
0.0
141
0.0
142
1.0
143
1.0
 70
  1712
 72
     1
 73
     0
 74
     0
  7

 75
     0
147
1.0
148
0.0
149
0.0
100
AcDbLayout
  1
Model
 70
     1
 71
     0
 10
0.0
 20
0.0
 11
1.05
 21
1.485
 12
0.0
 22
0.0
 32
0.0
 14
0.0
 24
0.0
 34
0.0
 15
1.05
 25
1.485
 35
0.0
146
0.0
 13
0.0
 23
0.0
 33
0.0
 16
1.0
 26
0.0
 36
0.0
 17
0.0
 27
1.0
 37
0.0
 76
     0
330
1F
331
29
  0
MLINESTYLE
  5
18
102
{ACAD_REACTORS
330
17
102
}
330
17
100
AcDbMlineStyle
  2
Standard
 70
     0
  3

 62
   256
 51
90.0
 52
90.0
 71
     2
 49
0.5
 62
   256
  6
BYLAYER
 49
-0.5
 62
   256
  6
BYLAYER
  0
ACDBPLACEHOLDER
  5
F
102
{ACAD_REACTORS
330
E
102
}
330
E
  0
SCALE
  5
48
102
{ACAD_REACTORS
330
47
102
}
330
47
100
AcDbScale
 70
     0
300
1:1
140
1.0
141
1.0
290
     1
  0
SCALE
  5
49
102
{ACAD_REACTORS
330
47
102
}
330
47
100
AcDbScale
 70
     0
300
1:2
140
1.0
141
2.0
290
     0
  0
SCALE
  5
4A
102
{ACAD_REACTORS
330
47
102
}
330
47
100
AcDbScale
 70
     0
300
1:4
140
1.0
141
4.0
290
     0
  0
SCALE
  5
4B
102
{ACAD_REACTORS
330
47
102
}
330
47
100
AcDbScale
 70
     0
300
1:5
140
1.0
141
5.0
290
     0
  0
SCALE
  5
4C
102
{ACAD_REACTORS
330
47
102
}
330
47
100
AcDbScale
 70
     0
300
1:8
140
1.0
141
8.0
290
     0
  0
SCALE
  5
4D
102
{ACAD_REACTORS
330
47
102
}
330
47
100
AcDbScale
 70
     0
300
1:10
140
1.0
141
10.0
290
     0
  0
SCALE
  5
4E
102
{ACAD_REACTORS
330
47
102
}
330
47
100
AcDbScale
 70
     0
300
1:16
140
1.0
141
16.0
290
     0
  0
SCALE
  5
4F
102
{ACAD_REACTORS
330
47
102
}
330
47
100
AcDbScale
 70
     0
300
1:20
140
1.0
141
20.0
290
     0
  0
SCALE
  5
50
102
{ACAD_REACTORS
330
47
102
}
330
47
100
AcDbScale
 70
     0
300
1:30
140
1.0
141
30.0
290
     0
  0
SCALE
  5
51
102
{ACAD_REACTORS
330
47
102
}
330
47
100
AcDbScale
 70
     0
300
1:40
140
1.0
141
40.0
290
     0
  0
SCALE
  5
52
102
{ACAD_REACTORS
330
47
102
}
330
47
100
AcDbScale
 70
     0
300
1:50
140
1.0
141
50.0
290
     0
  0
SCALE
  5
53
102
{ACAD_REACTORS
330
47
102
}
330
47
100
AcDbScale
 70
     0
300
1:100
140
1.0
141
100.0
290
     0
  0
SCALE
  5
54
102
{ACAD_REACTORS
330
47
102
}
330
47
100
AcDbScale
 70
     0
300
2:1
140
2.0
141
1.0
290
     0
  0
SCALE
  5
55
102
{ACAD_REACTORS
330
47
102
}
330
47
100
AcDbScale
 70
     0
300
4:1
140
4.0
141
1.0
290
     0
  0
SCALE
  5
56
102
{ACAD_REACTORS
330
47
102
}
330
47
100
AcDbScale
 70
     0
300
8:1
140
8.0
141
1.0
290
     0
  0
SCALE
  5
57
102
{ACAD_REACTORS
330
47
102
}
330
47
100
AcDbScale
 70
     0
300
10:1
140
10.0
141
1.0
290
     0
  0
SCALE
  5
58
102
{ACAD_REACTORS
330
47
102
}
330
47
100
AcDbScale
 70
     0
300
100:1
140
100.0
141
1.0
290
     0
  0
SCALE
  5
59
102
{ACAD_REACTORS
330
47
102
}
330
47
100
AcDbScale
 70
     0
300
1/128" = 1'-0"
140
0.0078125
141
12.0
290
     0
  0
SCALE
  5
5A
102
{ACAD_REACTORS
330
47
102
}
330
47
100
AcDbScale
 70
     0
300
1/64" = 1'-0"
140
0.015625
141
12.0
290
     0
  0
SCALE
  5
5B
102
{ACAD_REACTORS
330
47
102
}
330
47
100
AcDbScale
 70
     0
300
1/32" = 1'-0"
140
0.03125
141
12.0
290
     0
  0
SCALE
  5
5C
102
{ACAD_REACTORS
330
47
102
}
330
47
100
AcDbScale
 70
     0
300
1/16" = 1'-0"
140
0.0625
141
12.0
290
     0
  0
SCALE
  5
5D
102
{ACAD_REACTORS
330
47
102
}
330
47
100
AcDbScale
 70
     0
300
3/32" = 1'-0"
140
0.09375
141
12.0
290
     0
  0
SCALE
  5
5E
102
{ACAD_REACTORS
330
47
102
}
330
47
100
AcDbScale
 70
     0
300
1/8" = 1'-0"
140
0.125
141
12.0
290
     0
  0
SCALE
  5
5F
102
{ACAD_REACTORS
330
47
102
}
330
47
100
AcDbScale
 70
     0
300
3/16" = 1'-0"
140
0.1875
141
12.0
290
     0
  0
SCALE
  5
60
102
{ACAD_REACTORS
330
47
102
}
330
47
100
AcDbScale
 70
     0
300
1/4" = 1'-0"
140
0.25
141
12.0
290
     0
  0
SCALE
  5
61
102
{ACAD_REACTORS
330
47
102
}
330
47
100
AcDbScale
 70
     0
300
3/8" = 1'-0"
140
0.375
141
12.0
290
     0
  0
SCALE
  5
62
102
{ACAD_REACTORS
330
47
102
}
330
47
100
AcDbScale
 70
     0
300
1/2" = 1'-0"
140
0.5
141
12.0
290
     0
  0
SCALE
  5
63
102
{ACAD_REACTORS
330
47
102
}
330
47
100
AcDbScale
 70
     0
300
3/4" = 1'-0"
140
0.75
141
12.0
290
     0
  0
SCALE
  5
64
102
{ACAD_REACTORS
330
47
102
}
330
47
100
AcDbScale
 70
     0
300
1" = 1'-0"
140
1.0
141
12.0
290
     0
  0
SCALE
  5
65
102
{ACAD_REACTORS
330
47
102
}
330
47
100
AcDbScale
 70
     0
300
1-1/2" = 1'-0"
140
1.5
141
12.0
290
     0
  0
SCALE
  5
66
102
{ACAD_REACTORS
330
47
102
}
330
47
100
AcDbScale
 70
     0
300
3" = 1'-0"
140
3.0
141
12.0
290
     0
  0
SCALE
  5
67
102
{ACAD_REACTORS
330
47
102
}
330
47
100
AcDbScale
 70
     0
300
6" = 1'-0"
140
6.0
141
12.0
290
     0
  0
SCALE
  5
68
102
{ACAD_REACTORS
330
47
102
}
330
47
100
AcDbScale
 70
     0
300
1'-0" = 1'-0"
140
12.0
141
12.0
290
     0
  0
ENDSEC
  0
EOF
