  0
SECTION
  2
HEADER
  9
$ACADVER
  1
AC1015
  9
$ACADMAINTVER
 70
     6
  9
$DWGCODEPAGE
  3
DOS932
  9
$INSBASE
 10
0.0
 20
0.0
 30
0.0
  9
$EXTMIN
 10
0.0
 20
0.0
 30
0.0
  9
$EXTMAX
 10
2100.0
 20
2970.0
 30
0.0
  9
$LIMMIN
 10
0.0
 20
0.0
  9
$LIMMAX
 10
2100.0
 20
2970.0
  9
$ORTHOMODE
 70
     0
  9
$REGENMODE
 70
     1
  9
$FILLMODE
 70
     1
  9
$QTEXTMODE
 70
     0
  9
$MIRRTEXT
 70
     1
  9
$LTSCALE
 40
10.0
  9
$ATTMODE
 70
     1
  9
$TEXTSIZE
 40
35.0
  9
$TRACEWID
 40
1.0
  9
$TEXTSTYLE
  7
Standard
  9
$CLAYER
  8
0
  9
$CELTYPE
  6
ByLayer
  9
$CECOLOR
 62
   256
  9
$CELTSCALE
 40
1.0
  9
$DISPSILH
 70
     0
  9
$DIMSCALE
 40
1.0
  9
$DIMASZ
 40
33.02
  9
$DIMEXO
 40
10.0
  9
$DIMDLI
 40
3.75
  9
$DIMRND
 40
0.0
  9
$DIMDLE
 40
0.0
  9
$DIMEXE
 40
10.0
  9
$DIMTP
 40
0.0
  9
$DIMTM
 40
0.0
  9
$DIMTXT
 40
35.0
  9
$DIMCEN
 40
2.5
  9
$DIMTSZ
 40
0.0
  9
$DIMTOL
 70
     0
  9
$DIMLIM
 70
     0
  9
$DIMTIH
 70
     1
  9
$DIMTOH
 70
     1
  9
$DIMSE1
 70
     0
  9
$DIMSE2
 70
     0
  9
$DIMTAD
 70
     1
  9
$DIMZIN
 70
     1
  9
$DIMBLK
  1

  9
$DIMASO
 70
     1
  9
$DIMSHO
 70
     1
  9
$DIMPOST
  1

  9
$DIMAPOST
  1

  9
$DIMALT
 70
     0
  9
$DIMALTD
 70
     3
  9
$DIMALTF
 40
0.0393700787
  9
$DIMLFAC
 40
1.0
  9
$DIMTOFL
 70
     1
  9
$DIMTVP
 40
0.0
  9
$DIMTIX
 70
     0
  9
$DIMSOXD
 70
     0
  9
$DIMSAH
 70
     0
  9
$DIMBLK1
  1

  9
$DIMBLK2
  1

  9
$DIMSTYLE
  2
ISO-25
  9
$DIMCLRD
 70
     0
  9
$DIMCLRE
 70
     0
  9
$DIMCLRT
 70
     0
  9
$DIMTFAC
 40
1.0
  9
$DIMGAP
 40
15.24
  9
$DIMJUST
 70
     0
  9
$DIMSD1
 70
     0
  9
$DIMSD2
 70
     0
  9
$DIMTOLJ
 70
     0
  9
$DIMTZIN
 70
     1
  9
$DIMALTZ
 70
     0
  9
$DIMALTTZ
 70
     0
  9
$DIMUPT
 70
     0
  9
$DIMDEC
 70
     2
  9
$DIMTDEC
 70
     2
  9
$DIMALTU
 70
     2
  9
$DIMALTTD
 70
     3
  9
$DIMTXSTY
  7
Standard
  9
$DIMAUNIT
 70
     0
  9
$DIMADEC
 70
     2
  9
$DIMALTRND
 40
0.0
  9
$DIMAZIN
 70
     0
  9
$DIMDSEP
 70
    44
  9
$DIMATFIT
 70
     3
  9
$DIMFRAC
 70
     0
  9
$DIMLDRBLK
  1

  9
$DIMLUNIT
 70
     2
  9
$DIMLWD
 70
    -2
  9
$DIMLWE
 70
    -2
  9
$DIMTMOVE
 70
     0
  9
$LUNITS
 70
     2
  9
$LUPREC
 70
     2
  9
$SKETCHINC
 40
1.0
  9
$FILLETRAD
 40
10.0
  9
$AUNITS
 70
     0
  9
$AUPREC
 70
     2
  9
$MENU
  1
.
  9
$ELEVATION
 40
0.0
  9
$PELEVATION
 40
0.0
  9
$THICKNESS
 40
0.0
  9
$LIMCHECK
 70
     0
  9
$CHAMFERA
 40
0.0
  9
$CHAMFERB
 40
0.0
  9
$CHAMFERC
 40
0.0
  9
$CHAMFERD
 40
0.0
  9
$SKPOLY
 70
     0
  9
$TDCREATE
 40
2459920.569314873
  9
$TDUCREATE
 40
2459920.194314873
  9
$TDUPDATE
 40
2459920.56931522
  9
$TDUUPDATE
 40
2459920.19431522
  9
$TDINDWG
 40
0.0000000116
  9
$TDUSRTIMER
 40
0.0000000116
  9
$USRTIMER
 70
     1
  9
$ANGBASE
 50
0.0
  9
$ANGDIR
 70
     0
  9
$PDMODE
 70
     0
  9
$PDSIZE
 40
-1.0
  9
$PLINEWID
 40
0.0
  9
$SPLFRAME
 70
     0
  9
$SPLINETYPE
 70
     6
  9
$SPLINESEGS
 70
     8
  9
$HANDSEED
  5
98
  9
$SURFTAB1
 70
     6
  9
$SURFTAB2
 70
     6
  9
$SURFTYPE
 70
     6
  9
$SURFU
 70
     6
  9
$SURFV
 70
     6
  9
$UCSBASE
  2

  9
$UCSNAME
  2

  9
$UCSORG
 10
0.0
 20
0.0
 30
0.0
  9
$UCSXDIR
 10
1.0
 20
0.0
 30
0.0
  9
$UCSYDIR
 10
0.0
 20
1.0
 30
0.0
  9
$UCSORTHOREF
  2

  9
$UCSORTHOVIEW
 70
     0
  9
$UCSORGTOP
 10
0.0
 20
0.0
 30
0.0
  9
$UCSORGBOTTOM
 10
0.0
 20
0.0
 30
0.0
  9
$UCSORGLEFT
 10
0.0
 20
0.0
 30
0.0
  9
$UCSORGRIGHT
 10
0.0
 20
0.0
 30
0.0
  9
$UCSORGFRONT
 10
0.0
 20
0.0
 30
0.0
  9
$UCSORGBACK
 10
0.0
 20
0.0
 30
0.0
  9
$PUCSBASE
  2

  9
$PUCSNAME
  2

  9
$PUCSORG
 10
0.0
 20
0.0
 30
0.0
  9
$PUCSXDIR
 10
1.0
 20
0.0
 30
0.0
  9
$PUCSYDIR
 10
0.0
 20
1.0
 30
0.0
  9
$PUCSORTHOREF
  2

  9
$PUCSORTHOVIEW
 70
     0
  9
$PUCSORGTOP
 10
0.0
 20
0.0
 30
0.0
  9
$PUCSORGBOTTOM
 10
0.0
 20
0.0
 30
0.0
  9
$PUCSORGLEFT
 10
0.0
 20
0.0
 30
0.0
  9
$PUCSORGRIGHT
 10
0.0
 20
0.0
 30
0.0
  9
$PUCSORGFRONT
 10
0.0
 20
0.0
 30
0.0
  9
$PUCSORGBACK
 10
0.0
 20
0.0
 30
0.0
  9
$USERI1
 70
     0
  9
$USERI2
 70
     0
  9
$USERI3
 70
     0
  9
$USERI4
 70
     0
  9
$USERI5
 70
     0
  9
$USERR1
 40
0.0
  9
$USERR2
 40
0.0
  9
$USERR3
 40
0.0
  9
$USERR4
 40
0.0
  9
$USERR5
 40
0.0
  9
$WORLDVIEW
 70
     1
  9
$SHADEDGE
 70
     3
  9
$SHADEDIF
 70
    70
  9
$TILEMODE
 70
     1
  9
$MAXACTVP
 70
    64
  9
$PINSBASE
 10
0.0
 20
0.0
 30
0.0
  9
$PLIMCHECK
 70
     0
  9
$PEXTMIN
 10
1.0000000000E+20
 20
1.0000000000E+20
 30
1.0000000000E+20
  9
$PEXTMAX
 10
-1.0000000000E+20
 20
-1.0000000000E+20
 30
-1.0000000000E+20
  9
$PLIMMIN
 10
0.0
 20
0.0
  9
$PLIMMAX
 10
420.0
 20
297.0
  9
$UNITMODE
 70
     0
  9
$VISRETAIN
 70
     1
  9
$PLINEGEN
 70
     0
  9
$PSLTSCALE
 70
     1
  9
$TREEDEPTH
 70
  3020
  9
$CMLSTYLE
  2
Standard
  9
$CMLJUST
 70
     0
  9
$CMLSCALE
 40
20.0
  9
$PROXYGRAPHICS
 70
     1
  9
$MEASUREMENT
 70
     1
  9
$CELWEIGHT
370
    -1
  9
$ENDCAPS
280
     0
  9
$JOINSTYLE
280
     0
  9
$LWDISPLAY
290
     1
  9
$INSUNITS
 70
     4
  9
$HYPERLINKBASE
  1

  9
$STYLESHEET
  1

  9
$XEDIT
290
     1
  9
$CEPSNTYPE
380
     0
  9
$PSTYLEMODE
290
     1
  9
$FINGERPRINTGUID
  2
{5f7a38ca-b9df-468f-8cdf-5379a8e43229}
  9
$VERSIONGUID
  2
{FAEB1C32-E019-11D5-929B-00C0DF256EC4}
  9
$EXTNAMES
290
     1
  9
$PSVPSCALE
 40
0.0
  9
$OLESTARTUP
290
     0
  0
ENDSEC
  0
SECTION
  2
CLASSES
  0
CLASS
  1
ACDBDICTIONARYWDFLT
  2
AcDbDictionaryWithDefault
  3
ObjectDBX Classes
 90
        0
280
     0
281
     0
  0
CLASS
  1
VISUALSTYLE
  2
AcDbVisualStyle
  3
ObjectDBX Classes
 90
     4095
280
     0
281
     0
  0
CLASS
  1
MATERIAL
  2
AcDbMaterial
  3
ObjectDBX Classes
 90
     1153
280
     0
281
     0
  0
CLASS
  1
SCALE
  2
AcDbScale
  3
ObjectDBX Classes
 90
     1153
280
     0
281
     0
  0
CLASS
  1
TABLESTYLE
  2
AcDbTableStyle
  3
ObjectDBX Classes
 90
     4095
280
     0
281
     0
  0
CLASS
  1
MLEADERSTYLE
  2
AcDbMLeaderStyle
  3
ACDB_MLEADERSTYLE_CLASS
 90
     4095
280
     0
281
     0
  0
CLASS
  1
SUN
  2
AcDbSun
  3
SCENEOE
 90
     1153
280
     0
281
     0
  0
CLASS
  1
ACDBPLACEHOLDER
  2
AcDbPlaceHolder
  3
ObjectDBX Classes
 90
        0
280
     0
281
     0
  0
CLASS
  1
LAYOUT
  2
AcDbLayout
  3
ObjectDBX Classes
 90
        0
280
     0
281
     0
  0
ENDSEC
  0
SECTION
  2
TABLES
  0
TABLE
  2
VPORT
  5
8
330
0
100
AcDbSymbolTable
 70
     1
  0
VPORT
  5
29
330
8
100
AcDbSymbolTableRecord
100
AcDbViewportTableRecord
  2
*Active
 70
     0
 10
0.0
 20
0.0
 11
1.0
 21
1.0
 12
1050.0
 22
1485.0
 13
0.0
 23
0.0
 14
10.0
 24
10.0
 15
10.0
 25
10.0
 16
0.0
 26
0.0
 36
1.0
 17
0.0
 27
0.0
 37
0.0
 40
2970.0
 41
0.7070707071
 42
50.0
 43
0.0
 44
0.0
 50
0.0
 51
0.0
 71
     0
 72
  2000
 73
     1
 74
     3
 75
     0
 76
     0
 77
     0
 78
     0
281
     0
 65
     1
110
0.0
120
0.0
130
0.0
111
1.0
121
0.0
131
0.0
112
0.0
122
1.0
132
0.0
 79
     0
146
0.0
  0
ENDTAB
  0
TABLE
  2
LTYPE
  5
5
330
0
100
AcDbSymbolTable
 70
     6
  0
LTYPE
  5
14
330
5
100
AcDbSymbolTableRecord
100
AcDbLinetypeTableRecord
  2
ByBlock
 70
     0
  3

 72
    65
 73
     0
 40
0.0
  0
LTYPE
  5
15
330
5
100
AcDbSymbolTableRecord
100
AcDbLinetypeTableRecord
  2
ByLayer
 70
     0
  3

 72
    65
 73
     0
 40
0.0
  0
LTYPE
  5
16
330
5
100
AcDbSymbolTableRecord
100
AcDbLinetypeTableRecord
  2
Continuous
 70
     0
  3
Solid line
 72
    65
 73
     0
 40
0.0
  0
LTYPE
  5
6E
330
5
100
AcDbSymbolTableRecord
100
AcDbLinetypeTableRecord
  2
HIDDEN
 70
     0
  3
Hidden __ __ __ __ __ __ __ __ __ __ __ __ __ __
 72
    65
 73
     2
 40
1.905
 49
1.27
 74
     0
 49
-0.635
 74
     0
  0
LTYPE
  5
6F
330
5
100
AcDbSymbolTableRecord
100
AcDbLinetypeTableRecord
  2
PHANTOM
 70
     0
  3
Phantom ______  __  __  ______  __  __  ______
 72
    65
 73
     6
 40
12.7
 49
6.35
 74
     0
 49
-1.27
 74
     0
 49
1.27
 74
     0
 49
-1.27
 74
     0
 49
1.27
 74
     0
 49
-1.27
 74
     0
  0
LTYPE
  5
70
330
5
100
AcDbSymbolTableRecord
100
AcDbLinetypeTableRecord
  2
CENTER
 70
     0
  3
Center ____ _ ____ _ ____ _ ____ _ ____ _ ____
 72
    65
 73
     4
 40
10.16
 49
6.35
 74
     0
 49
-1.27
 74
     0
 49
1.27
 74
     0
 49
-1.27
 74
     0
  0
LTYPE
  5
71
330
5
100
AcDbSymbolTableRecord
100
AcDbLinetypeTableRecord
  2
CENTERX2
 70
     0
  3
Center (2x) ________  __  ________  __  _____
 72
    65
 73
     4
 40
20.32
 49
12.7
 74
     0
 49
-2.54
 74
     0
 49
2.54
 74
     0
 49
-2.54
 74
     0
  0
LTYPE
  5
72
330
5
100
AcDbSymbolTableRecord
100
AcDbLinetypeTableRecord
  2
DOT2
 70
     0
  3
Dot (.5x) ........................................
 72
    65
 73
     2
 40
0.635
 49
0.0
 74
     0
 49
-0.635
 74
     0
  0
ENDTAB
  0
TABLE
  2
LAYER
  5
2
330
0
100
AcDbSymbolTable
 70
     1
  0
LAYER
  5
10
330
2
100
AcDbSymbolTableRecord
100
AcDbLayerTableRecord
  2
0
 70
     0
 62
     7
  6
Continuous
370
    -3
390
F
  0
ENDTAB
  0
TABLE
  2
STYLE
  5
3
330
0
100
AcDbSymbolTable
 70
     2
  0
STYLE
  5
11
330
3
100
AcDbSymbolTableRecord
100
AcDbTextStyleTableRecord
  2
Standard
 70
     0
 40
0.0
 41
1.0
 50
0.0
 71
     0
 42
35.0
  3
txt
  4
bigfont
  0
STYLE
  5
76
330
3
100
AcDbSymbolTableRecord
100
AcDbTextStyleTableRecord
  2
SLDTEXTSTYLE0
 70
     0
 40
0.0
 41
0.7
 50
0.0
 71
     0
 42
35.0
  3
TXT
  4
bigfont
  0
ENDTAB
  0
TABLE
  2
VIEW
  5
6
330
0
100
AcDbSymbolTable
 70
     0
  0
ENDTAB
  0
TABLE
  2
UCS
  5
7
330
0
100
AcDbSymbolTable
 70
     0
  0
ENDTAB
  0
TABLE
  2
APPID
  5
9
330
0
100
AcDbSymbolTable
 70
     1
  0
APPID
  5
12
330
9
100
AcDbSymbolTableRecord
100
AcDbRegAppTableRecord
  2
ACAD
 70
     0
  0
ENDTAB
  0
TABLE
  2
DIMSTYLE
  5
A
330
0
100
AcDbSymbolTable
 70
     1
100
AcDbDimStyleTable
  0
DIMSTYLE
105
27
330
A
100
AcDbSymbolTableRecord
100
AcDbDimStyleTableRecord
  2
ISO-25
 70
     0
 41
2.5
 42
0.625
 43
3.75
 44
1.25
 73
     0
 74
     0
 77
     1
 78
     8
140
2.5
141
2.5
143
0.0393700787
147
0.625
171
     3
172
     1
178
     0
271
     2
272
     2
274
     3
278
    44
283
     0
284
     8
340
11
  0
ENDTAB
  0
TABLE
  2
BLOCK_RECORD
  5
1
330
0
100
AcDbSymbolTable
 70
     2
  0
BLOCK_RECORD
  5
1F
330
1
100
AcDbSymbolTableRecord
100
AcDbBlockTableRecord
  2
*Model_Space
340
22
  0
BLOCK_RECORD
  5
1B
330
1
100
AcDbSymbolTableRecord
100
AcDbBlockTableRecord
  2
*Paper_Space
340
1E
  0
BLOCK_RECORD
  5
23
330
1
100
AcDbSymbolTableRecord
100
AcDbBlockTableRecord
  2
*Paper_Space0
340
26
  0
BLOCK_RECORD
  5
73
330
1
100
AcDbSymbolTableRecord
100
AcDbBlockTableRecord
  2
SW_NOTE_0
340
0
102
{BLKREFS
331
7A
102
}
  0
ENDTAB
  0
ENDSEC
  0
SECTION
  2
BLOCKS
  0
BLOCK
  5
20
330
1F
100
AcDbEntity
  8
0
100
AcDbBlockBegin
  2
*Model_Space
 70
     0
 10
0.0
 20
0.0
 30
0.0
  3
*Model_Space
  1

  0
ENDBLK
  5
21
330
1F
100
AcDbEntity
  8
0
100
AcDbBlockEnd
  0
BLOCK
  5
1C
330
1B
100
AcDbEntity
 67
     1
  8
0
100
AcDbBlockBegin
  2
*Paper_Space
 70
     0
 10
0.0
 20
0.0
 30
0.0
  3
*Paper_Space
  1

  0
ENDBLK
  5
1D
330
1B
100
AcDbEntity
 67
     1
  8
0
100
AcDbBlockEnd
  0
BLOCK
  5
24
330
23
100
AcDbEntity
  8
0
100
AcDbBlockBegin
  2
*Paper_Space0
 70
     0
 10
0.0
 20
0.0
 30
0.0
  3
*Paper_Space0
  1

  0
ENDBLK
  5
25
330
23
100
AcDbEntity
  8
0
100
AcDbBlockEnd
  0
BLOCK
  5
74
330
73
100
AcDbEntity
  8
0
100
AcDbBlockBegin
  2
SW_NOTE_0
 70
     0
 10
0.0
 20
0.0
 30
0.0
  3
SW_NOTE_0
  1

  0
MTEXT
  5
77
330
73
100
AcDbEntity
  8
0
  6
Continuous
 62
     0
370
     0
100
AcDbMText
 10
0.0
 20
68.2131678963
 30
0.0
 40
52.9166666667
 41
0.0
 71
     1
 72
     1
  1
HOA-D14B
  7
SLDTEXTSTYLE0
 73
     1
 44
1.0
  0
MTEXT
  5
78
330
73
100
AcDbEntity
  8
0
  6
Continuous
 62
     0
370
     0
100
AcDbMText
 10
0.0
 20
-12.3423884457
 30
0.0
 40
52.9166666667
 41
0.0
 71
     1
 72
     1
  1
HOA-D14G
  7
SLDTEXTSTYLE0
 73
     1
 44
1.0
  0
MTEXT
  5
79
330
73
100
AcDbEntity
  8
0
  6
Continuous
 62
     0
370
     0
100
AcDbMText
 10
0.0
 20
-92.8979447877
 30
0.0
 40
52.9166666667
 41
0.0
 71
     1
 72
     1
  1
HOA-D14R
  7
SLDTEXTSTYLE0
 73
     1
 44
1.0
  0
ENDBLK
  5
75
330
73
100
AcDbEntity
  8
0
100
AcDbBlockEnd
  0
ENDSEC
  0
SECTION
  2
ENTITIES
  0
INSERT
  5
7A
330
1F
100
AcDbEntity
  8
0
  6
Continuous
 62
     7
370
     0
100
AcDbBlockReference
  2
SW_NOTE_0
 10
1530.9742655763
 20
607.7704430181
 30
0.0
  0
LINE
  5
7B
330
1F
100
AcDbEntity
  8
0
  6
Continuous
 62
     7
370
    25
100
AcDbLine
 10
1351.2402369404
 20
1079.2025616556
 30
0.0
 11
1297.3531161572
 21
1408.3385430578
 31
0.0
  0
LINE
  5
7C
330
1F
100
AcDbEntity
  8
0
  6
Continuous
 62
     7
370
    25
100
AcDbLine
 10
797.5590859917
 20
1402.4153208475
 30
0.0
 11
751.4874007419
 21
1072.0946950033
 31
0.0
  0
LINE
  5
7D
330
1F
100
AcDbEntity
  8
0
  6
Continuous
 62
     7
370
    25
100
AcDbLine
 10
968.2721544691
 20
1444.2502213507
 30
0.0
 11
956.908934711
 21
2403.064393268
 31
0.0
  0
LINE
  5
7E
330
1F
100
AcDbEntity
  8
0
  6
Continuous
 62
     7
370
    25
100
AcDbLine
 10
953.9091453697
 20
2403.0288417852
 30
0.0
 11
965.2744430697
 21
1444.0393357566
 31
0.0
  0
LINE
  5
7F
330
1F
100
AcDbEntity
  8
0
  6
Continuous
 62
     7
370
    25
100
AcDbLine
 10
1162.9714320207
 20
1443.8307093764
 30
0.0
 11
1151.6971646678
 21
2395.1391893598
 31
0.0
  0
LINE
  5
80
330
1F
100
AcDbEntity
  8
0
  6
Continuous
 62
     7
370
    25
100
AcDbLine
 10
1148.6973753266
 20
2395.103637877
 30
0.0
 11
1159.9684838854
 21
1444.0616929515
 31
0.0
  0
SPLINE
  5
81
330
1F
100
AcDbEntity
  8
0
  6
Continuous
 62
     7
370
    25
100
AcDbSpline
210
0.0
220
0.0
230
1.0
 70
     8
 71
     3
 72
   106
 73
   102
 74
     0
 42
0.00000001
 43
0.00000001
 40
0.0
 40
0.0
 40
0.0
 40
0.0
 40
0.0101747077730224
 40
0.0201565958278831
 40
0.0292565333482204
 40
0.0375311655764975
 40
0.0450281946864362
 40
0.0517877905268212
 40
0.0588533813068838
 40
0.0649872731250093
 40
0.0702619810485182
 40
0.0753525652500302
 40
0.0877205105867298
 40
0.1004222790396213
 40
0.1136267742227577
 40
0.1219251042697159
 40
0.1304973597851775
 40
0.1392888130112333
 40
0.1472806821821913
 40
0.1541028178736063
 40
0.15980371609268
 40
0.1657886784337855
 40
0.1724182107794843
 40
0.1796443497640692
 40
0.189911716569599
 40
0.2008864590120427
 40
0.2115536302831789
 40
0.2218408784980738
 40
0.2318237971051148
 40
0.241791331538696
 40
0.2517627954153273
 40
0.2609453516097097
 40
0.2704205087168515
 40
0.2802211430363578
 40
0.2903269654671298
 40
0.2999807288279636
 40
0.3087802641497521
 40
0.3156303679467363
 40
0.3218211871197195
 40
0.327570741721019
 40
0.3342416655746708
 40
0.342096145269735
 40
0.3536258398336802
 40
0.3648355594907934
 40
0.3755697597639485
 40
0.3893766435021153
 40
0.4032692561981796
 40
0.4172218933065854
 40
0.4311644789056789
 40
0.4556520974749246
 40
0.4797865157145523
 40
0.5038473819754496
 40
0.5279567761705511
 40
0.5513241911838977
 40
0.5750852503616628
 40
0.5991998645191612
 40
0.6074450212460656
 40
0.6157213421402475
 40
0.6240627945572933
 40
0.6325904011148539
 40
0.6412840913251912
 40
0.6501146978912624
 40
0.6587411321025657
 40
0.6632925268177237
 40
0.6671348915137276
 40
0.6702842177478701
 40
0.6732121560997341
 40
0.6768987444602287
 40
0.6813565690709925
 40
0.6865628188524174
 40
0.6920068712195399
 40
0.7031582983079122
 40
0.714046931776574
 40
0.724733082997347
 40
0.7433848373434608
 40
0.761698830868914
 40
0.7800046959610596
 40
0.7940702970341472
 40
0.8082574505486924
 40
0.8225800838447535
 40
0.8377536913517404
 40
0.8539140492654863
 40
0.8629773864593344
 40
0.8712509083558693
 40
0.8786363392189103
 40
0.8851104330290964
 40
0.8885345651269897
 40
0.8913756117158947
 40
0.8942475029851823
 40
0.8979446907263231
 40
0.9024633412692864
 40
0.9113904148952247
 40
0.920716151406907
 40
0.9297590987767446
 40
0.9385038235433336
 40
0.9469371568944374
 40
0.955199646655836
 40
0.9634263113125929
 40
0.971584752196318
 40
0.9876131877776388
 40
1.0
 40
1.0
 40
1.0
 40
1.0
 10
1033.415456286712
 20
2389.3079388715
 30
0.0
 10
1033.29944226523
 20
2386.040448854734
 30
0.0
 10
1033.069612790661
 20
2379.567390649149
 30
0.0
 10
1032.749627913338
 20
2370.219974612714
 30
0.0
 10
1032.464541708941
 20
2361.514387728477
 30
0.0
 10
1032.221555362338
 20
2353.633830646574
 30
0.0
 10
1032.017833134966
 20
2346.523872188222
 30
0.0
 10
1031.84179953234
 20
2339.821211494396
 30
0.0
 10
1031.694576353269
 20
2333.5706210388
 30
0.0
 10
1031.576138741561
 20
2327.805785367872
 30
0.0
 10
1031.485768863465
 20
2322.672860296009
 30
0.0
 10
1031.382397567006
 20
2315.619429352093
 30
0.0
 10
1031.296595319185
 20
2306.301947006024
 30
0.0
 10
1031.300850837344
 20
2294.539891217751
 30
0.0
 10
1031.42938106403
 20
2284.068630013879
 30
0.0
 10
1031.650171754324
 20
2274.874149296258
 30
0.0
 10
1031.918071702022
 20
2267.028968272687
 30
0.0
 10
1032.271562173548
 20
2259.268601599034
 30
0.0
 10
1032.68798505611
 20
2252.02743258615
 30
0.0
 10
1033.122028902753
 20
2245.716022103423
 30
0.0
 10
1033.571879323621
 20
2240.004714671445
 30
0.0
 10
1034.073253077482
 20
2234.334689362113
 30
0.0
 10
1034.684776579644
 20
2228.169009520553
 30
0.0
 10
1035.523503333382
 20
2220.639323617559
 30
0.0
 10
1036.658324691737
 20
2211.702364460056
 30
0.0
 10
1038.141360335478
 20
2201.61963409275
 30
0.0
 10
1039.798731187944
 20
2191.488413372374
 30
0.0
 10
1041.501042329627
 20
2181.64963699184
 30
0.0
 10
1043.20471613024
 20
2172.018401966683
 30
0.0
 10
1044.881134977559
 20
2162.474124883154
 30
0.0
 10
1046.458366337298
 20
2153.169846045659
 30
0.0
 10
1047.91535854895
 20
2144.005449609258
 30
0.0
 10
1049.235214705505
 20
2134.876601915772
 30
0.0
 10
1050.419255160672
 20
2125.430629562984
 30
0.0
 10
1051.379161624374
 20
2115.908441766532
 30
0.0
 10
1052.038523371046
 20
2106.699443530169
 30
0.0
 10
1052.364450545984
 20
2098.545191627617
 30
0.0
 10
1052.432884559536
 20
2091.523759455977
 30
0.0
 10
1052.327461089799
 20
2085.503994205613
 30
0.0
 10
1052.062538408907
 20
2079.570811007761
 30
0.0
 10
1051.594960124438
 20
2073.147380794088
 30
0.0
 10
1050.782471800531
 20
2064.9449787181
 30
0.0
 10
1049.585757617139
 20
2055.371434808245
 30
0.0
 10
1048.120642208331
 20
2044.909984962483
 30
0.0
 10
1046.540331098728
 20
2033.688727604829
 30
0.0
 10
1044.966376306213
 20
2021.511490405496
 30
0.0
 10
1043.69059485343
 20
2008.131816313841
 30
0.0
 10
1042.740906206655
 20
1994.62188550782
 30
0.0
 10
1041.678317293706
 20
1977.658647948607
 30
0.0
 10
1040.080530749044
 20
1957.414895645253
 30
0.0
 10
1037.630282445377
 20
1933.962053081258
 30
0.0
 10
1034.880062455017
 20
1910.68070949442
 30
0.0
 10
1032.072978846977
 20
1887.6652698041
 30
0.0
 10
1029.419639279402
 20
1864.728199794504
 30
0.0
 10
1027.074141104755
 20
1841.749379905445
 30
0.0
 10
1025.563505695692
 20
1823.601140340651
 30
0.0
 10
1024.689253794031
 20
1810.443143424463
 30
0.0
 10
1024.230549948581
 20
1802.388766983722
 30
0.0
 10
1023.852372997635
 20
1794.24189147507
 30
0.0
 10
1023.566348910253
 20
1785.962993129334
 30
0.0
 10
1023.389474862297
 20
1777.535524053431
 30
0.0
 10
1023.343735532184
 20
1769.095920599895
 30
0.0
 10
1023.430329482499
 20
1762.021222202682
 30
0.0
 10
1023.580010571269
 20
1756.576440702893
 30
0.0
 10
1023.719742621852
 20
1752.897791505497
 30
0.0
 10
1023.868768641799
 20
1749.748506019477
 30
0.0
 10
1024.041369446012
 20
1746.660366439736
 30
0.0
 10
1024.270629903821
 20
1743.174847772565
 30
0.0
 10
1024.598809094603
 20
1739.000502537715
 30
0.0
 10
1025.037058808831
 20
1734.317545389679
 30
0.0
 10
1025.770698028286
 20
1727.629540420975
 30
0.0
 10
1026.882001095869
 20
1719.338942858011
 30
0.0
 10
1028.448785546106
 20
1709.688347056603
 30
0.0
 10
1030.599416435349
 20
1698.05430049993
 30
0.0
 10
1033.396483530177
 20
1684.551204942235
 30
0.0
 10
1036.734142590982
 20
1669.006447241593
 30
0.0
 10
1039.668613457629
 20
1654.603040342107
 30
0.0
 10
1042.11335702215
 20
1641.097464479842
 30
0.0
 10
1044.086631056935
 20
1628.486151806537
 30
0.0
 10
1045.878102088084
 20
1615.343131167317
 30
0.0
 10
1047.521700835253
 20
1601.427027310617
 30
0.0
 10
1048.780048068789
 20
1588.977760564919
 30
0.0
 10
1049.701607904213
 20
1578.580897882637
 30
0.0
 10
1050.321724351198
 20
1570.873416681512
 30
0.0
 10
1050.829348591317
 20
1563.947937525017
 30
0.0
 10
1051.193307285232
 20
1558.523628637171
 30
0.0
 10
1051.444604679689
 20
1554.517541424152
 30
0.0
 10
1051.617156063259
 20
1551.640705697555
 30
0.0
 10
1051.787649340796
 20
1548.674667828223
 30
0.0
 10
1051.978761261058
 20
1545.175596883519
 30
0.0
 10
1052.255307050887
 20
1539.757682776053
 30
0.0
 10
1052.581354050617
 20
1532.544227557064
 30
0.0
 10
1052.904023098788
 20
1523.872541775069
 30
0.0
 10
1053.154692521294
 20
1515.235542882096
 30
0.0
 10
1053.329334817318
 20
1506.86254176785
 30
0.0
 10
1053.432539978368
 20
1498.72102316736
 30
0.0
 10
1053.466619532885
 20
1490.729538437668
 30
0.0
 10
1053.432328024532
 20
1482.81189518729
 30
0.0
 10
1053.282121238133
 20
1472.382330139792
 30
0.0
 10
1052.977795686923
 20
1460.588614872968
 30
0.0
 10
1052.423771938834
 20
1451.406098333974
 30
0.0
 10
1052.182261177368
 20
1447.403243638388
 30
0.0
  0
SPLINE
  5
82
330
1F
100
AcDbEntity
  8
0
  6
Continuous
 62
     7
370
    25
100
AcDbSpline
210
0.0
220
0.0
230
1.0
 70
     8
 71
     3
 72
   114
 73
   110
 74
     0
 42
0.00000001
 43
0.00000001
 40
0.0
 40
0.0
 40
0.0
 40
0.0
 40
0.0028916874142575
 40
0.014856720824514
 40
0.0269061345877326
 40
0.0388923419750379
 40
0.0512945531053475
 40
0.0643050475673178
 40
0.0778108589027929
 40
0.0908150982766605
 40
0.095454152940508
 40
0.0999583093828786
 40
0.104317390554407
 40
0.1080669664713725
 40
0.1109127691996931
 40
0.1128549248869769
 40
0.1150624025093771
 40
0.1180906969287377
 40
0.1219412448488145
 40
0.1288005092961218
 40
0.1360154803212614
 40
0.1431104161454765
 40
0.150076979854313
 40
0.1569077498015603
 40
0.1765364753381236
 40
0.1955926387037727
 40
0.2141002044467
 40
0.2280984472886762
 40
0.2420487584615454
 40
0.255951796374733
 40
0.2698574708649161
 40
0.2843472068443986
 40
0.2918297942508699
 40
0.2995802855736952
 40
0.3073287273976504
 40
0.3142275802821593
 40
0.3202209718589581
 40
0.325405475949623
 40
0.3307589035532365
 40
0.3365252328480675
 40
0.3444952942263273
 40
0.353204321356633
 40
0.3626647582429629
 40
0.3724753518979437
 40
0.3820962042437564
 40
0.3914862085113365
 40
0.4006096320500022
 40
0.4095734902244074
 40
0.4376933609919227
 40
0.465301483779321
 40
0.4943649285819432
 40
0.5233960065126585
 40
0.5525916558708339
 40
0.5665644694413471
 40
0.5807020774880833
 40
0.5948679750194336
 40
0.6089048684685833
 40
0.6230652963402898
 40
0.6364964899578927
 40
0.6501787911611004
 40
0.6641413711936107
 40
0.6696607489031642
 40
0.6745665040990908
 40
0.6786570557278151
 40
0.6819402772423356
 40
0.6849901094057138
 40
0.6888705336232008
 40
0.6936029164588446
 40
0.6991627134670211
 40
0.7049118383803898
 40
0.7105605986932729
 40
0.7161107405910669
 40
0.7215631343213207
 40
0.7340582076814576
 40
0.7463385240415693
 40
0.7580381466083836
 40
0.769673071025729
 40
0.7814251583915782
 40
0.7932946368394629
 40
0.805509361888981
 40
0.8182301986364892
 40
0.8239476388116782
 40
0.8290007765049617
 40
0.8331847005372152
 40
0.8364932275476075
 40
0.8395322882774703
 40
0.8433575365008125
 40
0.8477113561321485
 40
0.8527547398625923
 40
0.857922672673343
 40
0.8630515940483068
 40
0.8681425221572175
 40
0.8788183710193838
 40
0.8891915302800887
 40
0.8989099669816164
 40
0.9032498139999199
 40
0.9074297605442689
 40
0.9114460720586317
 40
0.9155310591528515
 40
0.9203194596437643
 40
0.9258673064321056
 40
0.9322021608634903
 40
0.9393574388247434
 40
0.9473735049593501
 40
0.9562990618032379
 40
0.9660073485843582
 40
0.9767168020923875
 40
0.9885084560182753
 40
1.0
 40
1.0
 40
1.0
 40
1.0
 10
1055.05903535775
 20
1447.420025528824
 30
0.0
 10
1055.126392975584
 20
1448.354494034122
 30
0.0
 10
1055.472458500725
 20
1453.155544671218
 30
0.0
 10
1055.821498325916
 20
1461.844790986836
 30
0.0
 10
1056.170062118724
 20
1473.452791467668
 30
0.0
 10
1056.318955423726
 20
1485.176641199146
 30
0.0
 10
1056.314949570337
 20
1497.179628235159
 30
0.0
 10
1056.149097287562
 20
1509.633621160492
 30
0.0
 10
1055.825314602424
 20
1522.237104630015
 30
0.0
 10
1055.454071551607
 20
1532.133137727433
 30
0.0
 10
1055.137058123024
 20
1539.149301685032
 30
0.0
 10
1054.927113612538
 20
1543.420215268241
 30
0.0
 10
1054.715977552814
 20
1547.403623325255
 30
0.0
 10
1054.520693043794
 20
1550.858201864297
 30
0.0
 10
1054.360949215537
 20
1553.547247718318
 30
0.0
 10
1054.225567604513
 20
1555.748549304304
 30
0.0
 10
1054.08265545106
 20
1558.005447654657
 30
0.0
 10
1053.895352275584
 20
1560.859385434104
 30
0.0
 10
1053.59941971547
 20
1565.168261478297
 30
0.0
 10
1053.187302787092
 20
1570.777315298806
 30
0.0
 10
1052.6597514358
 20
1577.380030476138
 30
0.0
 10
1052.087046362783
 20
1583.992399449855
 30
0.0
 10
1051.482766239301
 20
1590.460518319376
 30
0.0
 10
1050.448468484762
 20
1600.766512103783
 30
0.0
 10
1048.857870726184
 20
1614.681107537505
 30
0.0
 10
1046.491480147008
 20
1631.883625165967
 30
0.0
 10
1043.972062555206
 20
1647.048076870455
 30
0.0
 10
1041.397598972261
 20
1660.387325923067
 30
0.0
 10
1038.934432489914
 20
1672.238798201507
 30
0.0
 10
1036.420528309476
 20
1683.99283113946
 30
0.0
 10
1033.92194431176
 20
1695.950176515995
 30
0.0
 10
1031.942836942187
 20
1706.251249746927
 30
0.0
 10
1030.463348288536
 20
1714.949249783322
 30
0.0
 10
1029.424543603098
 20
1721.775150139409
 30
0.0
 10
1028.535397192674
 20
1728.5353801154
 30
0.0
 10
1027.83835828859
 20
1734.860550208507
 30
0.0
 10
1027.330714062839
 20
1740.470427795371
 30
0.0
 10
1026.953198678007
 20
1745.652694104568
 30
0.0
 10
1026.66222497573
 20
1750.806654225184
 30
0.0
 10
1026.413244071876
 20
1756.88219870878
 30
0.0
 10
1026.243088761568
 20
1764.071764400947
 30
0.0
 10
1026.198885799338
 20
1772.487884138871
 30
0.0
 10
1026.309914763797
 20
1781.528015198184
 30
0.0
 10
1026.576494840405
 20
1790.880975988482
 30
0.0
 10
1026.976404597684
 20
1800.218191253153
 30
0.0
 10
1027.479815437151
 20
1809.33258956796
 30
0.0
 10
1028.066943113605
 20
1818.229793978814
 30
0.0
 10
1029.194987455784
 20
1833.180626937448
 30
0.0
 10
1031.133246141507
 20
1854.074161841197
 30
0.0
 10
1034.184775117458
 20
1881.387414625992
 30
0.0
 10
1037.551890208366
 20
1908.95770022563
 30
0.0
 10
1040.879995039151
 20
1937.062442252195
 30
0.0
 10
1043.203085988377
 20
1960.375301107232
 30
0.0
 10
1044.610512622686
 20
1978.91837767347
 30
0.0
 10
1045.475142953187
 20
1992.608865453966
 30
0.0
 10
1046.412702312886
 20
2006.30183981093
 30
0.0
 10
1047.658701616827
 20
2019.925190524289
 30
0.0
 10
1049.341370587209
 20
2033.127350758672
 30
0.0
 10
1051.177847845709
 20
2046.074820722185
 30
0.0
 10
1052.95247716604
 20
2058.905405500971
 30
0.0
 10
1054.132574507277
 20
2069.312186170132
 30
0.0
 10
1054.748459689509
 20
2077.028007717556
 30
0.0
 10
1055.018186191185
 20
2081.64320753836
 30
0.0
 10
1055.165894735717
 20
2085.564150051231
 30
0.0
 10
1055.237711325952
 20
2088.901645435921
 30
0.0
 10
1055.264157497035
 20
2092.178223963173
 30
0.0
 10
1055.241137342904
 20
2095.926169165583
 30
0.0
 10
1055.136034836246
 20
2100.487969233457
 30
0.0
 10
1054.918422876341
 20
2105.657306177628
 30
0.0
 10
1054.581855567411
 20
2111.124661023578
 30
0.0
 10
1054.146826144854
 20
2116.588131040287
 30
0.0
 10
1053.632492399516
 20
2121.952722082892
 30
0.0
 10
1052.797555745523
 20
2129.516111789258
 30
0.0
 10
1051.517795003254
 20
2139.228342489371
 30
0.0
 10
1049.719547243891
 20
2150.913628806103
 30
0.0
 10
1047.803670637792
 20
2162.295220161063
 30
0.0
 10
1045.835307888535
 20
2173.486146419822
 30
0.0
 10
1043.850367954756
 20
2184.712588292582
 30
0.0
 10
1041.906539864788
 20
2196.101355306585
 30
0.0
 10
1040.077687791136
 20
2207.760126476568
 30
0.0
 10
1038.78685222754
 20
2217.405202255706
 30
0.0
 10
1037.927407076286
 20
2224.750162333371
 30
0.0
 10
1037.427139542511
 20
2229.409554044474
 30
0.0
 10
1037.040388177319
 20
2233.306715859169
 30
0.0
 10
1036.737594306789
 20
2236.570616834341
 30
0.0
 10
1036.462632092975
 20
2239.717396460681
 30
0.0
 10
1036.179863904936
 20
2243.180851474664
 30
0.0
 10
1035.874487752748
 20
2247.25443387637
 30
0.0
 10
1035.572216485692
 20
2251.731871858457
 30
0.0
 10
1035.291240451827
 20
2256.438107349321
 30
0.0
 10
1035.045443893637
 20
2261.15127801789
 30
0.0
 10
1034.757880677291
 20
2267.543830512541
 30
0.0
 10
1034.48276610595
 20
2275.53129366315
 30
0.0
 10
1034.277127415098
 20
2284.934560558465
 30
0.0
 10
1034.192903262697
 20
2292.41420920989
 30
0.0
 10
1034.166521931607
 20
2298.009267639923
 30
0.0
 10
1034.16272752852
 20
2301.860609168854
 30
0.0
 10
1034.171755536238
 20
2305.639538306928
 30
0.0
 10
1034.193709313314
 20
2309.612385181225
 30
0.0
 10
1034.232661769903
 20
2314.066141036146
 30
0.0
 10
1034.295690089795
 20
2319.22747759089
 30
0.0
 10
1034.389278449584
 20
2325.139371999167
 30
0.0
 10
1034.519896295259
 20
2331.8416493281
 30
0.0
 10
1034.693816827687
 20
2339.382393090298
 30
0.0
 10
1034.91529941331
 20
2347.760930056218
 30
0.0
 10
1035.188231527116
 20
2357.032253298365
 30
0.0
 10
1035.515716811404
 20
2367.263270230539
 30
0.0
 10
1035.884079008585
 20
2378.113021391959
 30
0.0
 10
1036.149711542772
 20
2385.590410035713
 30
0.0
 10
1036.280815867947
 20
2389.280914270102
 30
0.0
  0
LINE
  5
83
330
1F
100
AcDbEntity
  8
0
  6
Continuous
 62
     7
370
    25
100
AcDbLine
 10
1170.7871766595
 20
2390.7860142362
 30
0.0
 11
1170.7229762264
 21
2396.2031659237
 31
0.0
  0
LINE
  5
84
330
1F
100
AcDbEntity
  8
0
  6
Continuous
 62
     7
370
    25
100
AcDbLine
 10
900.741935511
 20
2393.0035324743
 30
0.0
 11
900.8061359441
 21
2387.5863807868
 31
0.0
  0
LINE
  5
85
330
1F
100
AcDbEntity
  8
0
  6
Continuous
 62
     7
370
    25
100
AcDbLine
 10
1135.5400182464
 20
2411.4335389262
 30
0.0
 11
1135.4919777911
 21
2415.4871320338
 31
0.0
  0
LINE
  5
86
330
1F
100
AcDbEntity
  8
0
  6
Continuous
 62
     7
370
    25
100
AcDbLine
 10
935.5060217056
 20
2413.1170331824
 30
0.0
 11
935.5540621608
 21
2409.0634400748
 31
0.0
  0
LINE
  5
87
330
1F
100
AcDbEntity
  8
0
  6
Continuous
 62
     7
370
    25
100
AcDbLine
 10
1014.2198530198
 20
1446.6171605019
 30
0.0
 11
1003.2835535385
 21
2369.4083371309
 31
0.0
  0
LINE
  5
88
330
1F
100
AcDbEntity
  8
0
  6
Continuous
 62
     7
370
    25
100
AcDbLine
 10
1000.2837641972
 20
2369.3727856482
 30
0.0
 11
1011.2209118442
 21
1446.5100418647
 31
0.0
  0
LWPOLYLINE
  5
89
330
1F
100
AcDbEntity
  8
0
  6
Continuous
 62
     7
370
    25
100
AcDbPolyline
 90
      184
 70
   128
 43
0.0
 10
759.2931790684
 20
1059.1419992025
 10
757.118684454
 20
1060.853988272
 10
755.2910447501
 20
1062.5818215606
 10
753.8124142531
 20
1064.3234624169
 10
752.6845358714
 20
1066.0768579139
 10
751.9087390709
 20
1067.8399412691
 10
751.4859383075
 20
1069.6106342805
 10
751.41663195
 20
1071.3868497766
 10
751.7009016919
 20
1073.1664940761
 10
752.3384124555
 20
1074.9474694563
 10
753.3284127868
 20
1076.7276766253
 10
754.6697357411
 20
1078.5050171969
 10
756.360800259
 20
1080.2773961638
 10
758.3996130292
 20
1082.0427243669
 10
760.7837708391
 20
1083.7989209583
 10
763.5104634065
 20
1085.5439158538
 10
766.5764766932
 20
1087.2756521729
 10
769.9781966926
 20
1088.9920886634
 10
773.7116136902
 20
1090.6912021076
 10
777.7723269898
 20
1092.3709897069
 10
782.1555501005
 20
1094.0294714427
 10
786.8561163793
 20
1095.6646924103
 10
791.8684851205
 20
1097.2747251234
 10
797.1867480872
 20
1098.8576717855
 10
802.8046364753
 20
1100.4116665276
 10
808.7155283026
 20
1101.9348776071
 10
814.9124562148
 20
1103.4255095671
 10
821.3881156976
 20
1104.8818053528
 10
828.1348736872
 20
1106.3020483824
 10
835.1447775674
 20
1107.6845645707
 10
842.4095645435
 20
1109.0277243023
 10
849.9206713823
 20
1110.3299443526
 10
857.6692445055
 20
1111.5896897537
 10
865.6461504257
 20
1112.805475604
 10
873.8419865126
 20
1113.9758688184
 10
882.2470920761
 20
1115.0994898176
 10
890.8515597532
 20
1116.1750141541
 10
899.6452471869
 20
1117.2011740735
 10
908.6177889807
 20
1118.1767600087
 10
917.7586089169
 20
1119.1006220059
 10
927.0569324229
 20
1119.9716710798
 10
936.5017992719
 20
1120.7888804975
 10
946.0820765018
 20
1121.5512869883
 10
955.7864715378
 20
1122.2579918799
 10
965.6035455039
 20
1122.9081621568
 10
975.5217267055
 20
1123.5010314429
 10
985.52932427
 20
1124.0359009044
 10
995.6145419269
 20
1124.5121400739
 10
1005.7654919122
 20
1124.9291875933
 10
1015.9702089814
 20
1125.2865518755
 10
1026.216664513
 20
1125.5838116839
 10
1036.4927806869
 20
1125.8206166291
 10
1046.7864447212
 20
1125.9966875817
 10
1057.0855231498
 20
1126.1118170011
 10
1067.3778761245
 20
1126.1658691808
 10
1077.6513717244
 20
1126.1587804078
 10
1087.8939002566
 20
1126.0905590378
 10
1098.09338853
 20
1125.9612854854
 10
1108.2378140864
 20
1125.7711121296
 10
1118.3152193718
 20
1125.5202631336
 10
1128.3137258309
 20
1125.209034181
 10
1138.2215479093
 20
1124.8377921273
 10
1148.0270069448
 20
1124.406974567
 10
1157.7185449339
 20
1123.9170893186
 10
1167.2847381554
 20
1123.368713825
 10
1176.7143106359
 20
1122.7624944739
 10
1185.9961474413
 20
1122.099145835
 10
1195.119307778
 20
1121.3794498183
 10
1204.0730378895
 20
1120.6042547522
 10
1212.8467837319
 20
1119.7744743835
 10
1221.4302034147
 20
1118.8910868005
 10
1229.8131793905
 20
1117.95513328
 10
1237.9858303815
 20
1116.9677170598
 10
1245.9385230264
 20
1115.9300020386
 10
1253.6618832358
 20
1114.8432114038
 10
1261.1468072416
 20
1113.7086261897
 10
1268.3844723282
 20
1112.5275837678
 10
1275.3663472316
 20
1111.3014762698
 10
1282.0842021958
 20
1110.0317489473
 10
1288.5301186736
 20
1108.719898468
 10
1294.6964986602
 20
1107.3674711513
 10
1300.576073649
 20
1105.9760611459
 10
1306.1619131998
 20
1104.5473085507
 10
1311.4474331076
 20
1103.0828974814
 10
1316.4264031634
 20
1101.5845540853
 10
1321.0929544985
 20
1100.0540445072
 10
1325.4415865016
 20
1098.4931728067
 10
1329.4671733033
 20
1096.9037788327
 10
1333.1649698174
 20
1095.2877360539
 10
1336.5306173349
 20
1093.6469493508
 10
1339.5601486608
 20
1091.9833527703
 10
1342.2499927911
 20
1090.2989072463
 10
1344.5969791219
 20
1088.5955982877
 10
1346.5983411864
 20
1086.8754336384
 10
1348.251719916
 20
1085.1404409108
 10
1349.5551664211
 20
1083.3926651954
 10
1350.5071442884
 20
1081.6341666505
 10
1351.1065313914
 20
1079.8670180738
 10
1351.3526212137
 20
1078.0933024589
 10
1351.2451236815
 20
1076.3151105405
 10
1350.7841655055
 20
1074.5345383292
 10
1349.9702900317
 20
1072.7536846417
 10
1348.8044566006
 20
1070.9746486264
 10
1347.288039417
 20
1069.199527289
 10
1345.4228259295
 20
1067.430413021
 10
1343.211014724
 20
1065.6693911331
 10
1340.6552129321
 20
1063.9185373973
 10
1337.7584331578
 20
1062.1799156001
 10
1334.5240899269
 20
1060.4555751098
 10
1330.9559956615
 20
1058.7475484608
 10
1327.0583561868
 20
1057.0578489579
 10
1322.8357657733
 20
1055.3884683033
 10
1318.2932017213
 20
1053.7413742485
 10
1313.4360184942
 20
1052.1185082751
 10
1308.2699414069
 20
1050.5217833065
 10
1302.8010598773
 20
1048.9530814525
 10
1297.0358202483
 20
1047.4142517917
 10
1290.9810181896
 20
1045.9071081908
 10
1284.643790687
 20
1044.4334271677
 10
1278.0316076305
 20
1042.9949457965
 10
1271.1522630084
 20
1041.5933596607
 10
1264.013865721
 20
1040.2303208538
 10
1256.6248300222
 20
1038.9074360327
 10
1248.9938656011
 20
1037.6262645235
 10
1241.1299673159
 20
1036.3883164833
 10
1233.0424045914
 20
1035.1950511206
 10
1224.7407104925
 20
1034.0478749747
 10
1216.2346704877
 20
1032.9481402584
 10
1207.5343109144
 20
1031.8971432636
 10
1198.6498871604
 20
1030.8961228337
 10
1189.591871576
 20
1029.9462589028
 10
1180.3709411297
 20
1029.0486711057
 10
1170.9979648226
 20
1028.2044174572
 10
1161.4839908772
 20
1027.4144931058
 10
1151.8402337145
 20
1026.6798291601
 10
1142.0780607349
 20
1026.0012915918
 10
1132.2089789192
 20
1025.3796802145
 10
1122.2446212652
 20
1024.815727741
 10
1112.1967330751
 20
1024.3100989199
 10
1102.0771581114
 20
1023.8633897518
 10
1091.897824636
 20
1023.4761267869
 10
1081.6707313499
 20
1023.1487665044
 10
1071.4079332504
 20
1022.8816947739
 10
1061.1215274207
 20
1022.6752264014
 10
1050.8236387717
 20
1022.5296047578
 10
1040.5264057492
 20
1022.4450014917
 10
1030.2419660261
 20
1022.4215163278
 10
1019.9824421957
 20
1022.4591769487
 10
1009.7599274818
 20
1022.5579389627
 10
999.5864714848
 20
1022.7176859558
 10
989.4740659778
 20
1022.9382296294
 10
979.4346307717
 20
1023.2193100215
 10
969.4799996652
 20
1023.5605958139
 10
959.6219064957
 20
1023.9616847223
 10
949.871971308
 20
1024.4221039704
 10
940.2416866582
 20
1024.9413108478
 10
930.7424040661
 20
1025.5186933487
 10
921.3853206354
 20
1026.1535708944
 10
912.1814658553
 20
1026.8451951346
 10
903.1416885992
 20
1027.5927508301
 10
894.2766443376
 20
1028.3953568133
 10
885.5967825775
 20
1029.2520670274
 10
877.1123345453
 20
1030.1618716409
 10
868.8333011273
 20
1031.1236982386
 10
860.7694410811
 20
1032.1364130852
 10
852.9302595326
 20
1033.1988224616
 10
845.324996772
 20
1034.3096740726
 10
837.9626173623
 20
1035.4676585223
 10
830.851799572
 20
1036.671410858
 10
824.0009251461
 20
1037.9195121788
 10
817.4180694262
 20
1039.2104913084
 10
811.1109918317
 20
1040.5428265291
 10
805.0871267137
 20
1041.9149473753
 10
799.3535745918
 20
1043.3252364849
 10
793.9170937845
 20
1044.7720315057
 10
788.7840924432
 20
1046.2536270549
 10
783.9606209982
 20
1047.7682767292
 10
779.4523650272
 20
1049.3141951631
 10
775.2646385537
 20
1050.8895601339
 10
771.4023777828
 20
1052.4925147094
 10
767.870135283
 20
1054.1211694364
 10
764.6720746197
 20
1055.7736045683
 10
761.8119654479
 20
1057.4478723277
 10
759.2931790684
 20
1059.1419992025
  0
LWPOLYLINE
  5
8A
330
1F
100
AcDbEntity
  8
0
  6
Continuous
 62
     7
370
    25
100
AcDbPolyline
 90
      183
 70
   128
 43
0.0
 10
764.2152143007
 20
1059.3973592207
 10
762.0665561379
 20
1061.0897919541
 10
760.2626780976
 20
1062.7979624683
 10
758.8057298953
 20
1064.5198351042
 10
757.6974478038
 20
1066.2533578737
 10
756.9391525837
 20
1067.9964649048
 10
756.5317479098
 20
1069.7470789041
 10
756.4757192939
 20
1071.5031136316
 10
756.7711335065
 20
1073.2624763877
 10
757.4176384967
 20
1075.0230705065
 10
758.4144638125
 20
1076.7827978547
 10
759.7604215181
 20
1078.539561332
 10
761.4539076104
 20
1080.2912673701
 10
763.4929039301
 20
1082.0358284279
 10
765.8749805666
 20
1083.7711654789
 10
768.5972987542
 20
1085.4952104893
 10
771.6566142549
 20
1087.205908882
 10
775.0492812246
 20
1088.9012219853
 10
778.7712565579
 20
1090.5791294627
 10
782.8181047065
 20
1092.2376317201
 10
787.185002965
 20
1093.8747522889
 10
791.8667472183
 20
1095.4885401818
 10
796.8577581431
 20
1097.0770722171
 10
802.1520878575
 20
1098.6384553112
 10
807.7434270087
 20
1100.1708287344
 10
813.6251122922
 20
1101.6723663282
 10
819.7901343924
 20
1103.1412786821
 10
826.2311463361
 20
1104.5758152652
 10
832.9404722475
 20
1105.9742665134
 10
839.9101164962
 20
1107.3349658658
 10
847.1317732255
 20
1108.6562917514
 10
854.5968362504
 20
1109.9366695209
 10
862.2964093144
 20
1111.1745733242
 10
870.2213166907
 20
1112.3685279277
 10
878.3621141175
 20
1113.5171104733
 10
886.7091000525
 20
1114.6189521735
 10
895.252327235
 20
1115.6727399426
 10
903.9816145396
 20
1116.6772179619
 10
912.8865591097
 20
1117.6311891759
 10
921.9565487545
 20
1118.533516719
 10
931.1807745961
 20
1119.3831252706
 10
940.5482439501
 20
1120.179002336
 10
950.0477934262
 20
1120.9201994536
 10
959.668102232
 20
1121.6058333246
 10
969.3977056635
 20
1122.2350868663
 10
979.2250087684
 20
1122.8072101853
 10
989.138300164
 20
1123.3215214714
 10
999.1257659936
 20
1123.7774078102
 10
1009.1755040054
 20
1124.1743259133
 10
1019.2755377366
 20
1124.5118027659
 10
1029.4138307862
 20
1124.7894361904
 10
1039.5783011588
 20
1125.0068953259
 10
1049.756835663
 20
1125.1639210222
 10
1059.9373043468
 20
1125.2603261487
 10
1070.1075749534
 20
1125.2959958178
 10
1080.2555273789
 20
1125.2708875211
 10
1090.3690681169
 20
1125.1850311808
 10
1100.4361446695
 20
1125.0385291133
 10
1110.4447599116
 20
1124.8315559081
 10
1120.382986387
 20
1124.564358219
 10
1130.2389805236
 20
1124.2372544705
 10
1140.0009967469
 20
1123.8506344783
 10
1149.6574014776
 20
1123.4049589848
 10
1159.1966869958
 20
1122.9007591099
 10
1168.6074851546
 20
1122.3386357182
 10
1177.878580928
 20
1121.7192587026
 10
1186.998925776
 20
1121.0433661865
 10
1195.9576508113
 20
1120.3117636438
 10
1204.7440797519
 20
1119.5253229391
 10
1213.3477416445
 20
1118.6849812885
 10
1221.7583833425
 20
1117.7917401431
 10
1229.9659817253
 20
1116.8466639953
 10
1237.9607556428
 20
1115.8508791102
 10
1245.7331775718
 20
1114.8055721835
 10
1253.2739849703
 20
1113.7119889271
 10
1260.5741913156
 20
1112.5714325849
 10
1267.6250968138
 20
1111.3852623794
 10
1274.4182987676
 20
1110.1548918921
 10
1280.9457015898
 20
1108.8817873788
 10
1287.1995264511
 20
1107.5674660222
 10
1293.1723205504
 20
1106.2134941238
 10
1298.8569659958
 20
1104.8214852375
 10
1304.2466882882
 20
1103.3930982468
 10
1309.3350643935
 20
1101.9300353872
 10
1314.1160303977
 20
1100.4340402185
 10
1318.5838887335
 20
1098.9068955464
 10
1322.7333149694
 20
1097.3504212981
 10
1326.559364156
 20
1095.7664723533
 10
1330.057476718
 20
1094.156936334
 10
1333.2234838886
 20
1092.5237313546
 10
1336.0536126772
 20
1090.8688037363
 10
1338.5444903659
 20
1089.1941256877
 10
1340.6931485287
 20
1087.5016929542
 10
1342.497026569
 20
1085.79352244
 10
1343.9539747713
 20
1084.0716498041
 10
1345.0622568628
 20
1082.3381270347
 10
1345.8205520829
 20
1080.5950200035
 10
1346.2279567568
 20
1078.8444060043
 10
1346.2839853726
 20
1077.0883712767
 10
1345.9885711601
 20
1075.3290085207
 10
1345.3420661699
 20
1073.5684144019
 10
1344.3452408541
 20
1071.8086870537
 10
1342.9992831485
 20
1070.0519235764
 10
1341.3057970562
 20
1068.3002175383
 10
1339.2668007365
 20
1066.5556564805
 10
1336.8847241
 20
1064.8203194294
 10
1334.1624059124
 20
1063.0962744191
 10
1331.1030904117
 20
1061.3855760264
 10
1327.710423442
 20
1059.690262923
 10
1323.9884481087
 20
1058.0123554456
 10
1319.9415999601
 20
1056.3538531883
 10
1315.5747017015
 20
1054.7167326194
 10
1310.8929574483
 20
1053.1029447265
 10
1305.9019465235
 20
1051.5144126912
 10
1300.6076168091
 20
1049.9530295971
 10
1295.0162776578
 20
1048.420656174
 10
1289.1345923744
 20
1046.9191185801
 10
1282.9695702741
 20
1045.4502062263
 10
1276.5285583305
 20
1044.0156696431
 10
1269.8192324191
 20
1042.6172183949
 10
1262.8495881704
 20
1041.2565190425
 10
1255.6279314411
 20
1039.935193157
 10
1248.1628684162
 20
1038.6548153874
 10
1240.4632953522
 20
1037.4169115842
 10
1232.5383879759
 20
1036.2229569806
 10
1224.3975905491
 20
1035.074374435
 10
1216.0506046141
 20
1033.9725327348
 10
1207.5073774316
 20
1032.9187449657
 10
1198.778090127
 20
1031.9142669465
 10
1189.8731455569
 20
1030.9602957325
 10
1180.8031559121
 20
1030.0579681893
 10
1171.5789300705
 20
1029.2083596377
 10
1162.2114607165
 20
1028.4124825723
 10
1152.7119112403
 20
1027.6712854548
 10
1143.0916024346
 20
1026.9856515837
 10
1133.3619990031
 20
1026.3563980421
 10
1123.5346958981
 20
1025.7842747231
 10
1113.6214045025
 20
1025.269963437
 10
1103.633938673
 20
1024.8140770982
 10
1093.5842006612
 20
1024.4171589951
 10
1083.48416693
 20
1024.0796821425
 10
1073.3458738804
 20
1023.802048718
 10
1063.1814035078
 20
1023.5845895825
 10
1053.0028690036
 20
1023.4275638862
 10
1042.8224003198
 20
1023.3311587596
 10
1032.6521297132
 20
1023.2954890905
 10
1022.5041772877
 20
1023.3205973872
 10
1012.3906365497
 20
1023.4064537276
 10
1002.3235599971
 20
1023.552955795
 10
992.314944755
 20
1023.7599290002
 10
982.3767182796
 20
1024.0271266894
 10
972.5207241429
 20
1024.3542304379
 10
962.7587079197
 20
1024.7408504301
 10
953.1023031889
 20
1025.1865259235
 10
943.5630176708
 20
1025.6907257984
 10
934.152219512
 20
1026.2528491902
 10
924.8811237385
 20
1026.8722262057
 10
915.7607788905
 20
1027.5481187218
 10
906.8020538553
 20
1028.2797212645
 10
898.0156249147
 20
1029.0661619693
 10
889.4119630221
 20
1029.9065036199
 10
881.0013213241
 20
1030.7997447652
 10
872.7937229413
 20
1031.744820913
 10
864.7989490238
 20
1032.7406057981
 10
857.0265270948
 20
1033.7859127249
 10
849.4857196962
 20
1034.8794959813
 10
842.185513351
 20
1036.0200523235
 10
835.1346078528
 20
1037.2062225289
 10
828.341405899
 20
1038.4365930162
 10
821.8140030768
 20
1039.7096975295
 10
815.5601782154
 20
1041.0240188862
 10
809.5873841162
 20
1042.3779907846
 10
803.9027386708
 20
1043.7699996708
 10
798.5130163784
 20
1045.1983866616
 10
793.4246402731
 20
1046.6614495211
 10
788.6436742689
 20
1048.1574446898
 10
784.1758159331
 20
1049.6845893619
 10
780.0263896972
 20
1051.2410636102
 10
776.2003405106
 20
1052.825012555
 10
772.7022279486
 20
1054.4345485743
 10
769.536220778
 20
1056.0677535538
 10
766.7060919894
 20
1057.7226811721
 10
764.2152143007
 20
1059.3973592207
  0
LWPOLYLINE
  5
8B
330
1F
100
AcDbEntity
  8
0
  6
Continuous
 62
     7
370
    25
100
AcDbPolyline
 90
       84
 70
   128
 43
0.0
 10
797.5590859917
 20
1402.4153208475
 10
797.6264552428
 20
1402.8198533161
 10
798.1178781189
 20
1404.4460288008
 10
798.9622302789
 20
1406.0719261593
 10
800.1583166368
 20
1407.6952441156
 10
801.704444266
 20
1409.3136850448
 10
803.5984247957
 20
1410.9249582246
 10
805.8375775084
 20
1412.5267830781
 10
808.4187331337
 20
1414.1168924012
 10
811.3382383346
 20
1415.6930355722
 10
814.5919608777
 20
1417.2529817365
 10
818.1752954829
 20
1418.7945229648
 10
822.0831703405
 20
1420.3154773778
 10
826.3100542908
 20
1421.8136922348
 10
830.8499646522
 20
1423.28704698
 10
835.6964756892
 20
1424.7334562447
 10
840.8427277074
 20
1426.1508727982
 10
846.2814367626
 20
1427.5372904458
 10
852.0049049703
 20
1428.8907468686
 10
858.0050314013
 20
1430.2093264002
 10
864.2733235474
 20
1431.4911627387
 10
870.8009093423
 20
1432.7344415882
 10
877.5785497181
 20
1433.9374032265
 10
884.5966516827
 20
1435.0983449959
 10
891.8452818977
 20
1436.2156237132
 10
899.3141807374
 20
1437.2876579952
 10
906.992776811
 20
1438.3129304973
 10
914.8702019241
 20
1439.289990061
 10
922.9353064626
 20
1440.2174537677
 10
931.1766751727
 20
1441.0940088962
 10
939.5826433187
 20
1441.9184147808
 10
948.1413131926
 20
1442.689504567
 10
956.8405709543
 20
1443.4061868637
 10
965.6681037772
 20
1444.067447287
 10
974.6114172757
 20
1444.6723498969
 10
983.6578531898
 20
1445.2200385213
 10
992.7946073008
 20
1445.7097379682
 10
1002.0087475552
 20
1446.1407551228
 10
1011.2872323677
 20
1446.5124799285
 10
1020.6169290806
 20
1446.8243862505
 10
1029.9846325516
 20
1447.0760326202
 10
1039.3770838439
 20
1447.2670628603
 10
1048.780988993
 20
1447.3972065888
 10
1058.1830378228
 20
1447.466279602
 10
1067.5699227844
 20
1447.4741841346
 10
1076.928357792
 20
1447.4209089986
 10
1086.2450970273
 20
1447.3065295992
 10
1095.5069536876
 20
1447.1312078274
 10
1104.7008186507
 20
1446.8951918317
 10
1113.8136790288
 20
1446.5988156664
 10
1122.832636587
 20
1446.2424988187
 10
1131.7449259995
 20
1445.8267456153
 10
1140.5379329171
 20
1445.3521445084
 10
1149.1992118219
 20
1444.8193672427
 10
1157.7165036422
 20
1444.229167905
 10
1166.0777531037
 20
1443.5823818563
 10
1174.2711257929
 20
1442.87992455
 10
1182.285024907
 20
1442.1227902359
 10
1190.1081076679
 20
1441.3120505529
 10
1197.7293013767
 20
1440.4488530124
 10
1205.137819086
 20
1439.534419374
 10
1212.3231748675
 20
1438.5700439161
 10
1219.2751986535
 20
1437.5570916046
 10
1225.9840506318
 20
1436.49699616
 10
1232.4402351725
 20
1435.3912580289
 10
1238.6346142685
 20
1434.2414422601
 10
1244.5584204688
 20
1433.0491762891
 10
1250.2032692881
 20
1431.8161476351
 10
1255.5611710743
 20
1430.5441015123
 10
1260.6245423163
 20
1429.2348383597
 10
1265.3862163786
 20
1427.8902112929
 10
1269.8394536438
 20
1426.5121234812
 10
1273.9779510527
 20
1425.1025254538
 10
1277.7958510249
 20
1423.663412339
 10
1281.28774975
 20
1422.1968210405
 10
1284.4487048357
 20
1420.7048273543
 10
1287.2742423037
 20
1419.1895430307
 10
1289.7603629216
 20
1417.6531127851
 10
1291.9035478637
 20
1416.0977112628
 10
1293.7007636913
 20
1414.5255399606
 10
1295.1494666465
 20
1412.9388241112
 10
1296.2476062521
 20
1411.3398095336
 10
1296.9936282145
 20
1409.730759454
 10
1297.3531161572
 20
1408.3385430578
  0
ARC
  5
8C
330
1F
100
AcDbEntity
  8
0
  6
Continuous
 62
     7
370
    25
100
AcDbCircle
 10
955.4439795997
 20
2400.0984615104
 30
0.0
 40
3.30799707811553
100
AcDbArc
 50
63.7139695373
 51
117.644028861
  0
ARC
  5
8D
330
1F
100
AcDbEntity
  8
0
  6
Continuous
 62
     7
370
    25
100
AcDbCircle
 10
1150.2322095566
 20
2392.1732576022
 30
0.0
 40
3.307997078114216
100
AcDbArc
 50
63.7139695372
 51
117.6440288611
  0
SPLINE
  5
8E
330
1F
100
AcDbEntity
  8
0
  6
Continuous
 62
     7
370
    25
100
AcDbSpline
210
0.0
220
0.0
230
1.0
 70
     8
 71
     3
 72
    17
 73
    13
 74
     0
 42
0.00000001
 43
0.00000001
 40
0.0
 40
0.0
 40
0.0
 40
0.0
 40
0.0948119942798681
 40
0.2029783458172819
 40
0.3233835685759457
 40
0.4523035254629086
 40
0.5802966630798689
 40
0.6967535653467607
 40
0.7981074696687502
 40
0.8895982574791644
 40
0.9793997845533028
 40
1.0
 40
1.0
 40
1.0
 40
1.0
 10
1036.27846118154
 20
2389.280941208125
 30
0.0
 10
1036.265033908478
 20
2389.304769897608
 30
0.0
 10
1036.236288118498
 20
2389.35578356957
 30
0.0
 10
1036.012611093933
 20
2389.427296615329
 30
0.0
 10
1035.647116339093
 20
2389.489140101602
 30
0.0
 10
1035.148701136131
 20
2389.528556360227
 30
0.0
 10
1034.595151066756
 20
2389.535171425533
 30
0.0
 10
1034.092658535499
 20
2389.507624819024
 30
0.0
 10
1033.71732889577
 20
2389.455832791592
 30
0.0
 10
1033.498850203132
 20
2389.39205175419
 30
0.0
 10
1033.407113131624
 20
2389.340443063257
 30
0.0
 10
1033.423087955318
 20
2389.312838184956
 30
0.0
 10
1033.426068748939
 20
2389.307687302122
 30
0.0
  0
LWPOLYLINE
  5
8F
330
1F
100
AcDbEntity
  8
0
  6
Continuous
 62
     7
370
    25
100
AcDbPolyline
 90
       78
 70
   128
 43
0.0
 10
904.3576533326
 20
2382.3670130483
 10
902.9583781858
 20
2383.5158544974
 10
901.9056629393
 20
2384.679489224
 10
901.2022540071
 20
2385.854881438
 10
900.8499865026
 20
2387.0389646753
 10
900.8497794517
 20
2388.2286497978
 10
901.2016333944
 20
2389.420833053
 10
901.9046303841
 20
2390.6124041709
 10
902.9569363817
 20
2391.8002544784
 10
904.3558060413
 20
2392.9812850098
 10
906.0975898714
 20
2394.1524145912
 10
908.177743757
 20
2395.3105878793
 10
910.5908408141
 20
2396.4527833322
 10
913.330585548
 20
2397.5760210924
 10
916.3898302775
 20
2398.6773707608
 10
919.7605937825
 20
2399.7539590419
 10
923.4340821257
 20
2400.8029772397
 10
927.4007115955
 20
2401.8216885856
 10
931.6501337087
 20
2402.807435378
 10
936.1712622079
 20
2403.7576459161
 10
940.9523019853
 20
2404.669841209
 10
945.9807798539
 20
2405.5416414435
 10
951.2435770892
 20
2406.3707721921
 10
956.7269636539
 20
2407.1550703475
 10
962.4166340188
 20
2407.8924897653
 10
968.2977444833
 20
2408.5811066025
 10
974.3549519018
 20
2409.2191243364
 10
980.5724537119
 20
2409.8048784515
 10
986.934029161
 20
2410.3368407822
 10
993.4230816253
 20
2410.8136234996
 10
1000.0226819078
 20
2411.233982732
 10
1006.7156124049
 20
2411.5968218102
 10
1013.484412025
 20
2411.9011941283
 10
1020.3114217429
 20
2412.1463056138
 10
1027.1788306697
 20
2412.3315167989
 10
1034.0687225196
 20
2412.4563444886
 10
1040.9631223514
 20
2412.5204630218
 10
1047.8440434633
 20
2412.5237051205
 10
1054.6935343175
 20
2412.4660623266
 10
1061.4937253746
 20
2412.3476850234
 10
1068.2268757126
 20
2412.1688820438
 10
1074.875419311
 20
2411.9301198644
 10
1081.4220108786
 20
2411.6320213885
 10
1087.8495711056
 20
2411.2753643209
 10
1094.1413312211
 20
2410.8610791392
 10
1100.2808767415
 20
2410.3902466661
 10
1106.2521902935
 20
2409.8640952498
 10
1112.0396934018
 20
2409.2839975593
 10
1117.6282871317
 20
2408.6514670032
 10
1123.0033914801
 20
2407.9681537816
 10
1128.1509834135
 20
2407.2358405805
 10
1133.0576334524
 20
2406.4564379215
 10
1137.710540707
 20
2405.6319791772
 10
1142.0975662736
 20
2404.7646152662
 10
1146.2072649033
 20
2403.8566090421
 10
1150.0289148617
 20
2402.9103293893
 10
1153.5525459004
 20
2401.9282450435
 10
1156.7689652683
 20
2400.9129181505
 10
1159.6697816945
 20
2399.8669975823
 10
1162.2474272803
 20
2398.7932120263
 10
1164.4951772425
 20
2397.6943628663
 10
1166.4071674582
 20
2396.5733168743
 10
1167.9784097631
 20
2395.4329987314
 10
1169.2048049656
 20
2394.2763833973
 10
1170.0831535406
 20
2393.1064883494
 10
1170.6111639769
 20
2391.9263657104
 10
1170.7874587556
 20
2390.7390942854
 10
1170.6115779437
 20
2389.54777153
 10
1170.0839803943
 20
2388.3555054693
 10
1169.2060425489
 20
2387.1654065893
 10
1167.9800548474
 20
2385.980579722
 10
1166.4092157515
 20
2384.8041159456
 10
1164.4976234012
 20
2383.6390845196
 10
1162.2502649226
 20
2382.4885248781
 10
1159.6730034174
 20
2381.3554386997
 10
1156.7725626665
 20
2380.242782077
 10
1153.5565095888
 20
2379.153457804
 10
1151.8927426507
 20
2378.6365654839
  0
LWPOLYLINE
  5
90
330
1F
100
AcDbEntity
  8
0
  6
Continuous
 62
     7
370
    25
100
AcDbPolyline
 90
       21
 70
   128
 43
0.0
 10
1148.9027692526
 20
2377.7727570811
 10
1146.2119292211
 20
2377.0561057121
 10
1142.1025631027
 20
2376.0535496453
 10
1137.7158570112
 20
2375.0852551573
 10
1133.0632553621
 20
2374.153748418
 10
1128.1568962618
 20
2373.2614596219
 10
1123.009579841
 20
2372.4107166487
 10
1117.6347348605
 20
2371.6037389897
 10
1112.0463836771
 20
2370.8426319574
 10
1106.2591056612
 20
2370.1293811932
 10
1100.2879991601
 20
2369.4658474869
 10
1094.1486421091
 20
2368.8537619222
 10
1087.8570513896
 20
2368.2947213604
 10
1081.4296410436
 20
2367.7901842745
 10
1074.8831794506
 20
2367.3414669443
 10
1068.2347455816
 20
2366.9497400218
 10
1061.5016844413
 20
2366.616025478
 10
1054.7015618177
 20
2366.3411939361
 10
1047.852118454
 20
2366.1259624
 10
1040.9712237661
 20
2365.9708923844
 10
1035.4762169738
 20
2365.8906545885
  0
LWPOLYLINE
  5
91
330
1F
100
AcDbEntity
  8
0
  6
Continuous
 62
     7
370
    25
100
AcDbPolyline
 90
        6
 70
   128
 43
0.0
 10
1032.6093832083
 20
2365.8641178678
 10
1027.1869215114
 20
2365.8426971443
 10
1020.3194756153
 20
2365.8699063666
 10
1013.4924079164
 20
2365.9579451302
 10
1006.7235294549
 20
2366.1065837522
 10
1003.3215183276
 20
2366.2049160373
  0
LWPOLYLINE
  5
92
330
1F
100
AcDbEntity
  8
0
  6
Continuous
 62
     7
370
    25
100
AcDbPolyline
 90
        9
 70
   128
 43
0.0
 10
1000.3201204201
 20
2366.3050933527
 10
1000.0304994619
 20
2366.3154344512
 10
993.4307792883
 20
2366.5839523597
 10
986.9415868506
 20
2366.9114369452
 10
980.5798517108
 20
2367.2970338376
 10
974.3621709097
 20
2367.7397370588
 10
968.3047656665
 20
2368.2383916466
 10
962.4234390598
 20
2368.7916966681
 10
957.3086904599
 20
2369.3335066384
  0
LWPOLYLINE
  5
93
330
1F
100
AcDbEntity
  8
0
  6
Continuous
 62
     7
370
    25
100
AcDbPolyline
 90
       15
 70
   128
 43
0.0
 10
954.3043692737
 20
2369.6803465191
 10
951.2498971954
 20
2370.056345163
 10
945.9868324327
 20
2370.7643893129
 10
940.958071246
 20
2371.5204938569
 10
936.1767330993
 20
2372.3226862048
 10
931.6552919577
 20
2373.1688735282
 10
927.4055437451
 20
2374.056848221
 10
923.4385755691
 20
2374.9842936587
 10
919.7647367969
 20
2375.948790242
 10
916.3936120544
 20
2376.9478217094
 10
913.333996221
 20
2377.9787817019
 10
910.5938714852
 20
2379.0389805627
 10
908.1803865195
 20
2380.1256523538
 10
906.0998378306
 20
2381.2359620728
 10
904.3576533326
 20
2382.3670130483
  0
ARC
  5
94
330
1F
100
AcDbEntity
  8
0
  6
Continuous
 62
     7
370
    25
100
AcDbCircle
 10
1001.8185984272
 20
2366.4424053733
 30
0.0
 40
3.307997078114936
100
AcDbArc
 50
63.7139695373
 51
117.6440288611
  0
LWPOLYLINE
  5
95
330
1F
100
AcDbEntity
  8
0
  6
Continuous
 62
     7
370
    25
100
AcDbPolyline
 90
       63
 70
   128
 43
0.0
 10
900.741935511
 20
2393.0035324743
 10
900.7855790186
 20
2393.6458014853
 10
901.1374329613
 20
2394.8379847405
 10
901.840429951
 20
2396.0295558584
 10
902.8927359487
 20
2397.2174061659
 10
904.2916056082
 20
2398.3984366973
 10
906.0333894383
 20
2399.5695662787
 10
908.1135433239
 20
2400.7277395668
 10
910.526640381
 20
2401.8699350197
 10
913.2663851149
 20
2402.9931727799
 10
916.3256298444
 20
2404.0945224483
 10
919.6963933494
 20
2405.1711107294
 10
923.3698816926
 20
2406.2201289272
 10
927.3365111625
 20
2407.2388402731
 10
931.5859332756
 20
2408.2245870655
 10
936.1070617748
 20
2409.1747976036
 10
940.8881015522
 20
2410.0869928965
 10
945.9165794209
 20
2410.958793131
 10
951.1793766561
 20
2411.7879238796
 10
956.6627632208
 20
2412.572222035
 10
962.3524335857
 20
2413.3096414528
 10
968.2335440502
 20
2413.99825829
 10
974.2907514688
 20
2414.6362760239
 10
980.5082532788
 20
2415.222030139
 10
986.8698287279
 20
2415.7539924698
 10
993.3588811922
 20
2416.2307751871
 10
999.9584814747
 20
2416.6511344195
 10
1006.6514119718
 20
2417.0139734977
 10
1013.4202115919
 20
2417.3183458158
 10
1020.2472213098
 20
2417.5634573013
 10
1027.1146302366
 20
2417.7486684864
 10
1034.0045220865
 20
2417.8734961761
 10
1040.8989219184
 20
2417.9376147093
 10
1047.7798430302
 20
2417.940856808
 10
1054.6293338844
 20
2417.8832140141
 10
1061.4295249416
 20
2417.7648367109
 10
1068.1626752795
 20
2417.5860337313
 10
1074.8112188779
 20
2417.3472715519
 10
1081.3578104455
 20
2417.049173076
 10
1087.7853706725
 20
2416.6925160084
 10
1094.0771307881
 20
2416.2782308267
 10
1100.2166763085
 20
2415.8073983536
 10
1106.1879898604
 20
2415.2812469373
 10
1111.9754929687
 20
2414.7011492468
 10
1117.5640866986
 20
2414.0686186907
 10
1122.939191047
 20
2413.3853054691
 10
1128.0867829804
 20
2412.652992268
 10
1132.9934330193
 20
2411.873589609
 10
1137.6463402739
 20
2411.0491308647
 10
1142.0333658405
 20
2410.1817669537
 10
1146.1430644702
 20
2409.2737607296
 10
1149.9647144286
 20
2408.3274810769
 10
1153.4883454673
 20
2407.345396731
 10
1156.7047648352
 20
2406.330069838
 10
1159.6055812615
 20
2405.2841492698
 10
1162.1832268472
 20
2404.2103637138
 10
1164.4309768094
 20
2403.1115145538
 10
1166.3429670251
 20
2401.9904685618
 10
1167.91420933
 20
2400.8501504189
 10
1169.1406045325
 20
2399.6935350848
 10
1170.0189531075
 20
2398.5236400369
 10
1170.5469635438
 20
2397.3435173979
 10
1170.7229762264
 20
2396.2031659237
  0
LWPOLYLINE
  5
96
330
1F
100
AcDbEntity
  8
0
  6
Continuous
 62
     7
370
    25
100
AcDbPolyline
 90
       55
 70
   128
 43
0.0
 10
935.5060217056
 20
2413.1170331824
 10
935.5084035551
 20
2413.2765361683
 10
935.7266559615
 20
2414.3008961053
 10
936.2953623643
 20
2415.32526021
 10
937.2125251614
 20
2416.3460303659
 10
938.4749227852
 20
2417.3596210809
 10
940.0781210179
 20
2418.3624720804
 10
942.0164885673
 20
2419.3510608138
 10
944.2832168467
 20
2420.3219148271
 10
946.8703438902
 20
2421.2716239603
 10
949.7687823199
 20
2422.1968523252
 10
952.968351265
 20
2423.0943500235
 10
956.4578121228
 20
2423.9609645619
 10
960.224908035
 20
2424.7936519252
 10
964.2564069396
 20
2425.5894872686
 10
968.5381480498
 20
2426.3456751914
 10
973.0550915938
 20
2427.0595595561
 10
977.7913716425
 20
2427.7286328177
 10
982.7303518397
 20
2428.350544832
 10
987.8546838371
 20
2428.9231111104
 10
993.1463682319
 20
2429.4443204929
 10
998.5868177895
 20
2429.9123422126
 10
1004.1569227325
 20
2430.3255323261
 10
1009.8371178641
 20
2430.682439488
 10
1015.6074512918
 20
2430.9818100491
 10
1021.4476545088
 20
2431.2225924591
 10
1027.3372135885
 20
2431.4039409612
 10
1033.2554412398
 20
2431.5252185621
 10
1039.1815494721
 20
2431.5859992697
 10
1045.0947226142
 20
2431.5860695898
 10
1050.9741904298
 20
2431.5254292752
 10
1056.7993010737
 20
2431.4042913273
 10
1062.5495936324
 20
2431.2230812475
 10
1068.2048699935
 20
2430.9824355429
 10
1073.7452657925
 20
2430.6831994902
 10
1079.1513201871
 20
2430.326424167
 10
1084.4040442141
 20
2429.9133627597
 10
1089.4849874889
 20
2429.4454661615
 10
1094.3763030127
 20
2428.9243778762
 10
1099.0608098615
 20
2428.3519282456
 10
1103.5220535341
 20
2427.7301280197
 10
1107.7443637493
 20
2427.0611612945
 10
1111.7129094886
 20
2426.3473778402
 10
1115.4137510904
 20
2425.591284847
 10
1118.8338892134
 20
2424.7955381192
 10
1121.9613104979
 20
2423.9629327462
 10
1124.7850297624
 20
2423.0963932848
 10
1127.2951285902
 20
2422.1989634864
 10
1129.4827901675
 20
2421.2737956059
 10
1131.3403302532
 20
2420.3241393292
 10
1132.86122417
 20
2419.3533303587
 10
1134.0401297226
 20
2418.3647786962
 10
1134.8729059623
 20
2417.3619566655
 10
1135.3566277321
 20
2416.3483867156
 10
1135.4919777911
 20
2415.4871320338
  0
ENDSEC
  0
SECTION
  2
OBJECTS
  0
DICTIONARY
  5
C
330
0
100
AcDbDictionary
281
     1
  3
ACAD_GROUP
350
D
  3
ACAD_LAYOUT
350
1A
  3
ACAD_MLINESTYLE
350
17
  3
ACAD_PLOTSETTINGS
350
19
  3
ACAD_PLOTSTYLENAME
350
E
  3
ACAD_SCALELIST
350
47
  3
DWGPROPS
350
97
  0
DICTIONARY
  5
D
102
{ACAD_REACTORS
330
C
102
}
330
C
100
AcDbDictionary
281
     1
  0
DICTIONARY
  5
1A
102
{ACAD_REACTORS
330
C
102
}
330
C
100
AcDbDictionary
281
     1
  3
Layout1
350
1E
  3
Layout2
350
26
  3
Model
350
22
  0
DICTIONARY
  5
17
102
{ACAD_REACTORS
330
C
102
}
330
C
100
AcDbDictionary
281
     1
  3
Standard
350
18
  0
DICTIONARY
  5
19
102
{ACAD_REACTORS
330
C
102
}
330
C
100
AcDbDictionary
281
     1
  0
ACDBDICTIONARYWDFLT
  5
E
102
{ACAD_REACTORS
330
C
102
}
330
C
100
AcDbDictionary
281
     1
  3
Normal
350
F
100
AcDbDictionaryWithDefault
340
F
  0
DICTIONARY
  5
47
102
{ACAD_REACTORS
330
C
102
}
330
C
100
AcDbDictionary
281
     1
  3
A0
350
48
  3
A1
350
49
  3
A2
350
4A
  3
A3
350
4B
  3
A4
350
4C
  3
A5
350
4D
  3
A6
350
4E
  3
A7
350
4F
  3
A8
350
50
  3
A9
350
51
  3
B0
350
52
  3
B1
350
53
  3
B2
350
54
  3
B3
350
55
  3
B4
350
56
  3
B5
350
57
  3
B6
350
58
  3
B7
350
59
  3
B8
350
5A
  3
B9
350
5B
  3
C0
350
5C
  3
C1
350
5D
  3
C2
350
5E
  3
C3
350
5F
  3
C4
350
60
  3
C5
350
61
  3
C6
350
62
  3
C7
350
63
  3
C8
350
64
  3
C9
350
65
  3
D0
350
66
  3
D1
350
67
  3
D2
350
68
  0
XRECORD
  5
97
102
{ACAD_REACTORS
330
C
102
}
330
C
100
AcDbXrecord
280
     1
  1
DWGPROPS COOKIE
  2

  3

  4

  6

  7

  8
9222
  9

300
=
301
=
302
=
303
=
304
=
305
=
306
=
307
=
308
=
309
=
 40
0.0
 41
2459920.194314873
 42
2459920.19431522
  1

 90
        0
  0
LAYOUT
  5
1E
102
{ACAD_REACTORS
330
1A
102
}
330
1A
100
AcDbPlotSettings
  1

  2
none_device
  4

  6

 40
0.0
 41
0.0
 42
0.0
 43
0.0
 44
0.0
 45
0.0
 46
0.0
 47
0.0
 48
0.0
 49
0.0
140
0.0
141
0.0
142
1.0
143
1.0
 70
   688
 72
     1
 73
     0
 74
     5
  7

 75
    16
147
1.0
148
0.0
149
0.0
100
AcDbLayout
  1
Layout1
 70
     1
 71
     1
 10
0.0
 20
0.0
 11
420.0
 21
297.0
 12
0.0
 22
0.0
 32
0.0
 14
1.0000000000E+20
 24
1.0000000000E+20
 34
1.0000000000E+20
 15
-1.0000000000E+20
 25
-1.0000000000E+20
 35
-1.0000000000E+20
146
0.0
 13
0.0
 23
0.0
 33
0.0
 16
1.0
 26
0.0
 36
0.0
 17
0.0
 27
1.0
 37
0.0
 76
     0
330
1B
  0
LAYOUT
  5
26
102
{ACAD_REACTORS
330
1A
102
}
330
1A
100
AcDbPlotSettings
  1

  2
none_device
  4

  6

 40
0.0
 41
0.0
 42
0.0
 43
0.0
 44
0.0
 45
0.0
 46
0.0
 47
0.0
 48
0.0
 49
0.0
140
0.0
141
0.0
142
1.0
143
1.0
 70
   688
 72
     1
 73
     0
 74
     5
  7

 75
    16
147
1.0
148
0.0
149
0.0
100
AcDbLayout
  1
Layout2
 70
     1
 71
     2
 10
0.0
 20
0.0
 11
0.0
 21
0.0
 12
0.0
 22
0.0
 32
0.0
 14
0.0
 24
0.0
 34
0.0
 15
0.0
 25
0.0
 35
0.0
146
0.0
 13
0.0
 23
0.0
 33
0.0
 16
1.0
 26
0.0
 36
0.0
 17
0.0
 27
1.0
 37
0.0
 76
     0
330
23
  0
LAYOUT
  5
22
102
{ACAD_REACTORS
330
1A
102
}
330
1A
100
AcDbPlotSettings
  1

  2
none_device
  4
Letter_(8.50_x_11.00_Inches)
  6

 40
6.35
 41
6.35
 42
6.35000508
 43
6.35000508
 44
215.9
 45
279.4
 46
0.0
 47
0.0
 48
0.0
 49
0.0
140
0.0
141
0.0
142
1.0
143
1.0
 70
  1712
 72
     1
 73
     0
 74
     0
  7

 75
     0
147
1.0
148
0.0
149
0.0
100
AcDbLayout
  1
Model
 70
     1
 71
     0
 10
0.0
 20
0.0
 11
2100.0
 21
2970.0
 12
0.0
 22
0.0
 32
0.0
 14
0.0
 24
0.0
 34
0.0
 15
2100.0
 25
2970.0
 35
0.0
146
0.0
 13
0.0
 23
0.0
 33
0.0
 16
1.0
 26
0.0
 36
0.0
 17
0.0
 27
1.0
 37
0.0
 76
     0
330
1F
331
29
  0
MLINESTYLE
  5
18
102
{ACAD_REACTORS
330
17
102
}
330
17
100
AcDbMlineStyle
  2
Standard
 70
     0
  3

 62
   256
 51
90.0
 52
90.0
 71
     2
 49
0.5
 62
   256
  6
BYLAYER
 49
-0.5
 62
   256
  6
BYLAYER
  0
ACDBPLACEHOLDER
  5
F
102
{ACAD_REACTORS
330
E
102
}
330
E
  0
SCALE
  5
48
102
{ACAD_REACTORS
330
47
102
}
330
47
100
AcDbScale
 70
     0
300
1:1
140
1.0
141
1.0
290
     1
  0
SCALE
  5
49
102
{ACAD_REACTORS
330
47
102
}
330
47
100
AcDbScale
 70
     0
300
1:2
140
1.0
141
2.0
290
     0
  0
SCALE
  5
4A
102
{ACAD_REACTORS
330
47
102
}
330
47
100
AcDbScale
 70
     0
300
1:4
140
1.0
141
4.0
290
     0
  0
SCALE
  5
4B
102
{ACAD_REACTORS
330
47
102
}
330
47
100
AcDbScale
 70
     0
300
1:5
140
1.0
141
5.0
290
     0
  0
SCALE
  5
4C
102
{ACAD_REACTORS
330
47
102
}
330
47
100
AcDbScale
 70
     0
300
1:8
140
1.0
141
8.0
290
     0
  0
SCALE
  5
4D
102
{ACAD_REACTORS
330
47
102
}
330
47
100
AcDbScale
 70
     0
300
1:10
140
1.0
141
10.0
290
     0
  0
SCALE
  5
4E
102
{ACAD_REACTORS
330
47
102
}
330
47
100
AcDbScale
 70
     0
300
1:16
140
1.0
141
16.0
290
     0
  0
SCALE
  5
4F
102
{ACAD_REACTORS
330
47
102
}
330
47
100
AcDbScale
 70
     0
300
1:20
140
1.0
141
20.0
290
     0
  0
SCALE
  5
50
102
{ACAD_REACTORS
330
47
102
}
330
47
100
AcDbScale
 70
     0
300
1:30
140
1.0
141
30.0
290
     0
  0
SCALE
  5
51
102
{ACAD_REACTORS
330
47
102
}
330
47
100
AcDbScale
 70
     0
300
1:40
140
1.0
141
40.0
290
     0
  0
SCALE
  5
52
102
{ACAD_REACTORS
330
47
102
}
330
47
100
AcDbScale
 70
     0
300
1:50
140
1.0
141
50.0
290
     0
  0
SCALE
  5
53
102
{ACAD_REACTORS
330
47
102
}
330
47
100
AcDbScale
 70
     0
300
1:100
140
1.0
141
100.0
290
     0
  0
SCALE
  5
54
102
{ACAD_REACTORS
330
47
102
}
330
47
100
AcDbScale
 70
     0
300
2:1
140
2.0
141
1.0
290
     0
  0
SCALE
  5
55
102
{ACAD_REACTORS
330
47
102
}
330
47
100
AcDbScale
 70
     0
300
4:1
140
4.0
141
1.0
290
     0
  0
SCALE
  5
56
102
{ACAD_REACTORS
330
47
102
}
330
47
100
AcDbScale
 70
     0
300
8:1
140
8.0
141
1.0
290
     0
  0
SCALE
  5
57
102
{ACAD_REACTORS
330
47
102
}
330
47
100
AcDbScale
 70
     0
300
10:1
140
10.0
141
1.0
290
     0
  0
SCALE
  5
58
102
{ACAD_REACTORS
330
47
102
}
330
47
100
AcDbScale
 70
     0
300
100:1
140
100.0
141
1.0
290
     0
  0
SCALE
  5
59
102
{ACAD_REACTORS
330
47
102
}
330
47
100
AcDbScale
 70
     0
300
1/128" = 1'-0"
140
0.0078125
141
12.0
290
     0
  0
SCALE
  5
5A
102
{ACAD_REACTORS
330
47
102
}
330
47
100
AcDbScale
 70
     0
300
1/64" = 1'-0"
140
0.015625
141
12.0
290
     0
  0
SCALE
  5
5B
102
{ACAD_REACTORS
330
47
102
}
330
47
100
AcDbScale
 70
     0
300
1/32" = 1'-0"
140
0.03125
141
12.0
290
     0
  0
SCALE
  5
5C
102
{ACAD_REACTORS
330
47
102
}
330
47
100
AcDbScale
 70
     0
300
1/16" = 1'-0"
140
0.0625
141
12.0
290
     0
  0
SCALE
  5
5D
102
{ACAD_REACTORS
330
47
102
}
330
47
100
AcDbScale
 70
     0
300
3/32" = 1'-0"
140
0.09375
141
12.0
290
     0
  0
SCALE
  5
5E
102
{ACAD_REACTORS
330
47
102
}
330
47
100
AcDbScale
 70
     0
300
1/8" = 1'-0"
140
0.125
141
12.0
290
     0
  0
SCALE
  5
5F
102
{ACAD_REACTORS
330
47
102
}
330
47
100
AcDbScale
 70
     0
300
3/16" = 1'-0"
140
0.1875
141
12.0
290
     0
  0
SCALE
  5
60
102
{ACAD_REACTORS
330
47
102
}
330
47
100
AcDbScale
 70
     0
300
1/4" = 1'-0"
140
0.25
141
12.0
290
     0
  0
SCALE
  5
61
102
{ACAD_REACTORS
330
47
102
}
330
47
100
AcDbScale
 70
     0
300
3/8" = 1'-0"
140
0.375
141
12.0
290
     0
  0
SCALE
  5
62
102
{ACAD_REACTORS
330
47
102
}
330
47
100
AcDbScale
 70
     0
300
1/2" = 1'-0"
140
0.5
141
12.0
290
     0
  0
SCALE
  5
63
102
{ACAD_REACTORS
330
47
102
}
330
47
100
AcDbScale
 70
     0
300
3/4" = 1'-0"
140
0.75
141
12.0
290
     0
  0
SCALE
  5
64
102
{ACAD_REACTORS
330
47
102
}
330
47
100
AcDbScale
 70
     0
300
1" = 1'-0"
140
1.0
141
12.0
290
     0
  0
SCALE
  5
65
102
{ACAD_REACTORS
330
47
102
}
330
47
100
AcDbScale
 70
     0
300
1-1/2" = 1'-0"
140
1.5
141
12.0
290
     0
  0
SCALE
  5
66
102
{ACAD_REACTORS
330
47
102
}
330
47
100
AcDbScale
 70
     0
300
3" = 1'-0"
140
3.0
141
12.0
290
     0
  0
SCALE
  5
67
102
{ACAD_REACTORS
330
47
102
}
330
47
100
AcDbScale
 70
     0
300
6" = 1'-0"
140
6.0
141
12.0
290
     0
  0
SCALE
  5
68
102
{ACAD_REACTORS
330
47
102
}
330
47
100
AcDbScale
 70
     0
300
1'-0" = 1'-0"
140
12.0
141
12.0
290
     0
  0
ENDSEC
  0
EOF
