  0
SECTION
  2
HEADER
  9
$ACADVER
  1
AC1015
  9
$ACADMAINTVER
 70
     6
  9
$DWGCODEPAGE
  3
DOS932
  9
$INSBASE
 10
0.0
 20
0.0
 30
0.0
  9
$EXTMIN
 10
0.0
 20
0.0
 30
0.0
  9
$EXTMAX
 10
2100.0
 20
2970.0
 30
0.0
  9
$LIMMIN
 10
0.0
 20
0.0
  9
$LIMMAX
 10
2100.0
 20
2970.0
  9
$ORTHOMODE
 70
     0
  9
$REGENMODE
 70
     1
  9
$FILLMODE
 70
     1
  9
$QTEXTMODE
 70
     0
  9
$MIRRTEXT
 70
     1
  9
$LTSCALE
 40
10.0
  9
$ATTMODE
 70
     1
  9
$TEXTSIZE
 40
35.0
  9
$TRACEWID
 40
1.0
  9
$TEXTSTYLE
  7
Standard
  9
$CLAYER
  8
0
  9
$CELTYPE
  6
ByLayer
  9
$CECOLOR
 62
   256
  9
$CELTSCALE
 40
1.0
  9
$DISPSILH
 70
     0
  9
$DIMSCALE
 40
1.0
  9
$DIMASZ
 40
33.02
  9
$DIMEXO
 40
10.0
  9
$DIMDLI
 40
3.75
  9
$DIMRND
 40
0.0
  9
$DIMDLE
 40
0.0
  9
$DIMEXE
 40
10.0
  9
$DIMTP
 40
0.0
  9
$DIMTM
 40
0.0
  9
$DIMTXT
 40
35.0
  9
$DIMCEN
 40
2.5
  9
$DIMTSZ
 40
0.0
  9
$DIMTOL
 70
     0
  9
$DIMLIM
 70
     0
  9
$DIMTIH
 70
     1
  9
$DIMTOH
 70
     1
  9
$DIMSE1
 70
     0
  9
$DIMSE2
 70
     0
  9
$DIMTAD
 70
     1
  9
$DIMZIN
 70
     1
  9
$DIMBLK
  1

  9
$DIMASO
 70
     1
  9
$DIMSHO
 70
     1
  9
$DIMPOST
  1

  9
$DIMAPOST
  1

  9
$DIMALT
 70
     0
  9
$DIMALTD
 70
     3
  9
$DIMALTF
 40
0.0393700787
  9
$DIMLFAC
 40
1.0
  9
$DIMTOFL
 70
     1
  9
$DIMTVP
 40
0.0
  9
$DIMTIX
 70
     0
  9
$DIMSOXD
 70
     0
  9
$DIMSAH
 70
     0
  9
$DIMBLK1
  1

  9
$DIMBLK2
  1

  9
$DIMSTYLE
  2
ISO-25
  9
$DIMCLRD
 70
     0
  9
$DIMCLRE
 70
     0
  9
$DIMCLRT
 70
     0
  9
$DIMTFAC
 40
1.0
  9
$DIMGAP
 40
15.24
  9
$DIMJUST
 70
     0
  9
$DIMSD1
 70
     0
  9
$DIMSD2
 70
     0
  9
$DIMTOLJ
 70
     0
  9
$DIMTZIN
 70
     1
  9
$DIMALTZ
 70
     0
  9
$DIMALTTZ
 70
     0
  9
$DIMUPT
 70
     0
  9
$DIMDEC
 70
     2
  9
$DIMTDEC
 70
     2
  9
$DIMALTU
 70
     2
  9
$DIMALTTD
 70
     3
  9
$DIMTXSTY
  7
Standard
  9
$DIMAUNIT
 70
     0
  9
$DIMADEC
 70
     2
  9
$DIMALTRND
 40
0.0
  9
$DIMAZIN
 70
     0
  9
$DIMDSEP
 70
    44
  9
$DIMATFIT
 70
     3
  9
$DIMFRAC
 70
     0
  9
$DIMLDRBLK
  1

  9
$DIMLUNIT
 70
     2
  9
$DIMLWD
 70
    -2
  9
$DIMLWE
 70
    -2
  9
$DIMTMOVE
 70
     0
  9
$LUNITS
 70
     2
  9
$LUPREC
 70
     2
  9
$SKETCHINC
 40
1.0
  9
$FILLETRAD
 40
10.0
  9
$AUNITS
 70
     0
  9
$AUPREC
 70
     2
  9
$MENU
  1
.
  9
$ELEVATION
 40
0.0
  9
$PELEVATION
 40
0.0
  9
$THICKNESS
 40
0.0
  9
$LIMCHECK
 70
     0
  9
$CHAMFERA
 40
0.0
  9
$CHAMFERB
 40
0.0
  9
$CHAMFERC
 40
0.0
  9
$CHAMFERD
 40
0.0
  9
$SKPOLY
 70
     0
  9
$TDCREATE
 40
2459920.570659386
  9
$TDUCREATE
 40
2459920.195659386
  9
$TDUPDATE
 40
2459920.57065963
  9
$TDUUPDATE
 40
2459920.19565963
  9
$TDINDWG
 40
0.0000000116
  9
$TDUSRTIMER
 40
0.0000000116
  9
$USRTIMER
 70
     1
  9
$ANGBASE
 50
0.0
  9
$ANGDIR
 70
     0
  9
$PDMODE
 70
     0
  9
$PDSIZE
 40
-1.0
  9
$PLINEWID
 40
0.0
  9
$SPLFRAME
 70
     0
  9
$SPLINETYPE
 70
     6
  9
$SPLINESEGS
 70
     8
  9
$HANDSEED
  5
98
  9
$SURFTAB1
 70
     6
  9
$SURFTAB2
 70
     6
  9
$SURFTYPE
 70
     6
  9
$SURFU
 70
     6
  9
$SURFV
 70
     6
  9
$UCSBASE
  2

  9
$UCSNAME
  2

  9
$UCSORG
 10
0.0
 20
0.0
 30
0.0
  9
$UCSXDIR
 10
1.0
 20
0.0
 30
0.0
  9
$UCSYDIR
 10
0.0
 20
1.0
 30
0.0
  9
$UCSORTHOREF
  2

  9
$UCSORTHOVIEW
 70
     0
  9
$UCSORGTOP
 10
0.0
 20
0.0
 30
0.0
  9
$UCSORGBOTTOM
 10
0.0
 20
0.0
 30
0.0
  9
$UCSORGLEFT
 10
0.0
 20
0.0
 30
0.0
  9
$UCSORGRIGHT
 10
0.0
 20
0.0
 30
0.0
  9
$UCSORGFRONT
 10
0.0
 20
0.0
 30
0.0
  9
$UCSORGBACK
 10
0.0
 20
0.0
 30
0.0
  9
$PUCSBASE
  2

  9
$PUCSNAME
  2

  9
$PUCSORG
 10
0.0
 20
0.0
 30
0.0
  9
$PUCSXDIR
 10
1.0
 20
0.0
 30
0.0
  9
$PUCSYDIR
 10
0.0
 20
1.0
 30
0.0
  9
$PUCSORTHOREF
  2

  9
$PUCSORTHOVIEW
 70
     0
  9
$PUCSORGTOP
 10
0.0
 20
0.0
 30
0.0
  9
$PUCSORGBOTTOM
 10
0.0
 20
0.0
 30
0.0
  9
$PUCSORGLEFT
 10
0.0
 20
0.0
 30
0.0
  9
$PUCSORGRIGHT
 10
0.0
 20
0.0
 30
0.0
  9
$PUCSORGFRONT
 10
0.0
 20
0.0
 30
0.0
  9
$PUCSORGBACK
 10
0.0
 20
0.0
 30
0.0
  9
$USERI1
 70
     0
  9
$USERI2
 70
     0
  9
$USERI3
 70
     0
  9
$USERI4
 70
     0
  9
$USERI5
 70
     0
  9
$USERR1
 40
0.0
  9
$USERR2
 40
0.0
  9
$USERR3
 40
0.0
  9
$USERR4
 40
0.0
  9
$USERR5
 40
0.0
  9
$WORLDVIEW
 70
     1
  9
$SHADEDGE
 70
     3
  9
$SHADEDIF
 70
    70
  9
$TILEMODE
 70
     1
  9
$MAXACTVP
 70
    64
  9
$PINSBASE
 10
0.0
 20
0.0
 30
0.0
  9
$PLIMCHECK
 70
     0
  9
$PEXTMIN
 10
1.0000000000E+20
 20
1.0000000000E+20
 30
1.0000000000E+20
  9
$PEXTMAX
 10
-1.0000000000E+20
 20
-1.0000000000E+20
 30
-1.0000000000E+20
  9
$PLIMMIN
 10
0.0
 20
0.0
  9
$PLIMMAX
 10
420.0
 20
297.0
  9
$UNITMODE
 70
     0
  9
$VISRETAIN
 70
     1
  9
$PLINEGEN
 70
     0
  9
$PSLTSCALE
 70
     1
  9
$TREEDEPTH
 70
  3020
  9
$CMLSTYLE
  2
Standard
  9
$CMLJUST
 70
     0
  9
$CMLSCALE
 40
20.0
  9
$PROXYGRAPHICS
 70
     1
  9
$MEASUREMENT
 70
     1
  9
$CELWEIGHT
370
    -1
  9
$ENDCAPS
280
     0
  9
$JOINSTYLE
280
     0
  9
$LWDISPLAY
290
     1
  9
$INSUNITS
 70
     4
  9
$HYPERLINKBASE
  1

  9
$STYLESHEET
  1

  9
$XEDIT
290
     1
  9
$CEPSNTYPE
380
     0
  9
$PSTYLEMODE
290
     1
  9
$FINGERPRINTGUID
  2
{7d53fbb7-6c38-4362-978a-0c426d8fc6ff}
  9
$VERSIONGUID
  2
{FAEB1C32-E019-11D5-929B-00C0DF256EC4}
  9
$EXTNAMES
290
     1
  9
$PSVPSCALE
 40
0.0
  9
$OLESTARTUP
290
     0
  0
ENDSEC
  0
SECTION
  2
CLASSES
  0
CLASS
  1
ACDBDICTIONARYWDFLT
  2
AcDbDictionaryWithDefault
  3
ObjectDBX Classes
 90
        0
280
     0
281
     0
  0
CLASS
  1
VISUALSTYLE
  2
AcDbVisualStyle
  3
ObjectDBX Classes
 90
     4095
280
     0
281
     0
  0
CLASS
  1
MATERIAL
  2
AcDbMaterial
  3
ObjectDBX Classes
 90
     1153
280
     0
281
     0
  0
CLASS
  1
SCALE
  2
AcDbScale
  3
ObjectDBX Classes
 90
     1153
280
     0
281
     0
  0
CLASS
  1
TABLESTYLE
  2
AcDbTableStyle
  3
ObjectDBX Classes
 90
     4095
280
     0
281
     0
  0
CLASS
  1
MLEADERSTYLE
  2
AcDbMLeaderStyle
  3
ACDB_MLEADERSTYLE_CLASS
 90
     4095
280
     0
281
     0
  0
CLASS
  1
SUN
  2
AcDbSun
  3
SCENEOE
 90
     1153
280
     0
281
     0
  0
CLASS
  1
ACDBPLACEHOLDER
  2
AcDbPlaceHolder
  3
ObjectDBX Classes
 90
        0
280
     0
281
     0
  0
CLASS
  1
LAYOUT
  2
AcDbLayout
  3
ObjectDBX Classes
 90
        0
280
     0
281
     0
  0
ENDSEC
  0
SECTION
  2
TABLES
  0
TABLE
  2
VPORT
  5
8
330
0
100
AcDbSymbolTable
 70
     1
  0
VPORT
  5
29
330
8
100
AcDbSymbolTableRecord
100
AcDbViewportTableRecord
  2
*Active
 70
     0
 10
0.0
 20
0.0
 11
1.0
 21
1.0
 12
1050.0
 22
1485.0
 13
0.0
 23
0.0
 14
10.0
 24
10.0
 15
10.0
 25
10.0
 16
0.0
 26
0.0
 36
1.0
 17
0.0
 27
0.0
 37
0.0
 40
2970.0
 41
0.7070707071
 42
50.0
 43
0.0
 44
0.0
 50
0.0
 51
0.0
 71
     0
 72
  2000
 73
     1
 74
     3
 75
     0
 76
     0
 77
     0
 78
     0
281
     0
 65
     1
110
0.0
120
0.0
130
0.0
111
1.0
121
0.0
131
0.0
112
0.0
122
1.0
132
0.0
 79
     0
146
0.0
  0
ENDTAB
  0
TABLE
  2
LTYPE
  5
5
330
0
100
AcDbSymbolTable
 70
     6
  0
LTYPE
  5
14
330
5
100
AcDbSymbolTableRecord
100
AcDbLinetypeTableRecord
  2
ByBlock
 70
     0
  3

 72
    65
 73
     0
 40
0.0
  0
LTYPE
  5
15
330
5
100
AcDbSymbolTableRecord
100
AcDbLinetypeTableRecord
  2
ByLayer
 70
     0
  3

 72
    65
 73
     0
 40
0.0
  0
LTYPE
  5
16
330
5
100
AcDbSymbolTableRecord
100
AcDbLinetypeTableRecord
  2
Continuous
 70
     0
  3
Solid line
 72
    65
 73
     0
 40
0.0
  0
LTYPE
  5
6E
330
5
100
AcDbSymbolTableRecord
100
AcDbLinetypeTableRecord
  2
HIDDEN
 70
     0
  3
Hidden __ __ __ __ __ __ __ __ __ __ __ __ __ __
 72
    65
 73
     2
 40
1.905
 49
1.27
 74
     0
 49
-0.635
 74
     0
  0
LTYPE
  5
6F
330
5
100
AcDbSymbolTableRecord
100
AcDbLinetypeTableRecord
  2
PHANTOM
 70
     0
  3
Phantom ______  __  __  ______  __  __  ______
 72
    65
 73
     6
 40
12.7
 49
6.35
 74
     0
 49
-1.27
 74
     0
 49
1.27
 74
     0
 49
-1.27
 74
     0
 49
1.27
 74
     0
 49
-1.27
 74
     0
  0
LTYPE
  5
70
330
5
100
AcDbSymbolTableRecord
100
AcDbLinetypeTableRecord
  2
CENTER
 70
     0
  3
Center ____ _ ____ _ ____ _ ____ _ ____ _ ____
 72
    65
 73
     4
 40
10.16
 49
6.35
 74
     0
 49
-1.27
 74
     0
 49
1.27
 74
     0
 49
-1.27
 74
     0
  0
LTYPE
  5
71
330
5
100
AcDbSymbolTableRecord
100
AcDbLinetypeTableRecord
  2
CENTERX2
 70
     0
  3
Center (2x) ________  __  ________  __  _____
 72
    65
 73
     4
 40
20.32
 49
12.7
 74
     0
 49
-2.54
 74
     0
 49
2.54
 74
     0
 49
-2.54
 74
     0
  0
LTYPE
  5
72
330
5
100
AcDbSymbolTableRecord
100
AcDbLinetypeTableRecord
  2
DOT2
 70
     0
  3
Dot (.5x) ........................................
 72
    65
 73
     2
 40
0.635
 49
0.0
 74
     0
 49
-0.635
 74
     0
  0
ENDTAB
  0
TABLE
  2
LAYER
  5
2
330
0
100
AcDbSymbolTable
 70
     1
  0
LAYER
  5
10
330
2
100
AcDbSymbolTableRecord
100
AcDbLayerTableRecord
  2
0
 70
     0
 62
     7
  6
Continuous
370
    -3
390
F
  0
ENDTAB
  0
TABLE
  2
STYLE
  5
3
330
0
100
AcDbSymbolTable
 70
     2
  0
STYLE
  5
11
330
3
100
AcDbSymbolTableRecord
100
AcDbTextStyleTableRecord
  2
Standard
 70
     0
 40
0.0
 41
1.0
 50
0.0
 71
     0
 42
35.0
  3
txt
  4
bigfont
  0
STYLE
  5
76
330
3
100
AcDbSymbolTableRecord
100
AcDbTextStyleTableRecord
  2
SLDTEXTSTYLE0
 70
     0
 40
0.0
 41
0.7
 50
0.0
 71
     0
 42
35.0
  3
TXT
  4
bigfont
  0
ENDTAB
  0
TABLE
  2
VIEW
  5
6
330
0
100
AcDbSymbolTable
 70
     0
  0
ENDTAB
  0
TABLE
  2
UCS
  5
7
330
0
100
AcDbSymbolTable
 70
     0
  0
ENDTAB
  0
TABLE
  2
APPID
  5
9
330
0
100
AcDbSymbolTable
 70
     1
  0
APPID
  5
12
330
9
100
AcDbSymbolTableRecord
100
AcDbRegAppTableRecord
  2
ACAD
 70
     0
  0
ENDTAB
  0
TABLE
  2
DIMSTYLE
  5
A
330
0
100
AcDbSymbolTable
 70
     1
100
AcDbDimStyleTable
  0
DIMSTYLE
105
27
330
A
100
AcDbSymbolTableRecord
100
AcDbDimStyleTableRecord
  2
ISO-25
 70
     0
 41
2.5
 42
0.625
 43
3.75
 44
1.25
 73
     0
 74
     0
 77
     1
 78
     8
140
2.5
141
2.5
143
0.0393700787
147
0.625
171
     3
172
     1
178
     0
271
     2
272
     2
274
     3
278
    44
283
     0
284
     8
340
11
  0
ENDTAB
  0
TABLE
  2
BLOCK_RECORD
  5
1
330
0
100
AcDbSymbolTable
 70
     2
  0
BLOCK_RECORD
  5
1F
330
1
100
AcDbSymbolTableRecord
100
AcDbBlockTableRecord
  2
*Model_Space
340
22
  0
BLOCK_RECORD
  5
1B
330
1
100
AcDbSymbolTableRecord
100
AcDbBlockTableRecord
  2
*Paper_Space
340
1E
  0
BLOCK_RECORD
  5
23
330
1
100
AcDbSymbolTableRecord
100
AcDbBlockTableRecord
  2
*Paper_Space0
340
26
  0
BLOCK_RECORD
  5
73
330
1
100
AcDbSymbolTableRecord
100
AcDbBlockTableRecord
  2
SW_NOTE_0
340
0
102
{BLKREFS
331
7A
102
}
  0
ENDTAB
  0
ENDSEC
  0
SECTION
  2
BLOCKS
  0
BLOCK
  5
20
330
1F
100
AcDbEntity
  8
0
100
AcDbBlockBegin
  2
*Model_Space
 70
     0
 10
0.0
 20
0.0
 30
0.0
  3
*Model_Space
  1

  0
ENDBLK
  5
21
330
1F
100
AcDbEntity
  8
0
100
AcDbBlockEnd
  0
BLOCK
  5
1C
330
1B
100
AcDbEntity
 67
     1
  8
0
100
AcDbBlockBegin
  2
*Paper_Space
 70
     0
 10
0.0
 20
0.0
 30
0.0
  3
*Paper_Space
  1

  0
ENDBLK
  5
1D
330
1B
100
AcDbEntity
 67
     1
  8
0
100
AcDbBlockEnd
  0
BLOCK
  5
24
330
23
100
AcDbEntity
  8
0
100
AcDbBlockBegin
  2
*Paper_Space0
 70
     0
 10
0.0
 20
0.0
 30
0.0
  3
*Paper_Space0
  1

  0
ENDBLK
  5
25
330
23
100
AcDbEntity
  8
0
100
AcDbBlockEnd
  0
BLOCK
  5
74
330
73
100
AcDbEntity
  8
0
100
AcDbBlockBegin
  2
SW_NOTE_0
 70
     0
 10
0.0
 20
0.0
 30
0.0
  3
SW_NOTE_0
  1

  0
MTEXT
  5
77
330
73
100
AcDbEntity
  8
0
  6
Continuous
 62
     0
370
     0
100
AcDbMText
 10
0.0
 20
68.2131678963
 30
0.0
 40
52.9166666667
 41
0.0
 71
     1
 72
     1
  1
HOA-D15B
  7
SLDTEXTSTYLE0
 73
     1
 44
1.0
  0
MTEXT
  5
78
330
73
100
AcDbEntity
  8
0
  6
Continuous
 62
     0
370
     0
100
AcDbMText
 10
0.0
 20
-12.3423884457
 30
0.0
 40
52.9166666667
 41
0.0
 71
     1
 72
     1
  1
HOA-D15G
  7
SLDTEXTSTYLE0
 73
     1
 44
1.0
  0
MTEXT
  5
79
330
73
100
AcDbEntity
  8
0
  6
Continuous
 62
     0
370
     0
100
AcDbMText
 10
0.0
 20
-92.8979447877
 30
0.0
 40
52.9166666667
 41
0.0
 71
     1
 72
     1
  1
HOA-D15R
  7
SLDTEXTSTYLE0
 73
     1
 44
1.0
  0
ENDBLK
  5
75
330
73
100
AcDbEntity
  8
0
100
AcDbBlockEnd
  0
ENDSEC
  0
SECTION
  2
ENTITIES
  0
INSERT
  5
7A
330
1F
100
AcDbEntity
  8
0
  6
Continuous
 62
     7
370
     0
100
AcDbBlockReference
  2
SW_NOTE_0
 10
1538.7883621624
 20
533.2145212164
 30
0.0
  0
LINE
  5
7B
330
1F
100
AcDbEntity
  8
0
  6
Continuous
 62
     7
370
    25
100
AcDbLine
 10
1379.2896569601
 20
932.8371390704
 30
0.0
 11
1326.2733639352
 21
1437.6088448289
 31
0.0
  0
LINE
  5
7C
330
1F
100
AcDbEntity
  8
0
  6
Continuous
 62
     7
370
    25
100
AcDbLine
 10
826.3740208993
 20
1434.6134758417
 30
0.0
 11
779.410445317
 21
929.2426962858
 31
0.0
  0
LINE
  5
7D
330
1F
100
AcDbEntity
  8
0
  6
Continuous
 62
     7
370
    25
100
AcDbLine
 10
1158.7304566322
 20
1481.334924024
 30
0.0
 11
1153.0269379247
 21
2433.1993744823
 31
0.0
  0
LINE
  5
7E
330
1F
100
AcDbEntity
  8
0
  6
Continuous
 62
     7
370
    25
100
AcDbLine
 10
1150.0269917784
 20
2433.1813989723
 30
0.0
 11
1155.7293162836
 21
1481.5162498071
 31
0.0
  0
LINE
  5
7F
330
1F
100
AcDbEntity
  8
0
  6
Continuous
 62
     7
370
    25
100
AcDbLine
 10
963.4146792053
 20
1477.6961408439
 30
0.0
 11
957.7626064288
 21
2420.9747418652
 31
0.0
  0
LINE
  5
80
330
1F
100
AcDbEntity
  8
0
  6
Continuous
 62
     7
370
    25
100
AcDbLine
 10
954.7626602824
 20
2420.9567663552
 30
0.0
 11
960.4165184831
 21
1477.380194565
 31
0.0
  0
SPLINE
  5
81
330
1F
100
AcDbEntity
  8
0
  6
Continuous
 62
     7
370
    25
100
AcDbSpline
210
0.0
220
0.0
230
1.0
 70
     8
 71
     3
 72
    72
 73
    68
 74
     0
 42
0.00000001
 43
0.00000001
 40
0.0
 40
0.0
 40
0.0
 40
0.0
 40
0.009837887524668
 40
0.0198076491999875
 40
0.0289010075507713
 40
0.0371741277680755
 40
0.0446743220460329
 40
0.051441439146887
 40
0.0585211258905328
 40
0.0646744357276613
 40
0.0699639817196207
 40
0.0750428872661892
 40
0.0936765892117358
 40
0.1129306928000705
 40
0.1301798409030133
 40
0.1474274828440036
 40
0.1646504563019051
 40
0.181865524206395
 40
0.1972688515769964
 40
0.2127432008096495
 40
0.2282670551518021
 40
0.2438277543961789
 40
0.2593913115674901
 40
0.2749353197871892
 40
0.2904415100566202
 40
0.3058687690981968
 40
0.3196406766926964
 40
0.3333808774411611
 40
0.3471856201785589
 40
0.3610776075360193
 40
0.3750166697626288
 40
0.3887488109049009
 40
0.4026248378737196
 40
0.4165751334131715
 40
0.4305154225213801
 40
0.4550424516930043
 40
0.4791672845604761
 40
0.5032130320168049
 40
0.5272871215823853
 40
0.5451022182509275
 40
0.5631023899901049
 40
0.5813350358550868
 40
0.5996667376432546
 40
0.6180255673880762
 40
0.6363190692717945
 40
0.6545477964785824
 40
0.6687000003879985
 40
0.682699862450787
 40
0.6965549617679988
 40
0.7103358653478231
 40
0.7241861261495098
 40
0.7423566006163752
 40
0.7606164736243244
 40
0.7789055463623729
 40
0.7998379645447048
 40
0.8209933440174688
 40
0.8422765858594085
 40
0.8635712848463262
 40
0.8849146747189146
 40
0.9062242723287959
 40
0.9275899165739719
 40
0.9489294735066347
 40
0.9702939571948197
 40
0.9781673825705575
 40
0.9858711447494981
 40
0.9933785549219674
 40
0.9999999999999999
 40
0.9999999999999999
 40
0.9999999999999999
 40
0.9999999999999999
 10
1067.782182405245
 20
2416.266246025123
 30
0.0
 10
1067.735446153974
 20
2413.121464836676
 30
0.0
 10
1067.641347164961
 20
2406.789747541141
 30
0.0
 10
1067.345195932054
 20
2397.595101015243
 30
0.0
 10
1066.975773618391
 20
2388.931203821258
 30
0.0
 10
1066.55971828577
 20
2381.083172509408
 30
0.0
 10
1066.124483158296
 20
2373.997892662968
 30
0.0
 10
1065.666556944866
 20
2367.313490804372
 30
0.0
 10
1065.200471783622
 20
2361.074737042985
 30
0.0
 10
1064.740565056685
 20
2355.318271216651
 30
0.0
 10
1064.311947003479
 20
2350.199971636615
 30
0.0
 10
1063.535463088377
 20
2341.240837551659
 30
0.0
 10
1062.319860502853
 20
2328.051777545952
 30
0.0
 10
1060.780148159111
 20
2311.267626820074
 30
0.0
 10
1059.483343047844
 20
2294.978123591282
 30
0.0
 10
1058.601113767802
 20
2279.307991964784
 30
0.0
 10
1058.287228651026
 20
2263.587170564024
 30
0.0
 10
1058.735206731227
 20
2248.322808825195
 30
0.0
 10
1060.044778805485
 20
2233.489247451472
 30
0.0
 10
1062.187291493862
 20
2219.121398387266
 30
0.0
 10
1064.899286985166
 20
2204.691478379098
 30
0.0
 10
1067.90393419099
 20
2190.21269649437
 30
0.0
 10
1070.92378186053
 20
2175.679597008069
 30
0.0
 10
1073.687432690863
 20
2161.082144044891
 30
0.0
 10
1075.929394069333
 20
2146.423584198822
 30
0.0
 10
1077.32882817349
 20
2132.226488949432
 30
0.0
 10
1077.765700271511
 20
2118.540321140138
 30
0.0
 10
1077.124708892313
 20
2105.401111424309
 30
0.0
 10
1075.544446477305
 20
2092.327194048228
 30
0.0
 10
1073.549774554496
 20
2079.234988740227
 30
0.0
 10
1071.552627993436
 20
2066.128231711783
 30
0.0
 10
1069.920687954545
 20
2052.920844432368
 30
0.0
 10
1069.059235628152
 20
2039.578700612083
 30
0.0
 10
1068.965019427182
 20
2026.110156844395
 30
0.0
 10
1069.363143706417
 20
2009.196864160039
 30
0.0
 10
1069.964251178247
 20
1988.991392872652
 30
0.0
 10
1070.379344764852
 20
1965.531717123351
 30
0.0
 10
1070.721247087293
 20
1942.241169636542
 30
0.0
 10
1071.035201487839
 20
1920.997931571284
 30
0.0
 10
1071.396392228427
 20
1901.701459580797
 30
0.0
 10
1071.813109577266
 20
1884.281680661048
 30
0.0
 10
1072.342409025501
 20
1866.687278939419
 30
0.0
 10
1072.931949094703
 20
1848.965326042383
 30
0.0
 10
1073.540817592851
 20
1831.219864270104
 30
0.0
 10
1074.127720343414
 20
1813.530344289178
 30
0.0
 10
1074.610618832981
 20
1797.269456624273
 30
0.0
 10
1074.964873926249
 20
1782.537362825674
 30
0.0
 10
1075.182429002837
 20
1769.413923163514
 30
0.0
 10
1075.266871715162
 20
1756.770189715286
 30
0.0
 10
1075.240890598678
 20
1744.564976301848
 30
0.0
 10
1075.116055034554
 20
1731.489916675525
 30
0.0
 10
1074.896734632306
 20
1717.518179461643
 30
0.0
 10
1074.62159564015
 20
1702.501372581561
 30
0.0
 10
1074.356044430985
 20
1686.618482810394
 30
0.0
 10
1074.167202315508
 20
1669.518924191525
 30
0.0
 10
1074.113190373511
 20
1650.971474954842
 30
0.0
 10
1074.158174717006
 20
1631.913267042255
 30
0.0
 10
1074.2784682337
 20
1612.481203727658
 30
0.0
 10
1074.452115020018
 20
1592.792206352302
 30
0.0
 10
1074.661460171677
 20
1572.876212320126
 30
0.0
 10
1074.889478269059
 20
1552.787122194767
 30
0.0
 10
1075.118773358852
 20
1532.527983309781
 30
0.0
 10
1075.28405314002
 20
1516.425171737308
 30
0.0
 10
1075.385271971236
 20
1504.614963953088
 30
0.0
 10
1075.439469787762
 20
1497.218382995032
 30
0.0
 10
1075.481923942306
 20
1490.209869631735
 30
0.0
 10
1075.49843798731
 20
1485.66388502644
 30
0.0
 10
1075.506177244318
 20
1483.533423155619
 30
0.0
  0
SPLINE
  5
82
330
1F
100
AcDbEntity
  8
0
  6
Continuous
 62
     7
370
    25
100
AcDbSpline
210
0.0
220
0.0
230
1.0
 70
     8
 71
     3
 72
    76
 73
    72
 74
     0
 42
0.00000001
 43
0.00000001
 40
0.0
 40
0.0
 40
0.0
 40
0.0
 40
0.0102944803326384
 40
0.0294245181178533
 40
0.0486029167850271
 40
0.0677529598319298
 40
0.086889795836193
 40
0.108156927179685
 40
0.1293880200577879
 40
0.1506443048149161
 40
0.1718337583233221
 40
0.1929749350126615
 40
0.2138846015227295
 40
0.2313198223073018
 40
0.2486977036105734
 40
0.2660660551409661
 40
0.2833555118661047
 40
0.296923478652246
 40
0.3104888211018554
 40
0.3241371373183284
 40
0.3379760399478658
 40
0.3538509275162219
 40
0.3697889302917707
 40
0.3858206618467885
 40
0.4018304164528465
 40
0.4178494215861285
 40
0.4337878948988612
 40
0.4495293885877362
 40
0.465127676382502
 40
0.4869093627848494
 40
0.5086711364354977
 40
0.5304243334338878
 40
0.5523681477442851
 40
0.5663586058664186
 40
0.5804975433493754
 40
0.5946276054443927
 40
0.6085854745825696
 40
0.62245999838136
 40
0.636316626576997
 40
0.6501692269674654
 40
0.6640108527348817
 40
0.6778347047041674
 40
0.6916339167614366
 40
0.7052110449807379
 40
0.7188128204324745
 40
0.7324448452703471
 40
0.7460980321850019
 40
0.7616121744800756
 40
0.7770978784073184
 40
0.7925309654268604
 40
0.8078537614129707
 40
0.8231366479789591
 40
0.8384106281226933
 40
0.8537294463304188
 40
0.869065773796252
 40
0.884180409934985
 40
0.8984897210846329
 40
0.9027290979289718
 40
0.9068401999767647
 40
0.9108200604145916
 40
0.9149387514179516
 40
0.919773270558917
 40
0.9253637331965687
 40
0.9317377626010185
 40
0.9389287542468165
 40
0.9469769430187842
 40
0.9559307578192581
 40
0.9656625906396372
 40
0.9763907529824644
 40
0.988195324949677
 40
1.0
 40
1.0
 40
1.0
 40
1.0
 10
1078.488671710307
 20
1483.563723040995
 30
0.0
 10
1078.48010715658
 20
1486.878886482035
 30
0.0
 10
1078.455627254907
 20
1496.354555343654
 30
0.0
 10
1078.320130525249
 20
1511.910484439992
 30
0.0
 10
1078.139022411895
 20
1530.213184637603
 30
0.0
 10
1077.93427658479
 20
1548.403881268994
 30
0.0
 10
1077.720913416244
 20
1567.132033532898
 30
0.0
 10
1077.511733463126
 20
1586.362667831393
 30
0.0
 10
1077.325291124936
 20
1606.061985976295
 30
0.0
 10
1077.185815049735
 20
1625.506430165542
 30
0.0
 10
1077.113674558005
 20
1644.632814595141
 30
0.0
 10
1077.130327605057
 20
1663.290428011423
 30
0.0
 10
1077.268654079354
 20
1680.338866236278
 30
0.0
 10
1077.501097516555
 20
1695.851683822576
 30
0.0
 10
1077.75914183058
 20
1710.188900306678
 30
0.0
 10
1078.010641382781
 20
1724.524546253248
 30
0.0
 10
1078.187593263256
 20
1738.088914718109
 30
0.0
 10
1078.261500099464
 20
1750.974994359321
 30
0.0
 10
1078.233185065
 20
1763.175739316182
 30
0.0
 10
1078.085642194676
 20
1775.834360852606
 30
0.0
 10
1077.804043047743
 20
1789.508707881656
 30
0.0
 10
1077.410914948875
 20
1804.090569481913
 30
0.0
 10
1076.929213789831
 20
1819.475612393626
 30
0.0
 10
1076.408888052515
 20
1834.947747596097
 30
0.0
 10
1075.87793415376
 20
1850.457984381002
 30
0.0
 10
1075.364596310962
 20
1865.934725888281
 30
0.0
 10
1074.895557535144
 20
1881.31611318947
 30
0.0
 10
1074.507229167209
 20
1896.555046078061
 30
0.0
 10
1074.157859966743
 20
1913.672232311746
 30
0.0
 10
1073.850356812708
 20
1932.725590217593
 30
0.0
 10
1073.552681029946
 20
1953.768478374421
 30
0.0
 10
1073.215946972605
 20
1974.879908880829
 30
0.0
 10
1072.832289460308
 20
1993.499898400947
 30
0.0
 10
1072.36672816312
 20
2009.661194070159
 30
0.0
 10
1072.00019265784
 20
2023.297404227282
 30
0.0
 10
1071.986439459045
 20
2036.917259138107
 30
0.0
 10
1072.686734646097
 20
2050.407129234738
 30
0.0
 10
1074.235453469177
 20
2063.679137306791
 30
0.0
 10
1076.198435512963
 20
2076.804057608245
 30
0.0
 10
1078.217672938754
 20
2089.870241843018
 30
0.0
 10
1079.893110713752
 20
2102.959878534865
 30
0.0
 10
1080.729220778341
 20
2116.132976643177
 30
0.0
 10
1080.484116158517
 20
2129.270374610043
 30
0.0
 10
1079.406610144134
 20
2142.301152988111
 30
0.0
 10
1077.66844542746
 20
2155.20841270775
 30
0.0
 10
1075.444420486497
 20
2168.057588069592
 30
0.0
 10
1072.79758047161
 20
2181.430437778155
 30
0.0
 10
1069.887258281357
 20
2195.318274962924
 30
0.0
 10
1066.95756858356
 20
2209.719817478916
 30
0.0
 10
1064.403581651136
 20
2224.043472219038
 30
0.0
 10
1062.526692187256
 20
2238.281736204674
 30
0.0
 10
1061.554333314902
 20
2252.393203709347
 30
0.0
 10
1061.314266736032
 20
2266.407431049555
 30
0.0
 10
1061.664975546946
 20
2280.359326562532
 30
0.0
 10
1062.449637252219
 20
2294.221439470498
 30
0.0
 10
1063.50189217033
 20
2307.781861391093
 30
0.0
 10
1064.411830196039
 20
2318.013238160067
 30
0.0
 10
1065.043567026596
 20
2324.924193532946
 30
0.0
 10
1065.390038166718
 20
2328.691262125184
 30
0.0
 10
1065.733871615067
 20
2332.428176521871
 30
0.0
 10
1066.097086286551
 20
2336.39408998197
 30
0.0
 10
1066.502095860392
 20
2340.863803118744
 30
0.0
 10
1066.961995406682
 20
2346.040630566004
 30
0.0
 10
1067.471393730476
 20
2351.962698036564
 30
0.0
 10
1068.020670939286
 20
2358.669724952696
 30
0.0
 10
1068.59548427886
 20
2366.209366328089
 30
0.0
 10
1069.171200406646
 20
2374.580206152133
 30
0.0
 10
1069.722401116234
 20
2383.836018716419
 30
0.0
 10
1070.210905947559
 20
2394.041717441999
 30
0.0
 10
1070.602080884231
 20
2404.954166342034
 30
0.0
 10
1070.718615428786
 20
2412.500507377129
 30
0.0
 10
1070.776882955471
 20
2416.273694369161
 30
0.0
  0
LINE
  5
83
330
1F
100
AcDbEntity
  8
0
  6
Continuous
 62
     7
370
    25
100
AcDbLine
 10
1205.4482394756
 20
2417.0742947413
 30
0.0
 11
1205.4159072836
 21
2422.4702381525
 31
0.0
  0
LINE
  5
84
330
1F
100
AcDbEntity
  8
0
  6
Continuous
 62
     7
370
    25
100
AcDbLine
 10
935.4207541115
 20
2420.8524422506
 30
0.0
 11
935.4530863036
 21
2415.4564988395
 31
0.0
  0
LINE
  5
85
330
1F
100
AcDbEntity
  8
0
  6
Continuous
 62
     7
370
    25
100
AcDbLine
 10
1170.3113800409
 20
2439.8100088215
 30
0.0
 11
1170.2989639688
 21
2441.8821362731
 31
0.0
  0
LINE
  5
86
330
1F
100
AcDbEntity
  8
0
  6
Continuous
 62
     7
370
    25
100
AcDbLine
 10
970.3025542117
 20
2440.6837689384
 30
0.0
 11
970.3149702838
 21
2438.6116414868
 31
0.0
  0
LINE
  5
87
330
1F
100
AcDbEntity
  8
0
  6
Continuous
 62
     7
370
    25
100
AcDbLine
 10
1110.5230817198
 20
1483.3057454006
 30
0.0
 11
1105.0623635348
 21
2394.6490372887
 31
0.0
  0
LINE
  5
88
330
1F
100
AcDbEntity
  8
0
  6
Continuous
 62
     7
370
    25
100
AcDbLine
 10
1102.0624173885
 20
2394.6310617787
 30
0.0
 11
1107.52267262
 21
1483.3650325314
 31
0.0
  0
LWPOLYLINE
  5
89
330
1F
100
AcDbEntity
  8
0
  6
Continuous
 62
     7
370
    25
100
AcDbPolyline
 90
      184
 70
   128
 43
0.0
 10
872.3533879882
 20
886.7155169075
 10
865.0217516485
 20
888.0731137983
 10
857.9427586803
 20
889.4800466653
 10
851.1247533155
 20
890.9346571126
 10
844.575772152
 20
892.4352305449
 10
838.3035346802
 20
893.979998189
 10
832.3154341839
 20
895.5671391787
 10
826.6185290261
 20
897.1947827009
 10
821.2195343282
 20
898.8610102008
 10
816.1248140554
 20
900.5638576436
 10
811.3403735151
 20
902.3013178294
 10
806.871852278
 20
904.0713427591
 10
802.724517531
 20
905.8718460486
 10
798.9032578682
 20
907.7007053878
 10
795.4125775288
 20
909.5557650426
 10
792.2565910876
 20
911.4348383959
 10
789.4390186053
 20
913.3357105246
 10
786.9631812435
 20
915.2561408108
 10
784.8319973495
 20
917.1938655829
 10
783.0479790171
 20
919.1466007836
 10
781.6132291248
 20
921.1120446624
 10
780.5294388575
 20
923.0878804887
 10
779.7978857129
 20
925.0717792825
 10
779.4194319959
 20
927.0614025599
 10
779.3945238018
 20
929.054405089
 10
779.7231904905
 20
931.0484376552
 10
780.4050446524
 20
933.0411498294
 10
781.4392825644
 20
935.0301927388
 10
782.8246851377
 20
937.0132218361
 10
784.5596193547
 20
938.9878996623
 10
786.6420401937
 20
940.9518986024
 10
789.0694930397
 20
942.902903629
 10
791.8391165775
 20
944.8386150311
 10
794.9476461646
 20
946.7567511245
 10
798.3914176792
 20
948.6550509418
 10
802.1663718393
 20
950.5312768972
 10
806.2680589876
 20
952.3832174242
 10
810.691644336
 20
954.2086895819
 10
815.4319136653
 20
956.0055416289
 10
820.4832794705
 20
957.7716555591
 10
825.8397875477
 20
959.5049495982
 10
831.4951240119
 20
961.2033806581
 10
837.44262274
 20
962.8649467444
 10
843.6752732277
 20
964.487689317
 10
850.1857288535
 20
966.0696955979
 10
856.9663155383
 20
967.6091008266
 10
864.0090407909
 20
969.1040904576
 10
871.3056031291
 20
970.5529022996
 10
878.847401865
 20
971.9538285922
 10
886.6255472427
 20
973.3052180197
 10
894.6308709173
 20
974.6054776566
 10
902.8539367614
 20
975.853074846
 10
911.2850519884
 20
977.0465390058
 10
919.9142785769
 20
978.1844633621
 10
928.7314449857
 20
979.2655066077
 10
937.726158143
 20
980.2883944828
 10
946.887815697
 20
981.2519212773
 10
956.2056185131
 20
982.1549512517
 10
965.6685834037
 20
982.9964199762
 10
975.2655560738
 20
983.7753355851
 10
984.9852242694
 20
984.490779946
 10
994.8161311113
 20
985.1419097421
 10
1004.7466885998
 20
985.7279574661
 10
1014.765191274
 20
986.2482323253
 10
1024.8598300091
 20
986.7021210551
 10
1035.0187059363
 20
987.0890886427
 10
1045.2298444684
 20
987.4086789572
 10
1055.4812094148
 20
987.6605152873
 10
1065.7607171685
 20
987.8443007858
 10
1076.05625095
 20
987.9598188187
 10
1086.355675089
 20
988.0069332214
 10
1096.6468493299
 20
987.9855884587
 10
1106.9176431412
 20
987.8958096902
 10
1117.1559500148
 20
987.7377027411
 10
1127.3497017358
 20
987.511453977
 10
1137.4868826076
 20
987.2173300844
 10
1147.5555436159
 20
986.8556777565
 10
1157.5438165127
 20
986.4269232842
 10
1167.439927806
 20
985.9315720539
 10
1177.2322126376
 20
985.3702079518
 10
1186.9091285328
 20
984.7434926753
 10
1196.4592690059
 20
984.0521649536
 10
1205.8713770055
 20
983.2970396764
 10
1215.1343581832
 20
982.4790069337
 10
1224.2372939714
 20
981.5990309664
 10
1233.1694544527
 20
980.65814903
 10
1241.9203110081
 20
979.6574701715
 10
1250.4795487274
 20
978.5981739228
 10
1258.8370785673
 20
977.4815089097
 10
1266.983049244
 20
976.3087913804
 10
1274.9078588453
 20
975.081403654
 10
1282.6021661484
 20
973.8007924911
 10
1290.0569016308
 20
972.4684673885
 10
1297.2632781608
 20
971.0859987997
 10
1304.2128013555
 20
969.655016284
 10
1310.8972795929
 20
968.1772065855
 10
1317.3088336678
 20
966.6543116452
 10
1323.4399060794
 20
965.0881265473
 10
1329.2832699395
 20
963.4804974036
 10
1334.832037491
 20
961.833319177
 10
1340.0796682268
 20
960.1485334486
 10
1345.0199765991
 20
958.4281261283
 10
1349.6471393109
 20
956.6741251145
 10
1353.9557021795
 20
954.8885979034
 10
1357.9405865663
 20
953.0736491522
 10
1361.5970953624
 20
951.2314181982
 10
1364.9209185256
 20
949.3640765371
 10
1367.908138161
 20
947.4738252632
 10
1370.5552331386
 20
945.5628924754
 10
1372.8590832441
 20
943.6335306504
 10
1374.8169728568
 20
941.6880139876
 10
1376.4265941506
 20
939.728635729
 10
1377.6860498141
 20
937.7577054554
 10
1378.5938552872
 20
935.7775463643
 10
1379.1489405111
 20
933.7904925318
 10
1379.3506511892
 20
931.7988861608
 10
1379.1987495589
 20
929.8050748204
 10
1378.6934146713
 20
927.811408679
 10
1377.8352421807
 20
925.8202377336
 10
1376.625243642
 20
923.8339090401
 10
1375.0648453185
 20
921.8547639468
 10
1373.1558865011
 20
919.8851353344
 10
1370.9006173395
 20
917.9273448661
 10
1368.3016961906
 20
915.9837002513
 10
1365.3621864846
 20
914.0564925251
 10
1362.0855531143
 20
912.147993348
 10
1358.4756583507
 20
910.2604523281
 10
1354.5367572904
 20
908.3960943695
 10
1350.2734928402
 20
906.5571170496
 10
1345.6908902444
 20
904.745688029
 10
1340.7943511609
 20
902.9639424961
 10
1335.5896472946
 20
901.2139806506
 10
1330.082913594
 20
899.4978652275
 10
1324.2806410197
 20
897.8176190663
 10
1318.1896688931
 20
896.175222726
 10
1311.817176835
 20
894.5726121509
 10
1305.1706763026
 20
893.0116763886
 10
1298.2580017354
 20
891.4942553632
 10
1291.0873013209
 20
890.0221377069
 10
1283.6670273895
 20
888.5970586509
 10
1276.0059264519
 20
887.220697981
 10
1268.1130288891
 20
885.8946780567
 10
1259.9976383083
 20
884.6205618996
 10
1251.6693205761
 20
883.3998513505
 10
1243.1378925428
 20
882.2339852994
 10
1234.4134104717
 20
881.1243379894
 10
1225.5061581846
 20
880.0722173966
 10
1216.4266349404
 20
879.0788636889
 10
1207.1855430592
 20
878.1454477635
 10
1197.7937753073
 20
877.2730698671
 10
1188.2624020573
 20
876.4627582992
 10
1178.602658239
 20
875.7154681994
 10
1168.8259300969
 20
875.0320804221
 10
1158.9437417685
 20
874.4134004981
 10
1148.9677417007
 20
873.8601576849
 10
1138.9096889189
 20
873.3730041072
 10
1128.7814391669
 20
872.9525139883
 10
1118.5949309319
 20
872.5991829732
 10
1108.362171372
 20
872.3134275441
 10
1098.0952221634
 20
872.0955845302
 10
1087.8061852827
 20
871.9459107097
 10
1077.5071887417
 20
871.864582508
 10
1067.2103722922
 20
871.8516957891
 10
1056.9278731162
 20
871.907265743
 10
1046.6718115195
 20
872.0312268678
 10
1036.454276645
 20
872.2234330464
 10
1026.2873122231
 20
872.4836577195
 10
1016.182902375
 20
872.8115941519
 10
1006.1529574871
 20
873.2068557948
 10
996.2093001713
 20
873.6689767406
 10
986.3636513299
 20
874.197412273
 10
976.6276163394
 20
874.7915395083
 10
967.0126713711
 20
875.45065813
 10
957.5301498634
 20
876.1739912143
 10
948.1912291634
 20
876.9606861455
 10
939.006917351
 20
877.8098156217
 10
929.988040264
 20
878.7203787472
 10
921.1452287371
 20
879.6913022124
 10
912.4889060707
 20
880.7214415594
 10
904.0292757452
 20
881.8095825304
 10
895.7763093933
 20
882.9544424993
 10
887.7397350466
 20
884.1546719838
 10
879.9290256685
 20
885.4088562353
 10
872.3533879882
 20
886.7155169075
  0
LWPOLYLINE
  5
8A
330
1F
100
AcDbEntity
  8
0
  6
Continuous
 62
     7
370
    25
100
AcDbPolyline
 90
      183
 70
   128
 43
0.0
 10
875.8196652943
 20
887.43911563
 10
868.5718668305
 20
888.7814494027
 10
861.5752646502
 20
890.1728186038
 10
854.8381967365
 20
891.6115651123
 10
848.3686917805
 20
893.0959743469
 10
842.1744596136
 20
894.6242773089
 10
836.2628820192
 20
896.194652691
 10
830.6410039362
 20
897.8052290469
 10
825.3155250628
 20
899.4540870226
 10
820.292791873
 20
901.1392616427
 10
815.5787900526
 20
902.8587446528
 10
811.1791373669
 20
904.6104869126
 10
807.099076965
 20
906.3924008376
 10
803.343471132
 20
908.2023628874
 10
799.9167954944
 20
910.038216096
 10
796.8231336864
 20
911.8977726425
 10
794.066172483
 20
913.778816458
 10
791.6491974071
 20
915.6791058673
 10
789.5750888136
 20
917.5963762594
 10
787.8463184569
 20
919.5283427871
 10
786.4649465453
 20
921.4727030893
 10
785.4326192857
 20
923.4271400351
 10
784.7505669222
 20
925.389324485
 10
784.4196022693
 20
927.3569180668
 10
784.440119744
 20
929.327575962
 10
784.8120948951
 20
931.2989497004
 10
785.5350844329
 20
933.2686899585
 10
786.608226757
 20
935.2344493598
 10
788.0302429835
 20
937.1938852715
 10
789.7994384687
 20
939.144662597
 10
791.913704829
 20
941.0844565579
 10
794.3705224531
 20
943.0109554653
 10
797.1669635052
 20
944.9218634738
 10
800.2996954134
 20
946.8149033183
 10
803.7649848421
 20
948.6878190275
 10
807.5587021403
 20
950.5383786123
 10
811.6763262635
 20
952.364376726
 10
816.1129501611
 20
954.1636372919
 10
820.8632866246
 20
955.9340160974
 10
825.9216745882
 20
957.6734033485
 10
831.2820858755
 20
959.3797261845
 10
836.938132383
 20
961.0509511484
 10
842.8830736932
 20
962.6850866097
 10
849.1098251072
 20
964.2801851384
 10
855.6109660876
 20
965.8343458253
 10
862.3787491019
 20
967.3457165478
 10
869.4051088553
 20
968.8124961769
 10
876.6816719018
 20
970.2329367235
 10
884.199766624
 20
971.6053454218
 10
891.9504335662
 20
972.9280867465
 10
899.9244361122
 20
974.1995843616
 10
908.1122714924
 20
975.4183229995
 10
916.5041821087
 20
976.5828502663
 10
925.0901671625
 20
977.6917783728
 10
933.8599945734
 20
978.7437857885
 10
942.8032131722
 20
979.7376188162
 10
951.9091651562
 20
980.6720930863
 10
961.1669987905
 20
981.5460949683
 10
970.5656813397
 20
982.3585828974
 10
980.0940122163
 20
983.1085886166
 10
989.7406363282
 20
983.7952183298
 10
999.4940576112
 20
984.4176537674
 10
1009.3426527289
 20
984.9751531614
 10
1019.2746849243
 20
985.4670521292
 10
1029.278318007
 20
985.8927644654
 10
1039.3416304583
 20
986.2517828407
 10
1049.4526296387
 20
986.543679406
 10
1059.5992660793
 20
986.7681063028
 10
1069.7694478417
 20
986.9247960772
 10
1079.9510549283
 20
987.0135619991
 10
1090.1319537253
 20
987.0342982844
 10
1100.3000114632
 20
986.9869802213
 10
1110.4431106756
 20
986.8716641998
 10
1120.5491636394
 20
986.6884876439
 10
1130.6061267803
 20
986.4376688487
 10
1140.6020150253
 20
986.1195067198
 10
1150.5249160855
 20
985.7343804168
 10
1160.363004652
 20
985.2827489022
 10
1170.104556489
 20
984.7651503937
 10
1179.7379624049
 20
984.1822017232
 10
1189.2517420879
 20
983.5345976018
 10
1198.6345577869
 20
982.8231097914
 10
1207.8752278232
 20
982.0485861855
 10
1216.9627399156
 20
981.2119497986
 10
1225.8862643043
 20
980.314197666
 10
1234.6351666566
 20
979.356399656
 10
1243.1990207402
 20
978.3396971944
 10
1251.5676208483
 20
977.265301905
 10
1259.7309939622
 20
976.1344941647
 10
1267.6794116357
 20
974.9486215786
 10
1275.4034015894
 20
973.7090973735
 10
1282.8937589984
 20
972.4173987138
 10
1290.1415574622
 20
971.0750649411
 10
1297.1381596425
 20
969.68369574
 10
1303.8752275562
 20
968.2449492314
 10
1310.3447325122
 20
966.7605399969
 10
1316.5389646791
 20
965.2322370348
 10
1322.4505422734
 20
963.6618616528
 10
1328.0724203565
 20
962.0512852968
 10
1333.3978992298
 20
960.4024273212
 10
1338.4206324197
 20
958.7172527011
 10
1343.13463424
 20
956.9977696909
 10
1347.5342869258
 20
955.2460274312
 10
1351.6143473277
 20
953.4641135061
 10
1355.3699531606
 20
951.6541514563
 10
1358.7966287982
 20
949.8182982477
 10
1361.8902906063
 20
947.9587417013
 10
1364.6472518097
 20
946.0776978857
 10
1367.0642268855
 20
944.1774084765
 10
1369.138335479
 20
942.2601380843
 10
1370.8671058357
 20
940.3281715566
 10
1372.2484777474
 20
938.3838112544
 10
1373.2808050069
 20
936.4293743087
 10
1373.9628573705
 20
934.4671898587
 10
1374.2938220233
 20
932.4995962769
 10
1374.2733045486
 20
930.5289383818
 10
1373.9013293975
 20
928.5575646434
 10
1373.1783398598
 20
926.5878243853
 10
1372.1051975356
 20
924.622064984
 10
1370.6831813092
 20
922.6626290722
 10
1368.913985824
 20
920.7118517468
 10
1366.7997194637
 20
918.7720577858
 10
1364.3429018395
 20
916.8455588785
 10
1361.5464607875
 20
914.93465087
 10
1358.4137288792
 20
913.0416110255
 10
1354.9484394505
 20
911.1686953163
 10
1351.1547221523
 20
909.3181357314
 10
1347.0370980292
 20
907.4921376178
 10
1342.6004741316
 20
905.6928770519
 10
1337.8501376681
 20
903.9224982464
 10
1332.7917497044
 20
902.1831109953
 10
1327.4313384172
 20
900.4767881592
 10
1321.7752919097
 20
898.8055631953
 10
1315.8303505995
 20
897.171427734
 10
1309.6035991855
 20
895.5763292054
 10
1303.102458205
 20
894.0221685185
 10
1296.3346751907
 20
892.510797796
 10
1289.3083154374
 20
891.0440181669
 10
1282.0317523908
 20
889.6235776203
 10
1274.5136576686
 20
888.251168922
 10
1266.7629907264
 20
886.9284275973
 10
1258.7889881805
 20
885.6569299822
 10
1250.6011528003
 20
884.4381913443
 10
1242.209242184
 20
883.2736640775
 10
1233.6232571301
 20
882.164735971
 10
1224.8534297193
 20
881.1127285553
 10
1215.9102111205
 20
880.1188955276
 10
1206.8042591364
 20
879.1844212575
 10
1197.5464255021
 20
878.3104193755
 10
1188.1477429529
 20
877.4979314463
 10
1178.6194120763
 20
876.7479257272
 10
1168.9727879644
 20
876.0612960139
 10
1159.2193666814
 20
875.4388605763
 10
1149.3707715637
 20
874.8813611824
 10
1139.4387393683
 20
874.3894622146
 10
1129.4351062857
 20
873.9637498784
 10
1119.3717938344
 20
873.6047315031
 10
1109.260794654
 20
873.3128349377
 10
1099.1141582134
 20
873.088408041
 10
1088.9439764509
 20
872.9317182666
 10
1078.7623693644
 20
872.8429523447
 10
1068.5814705674
 20
872.8222160594
 10
1058.4134128294
 20
872.8695341224
 10
1048.270313617
 20
872.984850144
 10
1038.1642606532
 20
873.1680266999
 10
1028.1072975123
 20
873.418845495
 10
1018.1114092673
 20
873.737007624
 10
1008.1885082072
 20
874.1221339269
 10
998.3504196406
 20
874.5737654416
 10
988.6088678037
 20
875.0913639501
 10
978.9754618878
 20
875.6743126205
 10
969.4616822048
 20
876.321916742
 10
960.0788665057
 20
877.0334045524
 10
950.8381964695
 20
877.8079281583
 10
941.750684377
 20
878.6445645452
 10
932.8271599884
 20
879.5423166778
 10
924.0782576361
 20
880.5001146878
 10
915.5144035525
 20
881.5168171493
 10
907.1458034443
 20
882.5912124388
 10
898.9824303305
 20
883.722020179
 10
891.0340126569
 20
884.9078927651
 10
883.3100227033
 20
886.1474169703
 10
875.8196652943
 20
887.43911563
  0
LWPOLYLINE
  5
8B
330
1F
100
AcDbEntity
  8
0
  6
Continuous
 62
     7
370
    25
100
AcDbPolyline
 90
       85
 70
   128
 43
0.0
 10
826.3740208993
 20
1434.6134758417
 10
826.3761091552
 20
1434.6356647365
 10
826.7264812717
 20
1436.4564981204
 10
827.4301381862
 20
1438.2755315247
 10
828.4860839509
 20
1440.090190311
 10
829.8928239928
 20
1441.8979060327
 10
831.6483672286
 20
1443.6961200703
 10
833.7502288832
 20
1445.482287253
 10
836.1954340064
 20
1447.2538794609
 10
838.9805216838
 20
1449.0083892033
 10
842.1015499352
 20
1450.7433331678
 10
845.5541012943
 20
1452.4562557352
 10
849.3332890605
 20
1454.1447324553
 10
853.4337642163
 20
1455.8063734781
 10
857.8497229975
 20
1457.4388269364
 10
862.5749151083
 20
1459.039782275
 10
867.6026525678
 20
1460.6069735206
 10
872.9258191756
 20
1462.1381824892
 10
878.5368805849
 20
1463.6312419259
 10
884.4278949655
 20
1465.0840385718
 10
890.5905242454
 20
1466.4945161558
 10
897.0160459119
 20
1467.8606783047
 10
903.6953653578
 20
1469.1805913686
 10
910.6190287531
 20
1470.4523871583
 10
917.7772364267
 20
1471.6742655889
 10
925.159856736
 20
1472.8444972283
 10
932.7564404075
 20
1473.9614257444
 10
940.5562353266
 20
1475.0234702497
 10
948.5482017556
 20
1476.0291275391
 10
956.7210279599
 20
1476.9769742171
 10
965.0631462178
 20
1477.8656687127
 10
973.5627491939
 20
1478.6939531782
 10
982.2078066505
 20
1479.4606552697
 10
990.9860824756
 20
1480.164689806
 10
999.8851520013
 20
1480.8050603049
 10
1008.8924195899
 20
1481.3808603937
 10
1017.9951364614
 20
1481.8912750917
 10
1027.1804187378
 20
1482.335581964
 10
1036.4352656793
 20
1482.7131521439
 10
1045.746578085
 20
1483.0234512229
 10
1055.1011768333
 20
1483.2660400076
 10
1064.4858215358
 20
1483.4405751405
 10
1073.8872292774
 20
1483.5468095867
 10
1083.2920934168
 20
1483.5845929832
 10
1092.6871024203
 20
1483.5538718519
 10
1102.0589587034
 20
1483.4546896751
 10
1111.3943974515
 20
1483.287186834
 10
1120.6802053949
 20
1483.0516004102
 10
1129.903239511
 20
1482.74826385
 10
1139.0504456262
 20
1482.3776064923
 10
1148.1088768932
 20
1481.9401529611
 10
1157.0657121156
 20
1481.4365224231
 10
1165.9082738945
 20
1480.8674277109
 10
1174.6240465727
 20
1480.2336743144
 10
1183.2006939485
 20
1479.5361592408
 10
1191.6260767367
 20
1478.7758697445
 10
1199.8882697501
 20
1477.9538819305
 10
1207.9755787784
 20
1477.0713592304
 10
1215.8765571399
 20
1476.1295507565
 10
1223.5800218835
 20
1475.1297895334
 10
1231.0750696161
 20
1474.0734906113
 10
1238.3510919358
 20
1472.9621490631
 10
1245.3977904467
 20
1471.7973378687
 10
1252.205191335
 20
1470.5807056879
 10
1258.763659486
 20
1469.3139745275
 10
1265.0639121214
 20
1467.998937304
 10
1271.0970319382
 20
1466.6374553053
 10
1276.8544797298
 20
1465.2314555571
 10
1282.3281064728
 20
1463.7829280948
 10
1287.5101648605
 20
1462.2939231469
 10
1292.3933202689
 20
1460.7665482336
 10
1296.9706611374
 20
1459.2029651831
 10
1301.235708752
 20
1457.6053870725
 10
1305.1824264147
 20
1455.9760750949
 10
1308.8052279879
 20
1454.3173353592
 10
1312.0989858012
 20
1452.631515626
 10
1315.0590379087
 20
1450.9210019847
 10
1317.6811946877
 20
1449.1882154761
 10
1319.9617447684
 20
1447.4356086656
 10
1321.8974602872
 20
1445.6656621722
 10
1323.4856014553
 20
1443.8808811573
 10
1324.7239204364
 20
1442.0837917787
 10
1325.6106645285
 20
1440.2769376157
 10
1326.1445786445
 20
1438.4628760681
 10
1326.2733639352
 20
1437.6088448289
  0
LWPOLYLINE
  5
8C
330
1F
100
AcDbEntity
  8
0
  6
Continuous
 62
     7
370
    25
100
AcDbPolyline
 90
       10
 70
   128
 43
0.0
 10
1150.0269917784
 20
2433.1813989723
 10
1150.1278598709
 20
2433.2869646776
 10
1150.4413024547
 20
2433.3844184629
 10
1150.9200272969
 20
2433.4523326753
 10
1151.4911528799
 20
2433.4803679917
 10
1152.0677305109
 20
2433.4642562892
 10
1152.5619814723
 20
2433.4064504286
 10
1152.8986605357
 20
2433.3157508281
 10
1153.0265113656
 20
2433.2059656796
 10
1153.0269379247
 20
2433.1993744823
  0
LWPOLYLINE
  5
8D
330
1F
100
AcDbEntity
  8
0
  6
Continuous
 62
     7
370
    25
100
AcDbPolyline
 90
       10
 70
   128
 43
0.0
 10
954.7626602824
 20
2420.9567663552
 10
954.863528375
 20
2421.0623320605
 10
955.1769709588
 20
2421.1597858458
 10
955.655695801
 20
2421.2277000582
 10
956.2268213839
 20
2421.2557353746
 10
956.803399015
 20
2421.2396236721
 10
957.2976499764
 20
2421.1818178115
 10
957.6343290398
 20
2421.091118211
 10
957.7621798697
 20
2420.9813330625
 10
957.7626064288
 20
2420.9747418652
  0
SPLINE
  5
8E
330
1F
100
AcDbEntity
  8
0
  6
Continuous
 62
     7
370
    25
100
AcDbSpline
210
0.0
220
0.0
230
1.0
 70
     8
 71
     3
 72
    17
 73
    13
 74
     0
 42
0.00000001
 43
0.00000001
 40
0.0
 40
0.0
 40
0.0
 40
0.0
 40
0.0671685660442768
 40
0.1577085377046225
 40
0.2548484498200466
 40
0.3629174576844194
 40
0.4832143224697387
 40
0.612018258598367
 40
0.7398962095425535
 40
0.8562483071039475
 40
0.9575109985747727
 40
1.0
 40
1.0
 40
1.0
 40
1.0
 10
1070.772533086956
 20
2416.273709022521
 30
0.0
 10
1070.768404806553
 20
2416.292843738741
 30
0.0
 10
1070.758711804246
 20
2416.337771125049
 30
0.0
 10
1070.587333940242
 20
2416.403289228258
 30
0.0
 10
1070.29455089214
 20
2416.464365974947
 30
0.0
 10
1069.875819895689
 20
2416.509169017258
 30
0.0
 10
1069.358140602746
 20
2416.52912265141
 30
0.0
 10
1068.799038101629
 20
2416.515550564937
 30
0.0
 10
1068.292096169429
 20
2416.46615821249
 30
0.0
 10
1067.948366293919
 20
2416.390422658555
 30
0.0
 10
1067.790789845245
 20
2416.318758078455
 30
0.0
 10
1067.802502565957
 20
2416.277935040365
 30
0.0
 10
1067.805964520367
 20
2416.265868885952
 30
0.0
  0
ARC
  5
8F
330
1F
100
AcDbEntity
  8
0
  6
Continuous
 62
     7
370
    25
100
AcDbCircle
 10
1009.8395529926
 20
2586.4604524414
 30
0.0
 40
192.4123319453423
100
AcDbArc
 50
254.3335357416
 51
260.2634591569
  0
LWPOLYLINE
  5
90
330
1F
100
AcDbEntity
  8
0
  6
Continuous
 62
     7
370
    25
100
AcDbPolyline
 90
       92
 70
   128
 43
0.0
 10
954.8756573448
 20
2402.0986031466
 10
952.1593590701
 20
2402.9948084216
 10
948.992157903
 20
2404.1618098105
 10
946.1418281074
 20
2405.3603880758
 10
943.6158058683
 20
2406.5874162638
 10
941.4206812894
 20
2407.8396931979
 10
939.5621812001
 20
2409.1139518307
 10
938.0451542148
 20
2410.4068677668
 10
936.8735580839
 20
2411.7150679363
 10
936.0504493677
 20
2413.0351393941
 10
935.577975463
 20
2414.3636382247
 10
935.4573690002
 20
2415.6970985263
 10
935.6889446279
 20
2417.0320414531
 10
936.2720981917
 20
2418.3649842916
 10
937.2053083104
 20
2419.6924495459
 10
938.4861403455
 20
2421.010974011
 10
940.1112527523
 20
2422.3171178069
 10
942.0764057983
 20
2423.6074733536
 10
944.3764726235
 20
2424.878674261
 10
947.0054526161
 20
2426.1274041108
 10
949.9564870675
 20
2427.3504051096
 10
953.2218770658
 20
2428.5444865873
 10
956.7931035813
 20
2429.7065333218
 10
960.6608496918
 20
2430.8335136657
 10
964.8150248894
 20
2431.9224874561
 10
969.2447914051
 20
2432.9706136846
 10
973.938592484
 20
2433.9751579096
 10
978.884182535
 20
2434.93349939
 10
984.0686590783
 20
2435.8431379221
 10
989.4784964066
 20
2436.701700363
 10
995.099580872
 20
2437.5069468213
 10
1000.9172477069
 20
2438.2567765009
 10
1006.9163192828
 20
2438.9492331817
 10
1013.0811447069
 20
2439.5825103234
 10
1019.3956406536
 20
2440.1549557782
 10
1025.8433333239
 20
2440.6650761013
 10
1032.4074014238
 20
2441.111540447
 10
1039.0707200492
 20
2441.4931840407
 10
1045.8159053626
 20
2441.809011218
 10
1052.6253599456
 20
2442.0581980218
 10
1059.4813187086
 20
2442.2400943522
 10
1066.3658952382
 20
2442.3542256624
 10
1073.2611284603
 20
2442.4002941968
 10
1080.1490294985
 20
2442.3781797679
 10
1087.0116286056
 20
2442.2879400698
 10
1093.831022044
 20
2442.1298105275
 10
1100.589418795
 20
2441.9042036828
 10
1107.269186973
 20
2441.6117081184
 10
1113.8528998255
 20
2441.2530869218
 10
1120.3233811975
 20
2440.8292756946
 10
1126.6637503417
 20
2440.3413801121
 10
1132.8574659592
 20
2439.790673038
 10
1138.888369353
 20
2439.1785912043
 10
1144.7407265847
 20
2438.5067314625
 10
1150.3992695225
 20
2437.7768466181
 10
1155.8492356741
 20
2436.9908408572
 10
1161.0764066999
 20
2436.1507647792
 10
1166.0671455077
 20
2435.2588100465
 10
1170.8084318296
 20
2434.3173036673
 10
1175.2878961911
 20
2433.3287019242
 10
1179.493852181
 20
2432.2955839662
 10
1183.4153269405
 20
2431.2206450802
 10
1187.0420897895
 20
2430.106689659
 10
1190.3646789181
 20
2428.9566238851
 10
1193.3744260704
 20
2427.7734481488
 10
1196.0634791598
 20
2426.5602492204
 10
1198.4248227539
 20
2425.3201921975
 10
1200.4522963767
 20
2424.0565122472
 10
1202.1406105812
 20
2422.7725061663
 10
1203.4853607483
 20
2421.47152378
 10
1204.4830385784
 20
2420.1569592028
 10
1205.1310412439
 20
2418.8322419836
 10
1205.4276781799
 20
2417.5008281584
 10
1205.3721754944
 20
2416.1661912338
 10
1204.9646779878
 20
2414.8318131252
 10
1204.2062487743
 20
2413.5011750726
 10
1203.0988665092
 20
2412.1777485589
 10
1201.6454202265
 20
2410.8649862528
 10
1199.8497018015
 20
2409.5663130011
 10
1197.7163960586
 20
2408.2851168941
 10
1195.2510685488
 20
2407.0247404262
 10
1192.4601510302
 20
2405.7884717757
 10
1189.3509246879
 20
2404.5795362263
 10
1185.9315011384
 20
2403.4010877528
 10
1182.2108012673
 20
2402.2562007928
 10
1178.1985319558
 20
2401.1478622256
 10
1173.9051607564
 20
2400.0789635799
 10
1169.3418885844
 20
2399.0522934904
 10
1164.5206204957
 20
2398.070530422
 10
1159.4539346285
 20
2397.1362356826
 10
1154.1550493875
 20
2396.2518467403
 10
1153.2491796343
 20
2396.1092913863
  0
LWPOLYLINE
  5
91
330
1F
100
AcDbEntity
  8
0
  6
Continuous
 62
     7
370
    25
100
AcDbPolyline
 90
       10
 70
   128
 43
0.0
 10
1150.2518516066
 20
2395.6543761276
 10
1148.6377889593
 20
2395.4196708649
 10
1142.9165472466
 20
2394.6418791084
 10
1137.0062503156
 20
2393.9205006406
 10
1130.9223174562
 20
2393.2574174555
 10
1124.6806209546
 20
2392.6543594615
 10
1118.2974446843
 20
2392.112899968
 10
1111.7894416234
 20
2391.634451581
 10
1105.1735904088
 20
2391.2202625178
 10
1105.0829396334
 20
2391.2150769927
  0
LWPOLYLINE
  5
92
330
1F
100
AcDbEntity
  8
0
  6
Continuous
 62
     7
370
    25
100
AcDbPolyline
 90
        7
 70
   128
 43
0.0
 10
1102.0838699162
 20
2391.0508335865
 10
1098.4671510409
 20
2390.8714133502
 10
1091.6876198542
 20
2390.588814186
 10
1084.8526838717
 20
2390.3732022941
 10
1077.9801746608
 20
2390.2251401814
 10
1071.0880218134
 20
2390.1450141248
 10
1070.0027054218
 20
2390.1386071617
  0
LWPOLYLINE
  5
93
330
1F
100
AcDbEntity
  8
0
  6
Continuous
 62
     7
370
    25
100
AcDbPolyline
 90
       16
 70
   128
 43
0.0
 10
1067.0080879229
 20
2390.1296874218
 10
1064.1942061694
 20
2390.1330331643
 10
1057.3167129066
 20
2390.1892285567
 10
1050.4734846196
 20
2390.3134536947
 10
1043.6823745098
 20
2390.5053844891
 10
1036.9610998081
 20
2390.7645202143
 10
1030.3271955526
 20
2391.0901848149
 10
1023.7979688422
 20
2391.481528669
 10
1017.3904536838
 20
2391.9375308053
 10
1011.1213665529
 20
2392.4570015662
 10
1005.007062782
 20
2393.0385857119
 10
999.0634938916
 20
2393.6807659557
 10
993.3061659741
 20
2394.3818669226
 10
987.7500992409
 20
2395.1400595203
 10
982.4097888357
 20
2395.9533657109
 10
977.2991670184
 20
2396.8196636714
  0
LWPOLYLINE
  5
94
330
1F
100
AcDbEntity
  8
0
  6
Continuous
 62
     7
370
    25
100
AcDbPolyline
 90
       10
 70
   128
 43
0.0
 10
1102.0624173885
 20
2394.6310617787
 10
1102.163285481
 20
2394.7366274841
 10
1102.4767280648
 20
2394.8340812694
 10
1102.955452907
 20
2394.9019954818
 10
1103.52657849
 20
2394.9300307981
 10
1104.103156121
 20
2394.9139190957
 10
1104.5974070824
 20
2394.8561132351
 10
1104.9340861458
 20
2394.7654136345
 10
1105.0619369757
 20
2394.6556284861
 10
1105.0623635348
 20
2394.6490372887
  0
LWPOLYLINE
  5
95
330
1F
100
AcDbEntity
  8
0
  6
Continuous
 62
     7
370
    25
100
AcDbPolyline
 90
       64
 70
   128
 43
0.0
 10
935.4207541115
 20
2420.8524422506
 10
935.4250368082
 20
2421.0930419374
 10
935.6566124359
 20
2422.4279848643
 10
936.2397659996
 20
2423.7609277027
 10
937.1729761184
 20
2425.0883929571
 10
938.4538081534
 20
2426.4069174221
 10
940.0789205603
 20
2427.713061218
 10
942.0440736063
 20
2429.0034167648
 10
944.3441404315
 20
2430.2746176721
 10
946.9731204241
 20
2431.523347522
 10
949.9241548755
 20
2432.7463485207
 10
953.1895448738
 20
2433.9404299985
 10
956.7607713893
 20
2435.1024767329
 10
960.6285174998
 20
2436.2294570769
 10
964.7826926973
 20
2437.3184308672
 10
969.2124592131
 20
2438.3665570958
 10
973.906260292
 20
2439.3711013208
 10
978.851850343
 20
2440.3294428011
 10
984.0363268863
 20
2441.2390813333
 10
989.4461642146
 20
2442.0976437742
 10
995.06724868
 20
2442.9028902325
 10
1000.8849155149
 20
2443.652719912
 10
1006.8839870908
 20
2444.3451765929
 10
1013.0488125149
 20
2444.9784537346
 10
1019.3633084615
 20
2445.5508991894
 10
1025.8110011319
 20
2446.0610195124
 10
1032.3750692318
 20
2446.5074838581
 10
1039.0383878572
 20
2446.8891274519
 10
1045.7835731706
 20
2447.2049546292
 10
1052.5930277535
 20
2447.454141433
 10
1059.4489865166
 20
2447.6360377633
 10
1066.3335630462
 20
2447.7501690735
 10
1073.2287962682
 20
2447.7962376079
 10
1080.1166973065
 20
2447.7741231791
 10
1086.9792964136
 20
2447.6838834809
 10
1093.798689852
 20
2447.5257539386
 10
1100.5570866029
 20
2447.300147094
 10
1107.2368547809
 20
2447.0076515296
 10
1113.8205676335
 20
2446.6490303329
 10
1120.2910490054
 20
2446.2252191058
 10
1126.6314181497
 20
2445.7373235232
 10
1132.8251337672
 20
2445.1866164492
 10
1138.8560371609
 20
2444.5745346155
 10
1144.7083943926
 20
2443.9026748737
 10
1150.3669373305
 20
2443.1727900293
 10
1155.8169034821
 20
2442.3867842684
 10
1161.0440745079
 20
2441.5467081903
 10
1166.0348133156
 20
2440.6547534577
 10
1170.7760996376
 20
2439.7132470784
 10
1175.255563999
 20
2438.7246453353
 10
1179.461519989
 20
2437.6915273774
 10
1183.3829947484
 20
2436.6165884914
 10
1187.0097575975
 20
2435.5026330702
 10
1190.3323467261
 20
2434.3525672963
 10
1193.3420938784
 20
2433.1693915599
 10
1196.0311469678
 20
2431.9561926316
 10
1198.3924905618
 20
2430.7161356086
 10
1200.4199641847
 20
2429.4524556584
 10
1202.1082783892
 20
2428.1684495775
 10
1203.4530285563
 20
2426.8674671912
 10
1204.4507063863
 20
2425.552902614
 10
1205.0987090519
 20
2424.2281853948
 10
1205.3953459879
 20
2422.8967715696
 10
1205.4159072836
 20
2422.4702381525
  0
LWPOLYLINE
  5
96
330
1F
100
AcDbEntity
  8
0
  6
Continuous
 62
     7
370
    25
100
AcDbPolyline
 90
       55
 70
   128
 43
0.0
 10
970.3025542117
 20
2440.6837689384
 10
970.3236609907
 20
2441.1045356788
 10
970.6211491807
 20
2442.2516966853
 10
971.2687656359
 20
2443.395454943
 10
972.2642355799
 20
2444.5317929591
 10
973.6040623883
 20
2445.656719305
 10
975.2835398706
 20
2446.7662826358
 10
977.2967688007
 20
2447.85658557
 10
979.6366776387
 20
2448.9237983786
 10
982.2950473695
 20
2449.9641724377
 10
985.2625403724
 20
2450.9740533956
 10
988.5287332199
 20
2451.9498940085
 10
992.0821532907
 20
2452.8882666007
 10
995.9103190671
 20
2453.7858751042
 10
999.9997839772
 20
2454.6395666364
 10
1004.3361836264
 20
2455.4463425748
 10
1008.9042862526
 20
2456.2033690893
 10
1013.688046229
 20
2456.9079870967
 10
1018.670660424
 20
2457.5577216006
 10
1023.8346272236
 20
2458.1502903849
 10
1029.161808006
 20
2458.68361203
 10
1034.6334908546
 20
2459.1558132243
 10
1040.2304562836
 20
2459.5652353438
 10
1045.9330447479
 20
2459.9104402785
 10
1051.7212256977
 20
2460.1902154833
 10
1057.574667936
 20
2460.4035782376
 10
1063.4728110337
 20
2460.5497790971
 10
1069.394937548
 20
2460.6283045258
 10
1075.3202457934
 20
2460.6388787004
 10
1081.2279229088
 20
2460.5814644786
 10
1087.0972179627
 20
2460.4562635301
 10
1092.9075148422
 20
2460.2637156276
 10
1098.6384046677
 20
2460.0044971028
 10
1104.2697574795
 20
2459.6795184701
 10
1109.7817929456
 20
2459.2899212289
 10
1115.1551498404
 20
2458.8370738536
 10
1120.3709540518
 20
2458.3225669872
 10
1125.4108848772
 20
2457.7482078539
 10
1130.2572393758
 20
2457.116013911
 10
1134.8929945508
 20
2456.4282057628
 10
1139.3018671429
 20
2455.6871993605
 10
1143.4683708265
 20
2454.8955975162
 10
1147.3778706053
 20
2454.0561807601
 10
1151.0166342188
 20
2453.1718975743
 10
1154.371880377
 20
2452.2458540357
 10
1157.4318236556
 20
2451.281302906
 10
1160.1857158921
 20
2450.2816322062
 10
1162.6238839396
 20
2449.2503533161
 10
1164.737763644
 20
2448.1910886404
 10
1166.5199299255
 20
2447.107558885
 10
1167.9641228603
 20
2446.0035699875
 10
1169.0652696679
 20
2444.8829997494
 10
1169.8195025301
 20
2443.7497842143
 10
1170.2241721763
 20
2442.6079038433
 10
1170.2989639688
 20
2441.8821362731
  0
ENDSEC
  0
SECTION
  2
OBJECTS
  0
DICTIONARY
  5
C
330
0
100
AcDbDictionary
281
     1
  3
ACAD_GROUP
350
D
  3
ACAD_LAYOUT
350
1A
  3
ACAD_MLINESTYLE
350
17
  3
ACAD_PLOTSETTINGS
350
19
  3
ACAD_PLOTSTYLENAME
350
E
  3
ACAD_SCALELIST
350
47
  3
DWGPROPS
350
97
  0
DICTIONARY
  5
D
102
{ACAD_REACTORS
330
C
102
}
330
C
100
AcDbDictionary
281
     1
  0
DICTIONARY
  5
1A
102
{ACAD_REACTORS
330
C
102
}
330
C
100
AcDbDictionary
281
     1
  3
Layout1
350
1E
  3
Layout2
350
26
  3
Model
350
22
  0
DICTIONARY
  5
17
102
{ACAD_REACTORS
330
C
102
}
330
C
100
AcDbDictionary
281
     1
  3
Standard
350
18
  0
DICTIONARY
  5
19
102
{ACAD_REACTORS
330
C
102
}
330
C
100
AcDbDictionary
281
     1
  0
ACDBDICTIONARYWDFLT
  5
E
102
{ACAD_REACTORS
330
C
102
}
330
C
100
AcDbDictionary
281
     1
  3
Normal
350
F
100
AcDbDictionaryWithDefault
340
F
  0
DICTIONARY
  5
47
102
{ACAD_REACTORS
330
C
102
}
330
C
100
AcDbDictionary
281
     1
  3
A0
350
48
  3
A1
350
49
  3
A2
350
4A
  3
A3
350
4B
  3
A4
350
4C
  3
A5
350
4D
  3
A6
350
4E
  3
A7
350
4F
  3
A8
350
50
  3
A9
350
51
  3
B0
350
52
  3
B1
350
53
  3
B2
350
54
  3
B3
350
55
  3
B4
350
56
  3
B5
350
57
  3
B6
350
58
  3
B7
350
59
  3
B8
350
5A
  3
B9
350
5B
  3
C0
350
5C
  3
C1
350
5D
  3
C2
350
5E
  3
C3
350
5F
  3
C4
350
60
  3
C5
350
61
  3
C6
350
62
  3
C7
350
63
  3
C8
350
64
  3
C9
350
65
  3
D0
350
66
  3
D1
350
67
  3
D2
350
68
  0
XRECORD
  5
97
102
{ACAD_REACTORS
330
C
102
}
330
C
100
AcDbXrecord
280
     1
  1
DWGPROPS COOKIE
  2

  3

  4

  6

  7

  8
9222
  9

300
=
301
=
302
=
303
=
304
=
305
=
306
=
307
=
308
=
309
=
 40
0.0
 41
2459920.195659386
 42
2459920.19565963
  1

 90
        0
  0
LAYOUT
  5
1E
102
{ACAD_REACTORS
330
1A
102
}
330
1A
100
AcDbPlotSettings
  1

  2
none_device
  4

  6

 40
0.0
 41
0.0
 42
0.0
 43
0.0
 44
0.0
 45
0.0
 46
0.0
 47
0.0
 48
0.0
 49
0.0
140
0.0
141
0.0
142
1.0
143
1.0
 70
   688
 72
     1
 73
     0
 74
     5
  7

 75
    16
147
1.0
148
0.0
149
0.0
100
AcDbLayout
  1
Layout1
 70
     1
 71
     1
 10
0.0
 20
0.0
 11
420.0
 21
297.0
 12
0.0
 22
0.0
 32
0.0
 14
1.0000000000E+20
 24
1.0000000000E+20
 34
1.0000000000E+20
 15
-1.0000000000E+20
 25
-1.0000000000E+20
 35
-1.0000000000E+20
146
0.0
 13
0.0
 23
0.0
 33
0.0
 16
1.0
 26
0.0
 36
0.0
 17
0.0
 27
1.0
 37
0.0
 76
     0
330
1B
  0
LAYOUT
  5
26
102
{ACAD_REACTORS
330
1A
102
}
330
1A
100
AcDbPlotSettings
  1

  2
none_device
  4

  6

 40
0.0
 41
0.0
 42
0.0
 43
0.0
 44
0.0
 45
0.0
 46
0.0
 47
0.0
 48
0.0
 49
0.0
140
0.0
141
0.0
142
1.0
143
1.0
 70
   688
 72
     1
 73
     0
 74
     5
  7

 75
    16
147
1.0
148
0.0
149
0.0
100
AcDbLayout
  1
Layout2
 70
     1
 71
     2
 10
0.0
 20
0.0
 11
0.0
 21
0.0
 12
0.0
 22
0.0
 32
0.0
 14
0.0
 24
0.0
 34
0.0
 15
0.0
 25
0.0
 35
0.0
146
0.0
 13
0.0
 23
0.0
 33
0.0
 16
1.0
 26
0.0
 36
0.0
 17
0.0
 27
1.0
 37
0.0
 76
     0
330
23
  0
LAYOUT
  5
22
102
{ACAD_REACTORS
330
1A
102
}
330
1A
100
AcDbPlotSettings
  1

  2
none_device
  4
Letter_(8.50_x_11.00_Inches)
  6

 40
6.35
 41
6.35
 42
6.35000508
 43
6.35000508
 44
215.9
 45
279.4
 46
0.0
 47
0.0
 48
0.0
 49
0.0
140
0.0
141
0.0
142
1.0
143
1.0
 70
  1712
 72
     1
 73
     0
 74
     0
  7

 75
     0
147
1.0
148
0.0
149
0.0
100
AcDbLayout
  1
Model
 70
     1
 71
     0
 10
0.0
 20
0.0
 11
2100.0
 21
2970.0
 12
0.0
 22
0.0
 32
0.0
 14
0.0
 24
0.0
 34
0.0
 15
2100.0
 25
2970.0
 35
0.0
146
0.0
 13
0.0
 23
0.0
 33
0.0
 16
1.0
 26
0.0
 36
0.0
 17
0.0
 27
1.0
 37
0.0
 76
     0
330
1F
331
29
  0
MLINESTYLE
  5
18
102
{ACAD_REACTORS
330
17
102
}
330
17
100
AcDbMlineStyle
  2
Standard
 70
     0
  3

 62
   256
 51
90.0
 52
90.0
 71
     2
 49
0.5
 62
   256
  6
BYLAYER
 49
-0.5
 62
   256
  6
BYLAYER
  0
ACDBPLACEHOLDER
  5
F
102
{ACAD_REACTORS
330
E
102
}
330
E
  0
SCALE
  5
48
102
{ACAD_REACTORS
330
47
102
}
330
47
100
AcDbScale
 70
     0
300
1:1
140
1.0
141
1.0
290
     1
  0
SCALE
  5
49
102
{ACAD_REACTORS
330
47
102
}
330
47
100
AcDbScale
 70
     0
300
1:2
140
1.0
141
2.0
290
     0
  0
SCALE
  5
4A
102
{ACAD_REACTORS
330
47
102
}
330
47
100
AcDbScale
 70
     0
300
1:4
140
1.0
141
4.0
290
     0
  0
SCALE
  5
4B
102
{ACAD_REACTORS
330
47
102
}
330
47
100
AcDbScale
 70
     0
300
1:5
140
1.0
141
5.0
290
     0
  0
SCALE
  5
4C
102
{ACAD_REACTORS
330
47
102
}
330
47
100
AcDbScale
 70
     0
300
1:8
140
1.0
141
8.0
290
     0
  0
SCALE
  5
4D
102
{ACAD_REACTORS
330
47
102
}
330
47
100
AcDbScale
 70
     0
300
1:10
140
1.0
141
10.0
290
     0
  0
SCALE
  5
4E
102
{ACAD_REACTORS
330
47
102
}
330
47
100
AcDbScale
 70
     0
300
1:16
140
1.0
141
16.0
290
     0
  0
SCALE
  5
4F
102
{ACAD_REACTORS
330
47
102
}
330
47
100
AcDbScale
 70
     0
300
1:20
140
1.0
141
20.0
290
     0
  0
SCALE
  5
50
102
{ACAD_REACTORS
330
47
102
}
330
47
100
AcDbScale
 70
     0
300
1:30
140
1.0
141
30.0
290
     0
  0
SCALE
  5
51
102
{ACAD_REACTORS
330
47
102
}
330
47
100
AcDbScale
 70
     0
300
1:40
140
1.0
141
40.0
290
     0
  0
SCALE
  5
52
102
{ACAD_REACTORS
330
47
102
}
330
47
100
AcDbScale
 70
     0
300
1:50
140
1.0
141
50.0
290
     0
  0
SCALE
  5
53
102
{ACAD_REACTORS
330
47
102
}
330
47
100
AcDbScale
 70
     0
300
1:100
140
1.0
141
100.0
290
     0
  0
SCALE
  5
54
102
{ACAD_REACTORS
330
47
102
}
330
47
100
AcDbScale
 70
     0
300
2:1
140
2.0
141
1.0
290
     0
  0
SCALE
  5
55
102
{ACAD_REACTORS
330
47
102
}
330
47
100
AcDbScale
 70
     0
300
4:1
140
4.0
141
1.0
290
     0
  0
SCALE
  5
56
102
{ACAD_REACTORS
330
47
102
}
330
47
100
AcDbScale
 70
     0
300
8:1
140
8.0
141
1.0
290
     0
  0
SCALE
  5
57
102
{ACAD_REACTORS
330
47
102
}
330
47
100
AcDbScale
 70
     0
300
10:1
140
10.0
141
1.0
290
     0
  0
SCALE
  5
58
102
{ACAD_REACTORS
330
47
102
}
330
47
100
AcDbScale
 70
     0
300
100:1
140
100.0
141
1.0
290
     0
  0
SCALE
  5
59
102
{ACAD_REACTORS
330
47
102
}
330
47
100
AcDbScale
 70
     0
300
1/128" = 1'-0"
140
0.0078125
141
12.0
290
     0
  0
SCALE
  5
5A
102
{ACAD_REACTORS
330
47
102
}
330
47
100
AcDbScale
 70
     0
300
1/64" = 1'-0"
140
0.015625
141
12.0
290
     0
  0
SCALE
  5
5B
102
{ACAD_REACTORS
330
47
102
}
330
47
100
AcDbScale
 70
     0
300
1/32" = 1'-0"
140
0.03125
141
12.0
290
     0
  0
SCALE
  5
5C
102
{ACAD_REACTORS
330
47
102
}
330
47
100
AcDbScale
 70
     0
300
1/16" = 1'-0"
140
0.0625
141
12.0
290
     0
  0
SCALE
  5
5D
102
{ACAD_REACTORS
330
47
102
}
330
47
100
AcDbScale
 70
     0
300
3/32" = 1'-0"
140
0.09375
141
12.0
290
     0
  0
SCALE
  5
5E
102
{ACAD_REACTORS
330
47
102
}
330
47
100
AcDbScale
 70
     0
300
1/8" = 1'-0"
140
0.125
141
12.0
290
     0
  0
SCALE
  5
5F
102
{ACAD_REACTORS
330
47
102
}
330
47
100
AcDbScale
 70
     0
300
3/16" = 1'-0"
140
0.1875
141
12.0
290
     0
  0
SCALE
  5
60
102
{ACAD_REACTORS
330
47
102
}
330
47
100
AcDbScale
 70
     0
300
1/4" = 1'-0"
140
0.25
141
12.0
290
     0
  0
SCALE
  5
61
102
{ACAD_REACTORS
330
47
102
}
330
47
100
AcDbScale
 70
     0
300
3/8" = 1'-0"
140
0.375
141
12.0
290
     0
  0
SCALE
  5
62
102
{ACAD_REACTORS
330
47
102
}
330
47
100
AcDbScale
 70
     0
300
1/2" = 1'-0"
140
0.5
141
12.0
290
     0
  0
SCALE
  5
63
102
{ACAD_REACTORS
330
47
102
}
330
47
100
AcDbScale
 70
     0
300
3/4" = 1'-0"
140
0.75
141
12.0
290
     0
  0
SCALE
  5
64
102
{ACAD_REACTORS
330
47
102
}
330
47
100
AcDbScale
 70
     0
300
1" = 1'-0"
140
1.0
141
12.0
290
     0
  0
SCALE
  5
65
102
{ACAD_REACTORS
330
47
102
}
330
47
100
AcDbScale
 70
     0
300
1-1/2" = 1'-0"
140
1.5
141
12.0
290
     0
  0
SCALE
  5
66
102
{ACAD_REACTORS
330
47
102
}
330
47
100
AcDbScale
 70
     0
300
3" = 1'-0"
140
3.0
141
12.0
290
     0
  0
SCALE
  5
67
102
{ACAD_REACTORS
330
47
102
}
330
47
100
AcDbScale
 70
     0
300
6" = 1'-0"
140
6.0
141
12.0
290
     0
  0
SCALE
  5
68
102
{ACAD_REACTORS
330
47
102
}
330
47
100
AcDbScale
 70
     0
300
1'-0" = 1'-0"
140
12.0
141
12.0
290
     0
  0
ENDSEC
  0
EOF
