  0
SECTION
  2
HEADER
  9
$ACADVER
  1
AC1015
  9
$ACADMAINTVER
 70
     6
  9
$DWGCODEPAGE
  3
DOS932
  9
$INSBASE
 10
0.0
 20
0.0
 30
0.0
  9
$EXTMIN
 10
0.0
 20
0.0
 30
0.0
  9
$EXTMAX
 10
2100.0
 20
2970.0
 30
0.0
  9
$LIMMIN
 10
0.0
 20
0.0
  9
$LIMMAX
 10
2100.0
 20
2970.0
  9
$ORTHOMODE
 70
     0
  9
$REGENMODE
 70
     1
  9
$FILLMODE
 70
     1
  9
$QTEXTMODE
 70
     0
  9
$MIRRTEXT
 70
     1
  9
$LTSCALE
 40
10.0
  9
$ATTMODE
 70
     1
  9
$TEXTSIZE
 40
35.0
  9
$TRACEWID
 40
1.0
  9
$TEXTSTYLE
  7
Standard
  9
$CLAYER
  8
0
  9
$CELTYPE
  6
ByLayer
  9
$CECOLOR
 62
   256
  9
$CELTSCALE
 40
1.0
  9
$DISPSILH
 70
     0
  9
$DIMSCALE
 40
1.0
  9
$DIMASZ
 40
33.02
  9
$DIMEXO
 40
10.0
  9
$DIMDLI
 40
3.75
  9
$DIMRND
 40
0.0
  9
$DIMDLE
 40
0.0
  9
$DIMEXE
 40
10.0
  9
$DIMTP
 40
0.0
  9
$DIMTM
 40
0.0
  9
$DIMTXT
 40
35.0
  9
$DIMCEN
 40
2.5
  9
$DIMTSZ
 40
0.0
  9
$DIMTOL
 70
     0
  9
$DIMLIM
 70
     0
  9
$DIMTIH
 70
     1
  9
$DIMTOH
 70
     1
  9
$DIMSE1
 70
     0
  9
$DIMSE2
 70
     0
  9
$DIMTAD
 70
     1
  9
$DIMZIN
 70
     1
  9
$DIMBLK
  1

  9
$DIMASO
 70
     1
  9
$DIMSHO
 70
     1
  9
$DIMPOST
  1

  9
$DIMAPOST
  1

  9
$DIMALT
 70
     0
  9
$DIMALTD
 70
     3
  9
$DIMALTF
 40
0.0393700787
  9
$DIMLFAC
 40
1.0
  9
$DIMTOFL
 70
     1
  9
$DIMTVP
 40
0.0
  9
$DIMTIX
 70
     0
  9
$DIMSOXD
 70
     0
  9
$DIMSAH
 70
     0
  9
$DIMBLK1
  1

  9
$DIMBLK2
  1

  9
$DIMSTYLE
  2
ISO-25
  9
$DIMCLRD
 70
     0
  9
$DIMCLRE
 70
     0
  9
$DIMCLRT
 70
     0
  9
$DIMTFAC
 40
1.0
  9
$DIMGAP
 40
15.24
  9
$DIMJUST
 70
     0
  9
$DIMSD1
 70
     0
  9
$DIMSD2
 70
     0
  9
$DIMTOLJ
 70
     0
  9
$DIMTZIN
 70
     1
  9
$DIMALTZ
 70
     0
  9
$DIMALTTZ
 70
     0
  9
$DIMUPT
 70
     0
  9
$DIMDEC
 70
     2
  9
$DIMTDEC
 70
     2
  9
$DIMALTU
 70
     2
  9
$DIMALTTD
 70
     3
  9
$DIMTXSTY
  7
Standard
  9
$DIMAUNIT
 70
     0
  9
$DIMADEC
 70
     2
  9
$DIMALTRND
 40
0.0
  9
$DIMAZIN
 70
     0
  9
$DIMDSEP
 70
    44
  9
$DIMATFIT
 70
     3
  9
$DIMFRAC
 70
     0
  9
$DIMLDRBLK
  1

  9
$DIMLUNIT
 70
     2
  9
$DIMLWD
 70
    -2
  9
$DIMLWE
 70
    -2
  9
$DIMTMOVE
 70
     0
  9
$LUNITS
 70
     2
  9
$LUPREC
 70
     2
  9
$SKETCHINC
 40
1.0
  9
$FILLETRAD
 40
10.0
  9
$AUNITS
 70
     0
  9
$AUPREC
 70
     2
  9
$MENU
  1
.
  9
$ELEVATION
 40
0.0
  9
$PELEVATION
 40
0.0
  9
$THICKNESS
 40
0.0
  9
$LIMCHECK
 70
     0
  9
$CHAMFERA
 40
0.0
  9
$CHAMFERB
 40
0.0
  9
$CHAMFERC
 40
0.0
  9
$CHAMFERD
 40
0.0
  9
$SKPOLY
 70
     0
  9
$TDCREATE
 40
2459915.703392453
  9
$TDUCREATE
 40
2459915.328392453
  9
$TDUPDATE
 40
2459915.703393356
  9
$TDUUPDATE
 40
2459915.328393356
  9
$TDINDWG
 40
0.0000000116
  9
$TDUSRTIMER
 40
0.0000000116
  9
$USRTIMER
 70
     1
  9
$ANGBASE
 50
0.0
  9
$ANGDIR
 70
     0
  9
$PDMODE
 70
     0
  9
$PDSIZE
 40
-1.0
  9
$PLINEWID
 40
0.0
  9
$SPLFRAME
 70
     0
  9
$SPLINETYPE
 70
     6
  9
$SPLINESEGS
 70
     8
  9
$HANDSEED
  5
B1
  9
$SURFTAB1
 70
     6
  9
$SURFTAB2
 70
     6
  9
$SURFTYPE
 70
     6
  9
$SURFU
 70
     6
  9
$SURFV
 70
     6
  9
$UCSBASE
  2

  9
$UCSNAME
  2

  9
$UCSORG
 10
0.0
 20
0.0
 30
0.0
  9
$UCSXDIR
 10
1.0
 20
0.0
 30
0.0
  9
$UCSYDIR
 10
0.0
 20
1.0
 30
0.0
  9
$UCSORTHOREF
  2

  9
$UCSORTHOVIEW
 70
     0
  9
$UCSORGTOP
 10
0.0
 20
0.0
 30
0.0
  9
$UCSORGBOTTOM
 10
0.0
 20
0.0
 30
0.0
  9
$UCSORGLEFT
 10
0.0
 20
0.0
 30
0.0
  9
$UCSORGRIGHT
 10
0.0
 20
0.0
 30
0.0
  9
$UCSORGFRONT
 10
0.0
 20
0.0
 30
0.0
  9
$UCSORGBACK
 10
0.0
 20
0.0
 30
0.0
  9
$PUCSBASE
  2

  9
$PUCSNAME
  2

  9
$PUCSORG
 10
0.0
 20
0.0
 30
0.0
  9
$PUCSXDIR
 10
1.0
 20
0.0
 30
0.0
  9
$PUCSYDIR
 10
0.0
 20
1.0
 30
0.0
  9
$PUCSORTHOREF
  2

  9
$PUCSORTHOVIEW
 70
     0
  9
$PUCSORGTOP
 10
0.0
 20
0.0
 30
0.0
  9
$PUCSORGBOTTOM
 10
0.0
 20
0.0
 30
0.0
  9
$PUCSORGLEFT
 10
0.0
 20
0.0
 30
0.0
  9
$PUCSORGRIGHT
 10
0.0
 20
0.0
 30
0.0
  9
$PUCSORGFRONT
 10
0.0
 20
0.0
 30
0.0
  9
$PUCSORGBACK
 10
0.0
 20
0.0
 30
0.0
  9
$USERI1
 70
     0
  9
$USERI2
 70
     0
  9
$USERI3
 70
     0
  9
$USERI4
 70
     0
  9
$USERI5
 70
     0
  9
$USERR1
 40
0.0
  9
$USERR2
 40
0.0
  9
$USERR3
 40
0.0
  9
$USERR4
 40
0.0
  9
$USERR5
 40
0.0
  9
$WORLDVIEW
 70
     1
  9
$SHADEDGE
 70
     3
  9
$SHADEDIF
 70
    70
  9
$TILEMODE
 70
     1
  9
$MAXACTVP
 70
    64
  9
$PINSBASE
 10
0.0
 20
0.0
 30
0.0
  9
$PLIMCHECK
 70
     0
  9
$PEXTMIN
 10
1.0000000000E+20
 20
1.0000000000E+20
 30
1.0000000000E+20
  9
$PEXTMAX
 10
-1.0000000000E+20
 20
-1.0000000000E+20
 30
-1.0000000000E+20
  9
$PLIMMIN
 10
0.0
 20
0.0
  9
$PLIMMAX
 10
420.0
 20
297.0
  9
$UNITMODE
 70
     0
  9
$VISRETAIN
 70
     1
  9
$PLINEGEN
 70
     0
  9
$PSLTSCALE
 70
     1
  9
$TREEDEPTH
 70
  3020
  9
$CMLSTYLE
  2
Standard
  9
$CMLJUST
 70
     0
  9
$CMLSCALE
 40
20.0
  9
$PROXYGRAPHICS
 70
     1
  9
$MEASUREMENT
 70
     1
  9
$CELWEIGHT
370
    -1
  9
$ENDCAPS
280
     0
  9
$JOINSTYLE
280
     0
  9
$LWDISPLAY
290
     1
  9
$INSUNITS
 70
     4
  9
$HYPERLINKBASE
  1

  9
$STYLESHEET
  1

  9
$XEDIT
290
     1
  9
$CEPSNTYPE
380
     0
  9
$PSTYLEMODE
290
     1
  9
$FINGERPRINTGUID
  2
{299125d6-f611-44c4-a6c2-7e6f3a9be9ce}
  9
$VERSIONGUID
  2
{FAEB1C32-E019-11D5-929B-00C0DF256EC4}
  9
$EXTNAMES
290
     1
  9
$PSVPSCALE
 40
0.0
  9
$OLESTARTUP
290
     0
  0
ENDSEC
  0
SECTION
  2
CLASSES
  0
CLASS
  1
ACDBDICTIONARYWDFLT
  2
AcDbDictionaryWithDefault
  3
ObjectDBX Classes
 90
        0
280
     0
281
     0
  0
CLASS
  1
VISUALSTYLE
  2
AcDbVisualStyle
  3
ObjectDBX Classes
 90
     4095
280
     0
281
     0
  0
CLASS
  1
MATERIAL
  2
AcDbMaterial
  3
ObjectDBX Classes
 90
     1153
280
     0
281
     0
  0
CLASS
  1
SCALE
  2
AcDbScale
  3
ObjectDBX Classes
 90
     1153
280
     0
281
     0
  0
CLASS
  1
TABLESTYLE
  2
AcDbTableStyle
  3
ObjectDBX Classes
 90
     4095
280
     0
281
     0
  0
CLASS
  1
MLEADERSTYLE
  2
AcDbMLeaderStyle
  3
ACDB_MLEADERSTYLE_CLASS
 90
     4095
280
     0
281
     0
  0
CLASS
  1
SUN
  2
AcDbSun
  3
SCENEOE
 90
     1153
280
     0
281
     0
  0
CLASS
  1
ACDBPLACEHOLDER
  2
AcDbPlaceHolder
  3
ObjectDBX Classes
 90
        0
280
     0
281
     0
  0
CLASS
  1
LAYOUT
  2
AcDbLayout
  3
ObjectDBX Classes
 90
        0
280
     0
281
     0
  0
ENDSEC
  0
SECTION
  2
TABLES
  0
TABLE
  2
VPORT
  5
8
330
0
100
AcDbSymbolTable
 70
     1
  0
VPORT
  5
29
330
8
100
AcDbSymbolTableRecord
100
AcDbViewportTableRecord
  2
*Active
 70
     0
 10
0.0
 20
0.0
 11
1.0
 21
1.0
 12
1050.0
 22
1485.0
 13
0.0
 23
0.0
 14
10.0
 24
10.0
 15
10.0
 25
10.0
 16
0.0
 26
0.0
 36
1.0
 17
0.0
 27
0.0
 37
0.0
 40
2970.0
 41
0.7070707071
 42
50.0
 43
0.0
 44
0.0
 50
0.0
 51
0.0
 71
     0
 72
  2000
 73
     1
 74
     3
 75
     0
 76
     0
 77
     0
 78
     0
281
     0
 65
     1
110
0.0
120
0.0
130
0.0
111
1.0
121
0.0
131
0.0
112
0.0
122
1.0
132
0.0
 79
     0
146
0.0
  0
ENDTAB
  0
TABLE
  2
LTYPE
  5
5
330
0
100
AcDbSymbolTable
 70
     6
  0
LTYPE
  5
14
330
5
100
AcDbSymbolTableRecord
100
AcDbLinetypeTableRecord
  2
ByBlock
 70
     0
  3

 72
    65
 73
     0
 40
0.0
  0
LTYPE
  5
15
330
5
100
AcDbSymbolTableRecord
100
AcDbLinetypeTableRecord
  2
ByLayer
 70
     0
  3

 72
    65
 73
     0
 40
0.0
  0
LTYPE
  5
16
330
5
100
AcDbSymbolTableRecord
100
AcDbLinetypeTableRecord
  2
Continuous
 70
     0
  3
Solid line
 72
    65
 73
     0
 40
0.0
  0
LTYPE
  5
6E
330
5
100
AcDbSymbolTableRecord
100
AcDbLinetypeTableRecord
  2
HIDDEN
 70
     0
  3
Hidden __ __ __ __ __ __ __ __ __ __ __ __ __ __
 72
    65
 73
     2
 40
1.905
 49
1.27
 74
     0
 49
-0.635
 74
     0
  0
LTYPE
  5
6F
330
5
100
AcDbSymbolTableRecord
100
AcDbLinetypeTableRecord
  2
PHANTOM
 70
     0
  3
Phantom ______  __  __  ______  __  __  ______
 72
    65
 73
     6
 40
12.7
 49
6.35
 74
     0
 49
-1.27
 74
     0
 49
1.27
 74
     0
 49
-1.27
 74
     0
 49
1.27
 74
     0
 49
-1.27
 74
     0
  0
LTYPE
  5
70
330
5
100
AcDbSymbolTableRecord
100
AcDbLinetypeTableRecord
  2
CENTER
 70
     0
  3
Center ____ _ ____ _ ____ _ ____ _ ____ _ ____
 72
    65
 73
     4
 40
10.16
 49
6.35
 74
     0
 49
-1.27
 74
     0
 49
1.27
 74
     0
 49
-1.27
 74
     0
  0
LTYPE
  5
71
330
5
100
AcDbSymbolTableRecord
100
AcDbLinetypeTableRecord
  2
CENTERX2
 70
     0
  3
Center (2x) ________  __  ________  __  _____
 72
    65
 73
     4
 40
20.32
 49
12.7
 74
     0
 49
-2.54
 74
     0
 49
2.54
 74
     0
 49
-2.54
 74
     0
  0
LTYPE
  5
72
330
5
100
AcDbSymbolTableRecord
100
AcDbLinetypeTableRecord
  2
DOT2
 70
     0
  3
Dot (.5x) ........................................
 72
    65
 73
     2
 40
0.635
 49
0.0
 74
     0
 49
-0.635
 74
     0
  0
ENDTAB
  0
TABLE
  2
LAYER
  5
2
330
0
100
AcDbSymbolTable
 70
     1
  0
LAYER
  5
10
330
2
100
AcDbSymbolTableRecord
100
AcDbLayerTableRecord
  2
0
 70
     0
 62
     7
  6
Continuous
370
    -3
390
F
  0
ENDTAB
  0
TABLE
  2
STYLE
  5
3
330
0
100
AcDbSymbolTable
 70
     2
  0
STYLE
  5
11
330
3
100
AcDbSymbolTableRecord
100
AcDbTextStyleTableRecord
  2
Standard
 70
     0
 40
0.0
 41
1.0
 50
0.0
 71
     0
 42
35.0
  3
txt
  4
bigfont
  0
STYLE
  5
76
330
3
100
AcDbSymbolTableRecord
100
AcDbTextStyleTableRecord
  2
SLDTEXTSTYLE0
 70
     0
 40
0.0
 41
0.7
 50
0.0
 71
     0
 42
35.0
  3
TXT
  4
bigfont
  0
ENDTAB
  0
TABLE
  2
VIEW
  5
6
330
0
100
AcDbSymbolTable
 70
     0
  0
ENDTAB
  0
TABLE
  2
UCS
  5
7
330
0
100
AcDbSymbolTable
 70
     0
  0
ENDTAB
  0
TABLE
  2
APPID
  5
9
330
0
100
AcDbSymbolTable
 70
     1
  0
APPID
  5
12
330
9
100
AcDbSymbolTableRecord
100
AcDbRegAppTableRecord
  2
ACAD
 70
     0
  0
ENDTAB
  0
TABLE
  2
DIMSTYLE
  5
A
330
0
100
AcDbSymbolTable
 70
     1
100
AcDbDimStyleTable
  0
DIMSTYLE
105
27
330
A
100
AcDbSymbolTableRecord
100
AcDbDimStyleTableRecord
  2
ISO-25
 70
     0
 41
2.5
 42
0.625
 43
3.75
 44
1.25
 73
     0
 74
     0
 77
     1
 78
     8
140
2.5
141
2.5
143
0.0393700787
147
0.625
171
     3
172
     1
178
     0
271
     2
272
     2
274
     3
278
    44
283
     0
284
     8
340
11
  0
ENDTAB
  0
TABLE
  2
BLOCK_RECORD
  5
1
330
0
100
AcDbSymbolTable
 70
     2
  0
BLOCK_RECORD
  5
1F
330
1
100
AcDbSymbolTableRecord
100
AcDbBlockTableRecord
  2
*Model_Space
340
22
  0
BLOCK_RECORD
  5
1B
330
1
100
AcDbSymbolTableRecord
100
AcDbBlockTableRecord
  2
*Paper_Space
340
1E
  0
BLOCK_RECORD
  5
23
330
1
100
AcDbSymbolTableRecord
100
AcDbBlockTableRecord
  2
*Paper_Space0
340
26
  0
BLOCK_RECORD
  5
73
330
1
100
AcDbSymbolTableRecord
100
AcDbBlockTableRecord
  2
SW_NOTE_0
340
0
102
{BLKREFS
331
7A
102
}
  0
ENDTAB
  0
ENDSEC
  0
SECTION
  2
BLOCKS
  0
BLOCK
  5
20
330
1F
100
AcDbEntity
  8
0
100
AcDbBlockBegin
  2
*Model_Space
 70
     0
 10
0.0
 20
0.0
 30
0.0
  3
*Model_Space
  1

  0
ENDBLK
  5
21
330
1F
100
AcDbEntity
  8
0
100
AcDbBlockEnd
  0
BLOCK
  5
1C
330
1B
100
AcDbEntity
 67
     1
  8
0
100
AcDbBlockBegin
  2
*Paper_Space
 70
     0
 10
0.0
 20
0.0
 30
0.0
  3
*Paper_Space
  1

  0
ENDBLK
  5
1D
330
1B
100
AcDbEntity
 67
     1
  8
0
100
AcDbBlockEnd
  0
BLOCK
  5
24
330
23
100
AcDbEntity
  8
0
100
AcDbBlockBegin
  2
*Paper_Space0
 70
     0
 10
0.0
 20
0.0
 30
0.0
  3
*Paper_Space0
  1

  0
ENDBLK
  5
25
330
23
100
AcDbEntity
  8
0
100
AcDbBlockEnd
  0
BLOCK
  5
74
330
73
100
AcDbEntity
  8
0
100
AcDbBlockBegin
  2
SW_NOTE_0
 70
     0
 10
0.0
 20
0.0
 30
0.0
  3
SW_NOTE_0
  1

  0
MTEXT
  5
77
330
73
100
AcDbEntity
  8
0
  6
Continuous
 62
     0
370
     0
100
AcDbMText
 10
0.0
 20
68.2131678963
 30
0.0
 40
52.9166666667
 41
0.0
 71
     1
 72
     1
  1
HOA-D16B
  7
SLDTEXTSTYLE0
 73
     1
 44
1.0
  0
MTEXT
  5
78
330
73
100
AcDbEntity
  8
0
  6
Continuous
 62
     0
370
     0
100
AcDbMText
 10
0.0
 20
-12.3423884457
 30
0.0
 40
52.9166666667
 41
0.0
 71
     1
 72
     1
  1
HOA-D16G
  7
SLDTEXTSTYLE0
 73
     1
 44
1.0
  0
MTEXT
  5
79
330
73
100
AcDbEntity
  8
0
  6
Continuous
 62
     0
370
     0
100
AcDbMText
 10
0.0
 20
-92.8979447877
 30
0.0
 40
52.9166666667
 41
0.0
 71
     1
 72
     1
  1
HOA-D16R
  7
SLDTEXTSTYLE0
 73
     1
 44
1.0
  0
ENDBLK
  5
75
330
73
100
AcDbEntity
  8
0
100
AcDbBlockEnd
  0
ENDSEC
  0
SECTION
  2
ENTITIES
  0
INSERT
  5
7A
330
1F
100
AcDbEntity
  8
0
  6
Continuous
 62
     7
370
     0
100
AcDbBlockReference
  2
SW_NOTE_0
 10
1564.0763174912
 20
390.5026607433
 30
0.0
  0
LINE
  5
7B
330
1F
100
AcDbEntity
  8
0
  6
Continuous
 62
     7
370
    25
100
AcDbLine
 10
1323.7132692946
 20
2031.4155289705
 30
0.0
 11
1273.8490432394
 21
2421.2294014014
 31
0.0
  0
LINE
  5
7C
330
1F
100
AcDbEntity
  8
0
  6
Continuous
 62
     7
370
    25
100
AcDbLine
 10
775.2067826873
 20
2421.2294014014
 30
0.0
 11
725.3425566321
 21
2031.4155289705
 31
0.0
  0
LINE
  5
7D
330
1F
100
AcDbEntity
  8
0
  6
Continuous
 62
     7
370
    25
100
AcDbLine
 10
1074.5279129633
 20
2410.60081503
 30
0.0
 11
1074.5279129633
 21
2415.5000599013
 31
0.0
  0
LINE
  5
7E
330
1F
100
AcDbEntity
  8
0
  6
Continuous
 62
     7
370
    25
100
AcDbLine
 10
974.5279129633
 20
2415.5000599013
 30
0.0
 11
974.5279129633
 21
2410.60081503
 31
0.0
  0
LINE
  5
7F
330
1F
100
AcDbEntity
  8
0
  6
Continuous
 62
     7
370
    25
100
AcDbLine
 10
1040.5279129633
 20
899.1315127813
 30
0.0
 11
1040.5279129633
 21
1845.7213965259
 31
0.0
  0
LINE
  5
80
330
1F
100
AcDbEntity
  8
0
  6
Continuous
 62
     7
370
    25
100
AcDbLine
 10
1008.5279129633
 20
1845.7213965259
 30
0.0
 11
1008.5279129633
 21
899.1315127813
 31
0.0
  0
SPLINE
  5
81
330
1F
100
AcDbEntity
  8
0
  6
Continuous
 62
     7
370
    25
100
AcDbSpline
210
0.0
220
0.0
230
1.0
 70
     8
 71
     3
 72
    15
 73
    11
 74
     0
 42
0.00000001
 43
0.00000001
 40
0.0
 40
0.0
 40
0.0
 40
0.0
 40
0.0887664974608128
 40
0.2247630151326909
 40
0.3624982301136468
 40
0.5009676009660299
 40
0.6405286873130249
 40
0.7826285570228004
 40
0.9291492426359659
 40
1.0
 40
1.0
 40
1.0
 40
1.0
 10
1018.492582225826
 20
701.7671706686898
 30
0.0
 10
1018.811200312437
 20
701.5969732178582
 30
0.0
 10
1019.617963718351
 20
701.1660213011886
 30
0.0
 10
1021.046259893289
 20
700.6735200648101
 30
0.0
 10
1022.75998698084
 20
700.3271726922347
 30
0.0
 10
1024.544870767342
 20
700.2131984065215
 30
0.0
 10
1026.348083330206
 20
700.3326017724473
 30
0.0
 10
1028.125832249267
 20
700.7009233386307
 30
0.0
 10
1029.533061246614
 20
701.2087512578066
 30
0.0
 10
1030.310004335476
 20
701.6299000554577
 30
0.0
 10
1030.563243700871
 20
701.7671706686898
 30
0.0
  0
LINE
  5
82
330
1F
100
AcDbEntity
  8
0
  6
Continuous
 62
     7
370
    25
100
AcDbLine
 10
749.7920053749
 20
856.884711915
 30
0.0
 11
1018.4925822258
 21
701.7671706687
 31
0.0
  0
LINE
  5
83
330
1F
100
AcDbEntity
  8
0
  6
Continuous
 62
     7
370
    25
100
AcDbLine
 10
1030.5632437009
 20
701.7671706687
 30
0.0
 11
1299.2638205518
 21
856.884711915
 31
0.0
  0
SPLINE
  5
84
330
1F
100
AcDbEntity
  8
0
  6
Continuous
 62
     7
370
    25
100
AcDbSpline
210
0.0
220
0.0
230
1.0
 70
     8
 71
     3
 72
    14
 73
    10
 74
     0
 42
0.00000001
 43
0.00000001
 40
0.0
 40
0.0
 40
0.0
 40
0.0
 40
0.0505546074013587
 40
0.235667164225289
 40
0.4156279340872483
 40
0.5993181749000158
 40
0.7896308514675139
 40
0.9898852639706955
 40
1.0
 40
1.0
 40
1.0
 40
1.0
 10
1303.197912073608
 20
879.7115293014671
 30
0.0
 10
1303.206755721523
 20
879.8394824467362
 30
0.0
 10
1303.247981586635
 20
880.4359534006085
 30
0.0
 10
1303.022141138097
 20
881.4805912292909
 30
0.0
 10
1302.544657723492
 20
882.777531353114
 30
0.0
 10
1301.812656587995
 20
883.972564362909
 30
0.0
 10
1300.841959823834
 20
885.0429027823983
 30
0.0
 10
1300.084209856623
 20
885.7276860609903
 30
0.0
 10
1299.615912415004
 20
886.0038479448093
 30
0.0
 10
1299.593396256917
 20
886.0171260541504
 30
0.0
  0
SPLINE
  5
85
330
1F
100
AcDbEntity
  8
0
  6
Continuous
 62
     7
370
    25
100
AcDbSpline
210
0.0
220
0.0
230
1.0
 70
     8
 71
     3
 72
    14
 73
    10
 74
     0
 42
0.00000001
 43
0.00000001
 40
0.0
 40
0.0
 40
0.0
 40
0.0
 40
0.0182167983384253
 40
0.2272810607338943
 40
0.4262454905127149
 40
0.6153324309628414
 40
0.7989540207562357
 40
0.9793742632556737
 40
1.0
 40
1.0
 40
1.0
 40
1.0
 10
749.4665725496824
 20
886.0134268764673
 30
0.0
 10
749.4256070833144
 20
885.9896117723171
 30
0.0
 10
748.9145032945684
 20
885.6924837022685
 30
0.0
 10
748.1135659667447
 20
884.9492523137538
 30
0.0
 10
747.1215373444878
 20
883.8114010164876
 30
0.0
 10
746.397464452871
 20
882.5472939379955
 30
0.0
 10
745.972157958047
 20
881.2137563320571
 30
0.0
 10
745.7844754150839
 20
880.232415618338
 30
0.0
 10
745.837976871762
 20
879.7227798450505
 30
0.0
 10
745.8434657005614
 20
879.6704952217277
 30
0.0
  0
LINE
  5
86
330
1F
100
AcDbEntity
  8
0
  6
Continuous
 62
     7
370
    25
100
AcDbLine
 10
1303.2284898142
 20
863.2559765065
 30
0.0
 11
1303.2284898142
 21
879.704681797
 31
0.0
  0
LINE
  5
87
330
1F
100
AcDbEntity
  8
0
  6
Continuous
 62
     7
370
    25
100
AcDbLine
 10
745.8273361125
 20
879.704681797
 30
0.0
 11
745.8273361125
 21
863.2559765065
 31
0.0
  0
SPLINE
  5
88
330
1F
100
AcDbEntity
  8
0
  6
Continuous
 62
     7
370
    25
100
AcDbSpline
210
0.0
220
0.0
230
1.0
 70
     8
 71
     3
 72
    23
 73
    19
 74
     0
 42
0.00000001
 43
0.00000001
 40
0.0
 40
0.0
 40
0.0
 40
0.0
 40
0.036016274396108
 40
0.1044358262792154
 40
0.1728562211739349
 40
0.2412771187625457
 40
0.3096984956358793
 40
0.3781203250713336
 40
0.4465425768014619
 40
0.5149652167771951
 40
0.5833882069213028
 40
0.6518115048716284
 40
0.72023506371716
 40
0.7886588317243138
 40
0.8570827520573187
 40
0.925506762492523
 40
0.9939307817408711
 40
1.0
 40
1.0
 40
1.0
 40
1.0
 10
1299.598915458515
 20
886.0200110150954
 30
0.0
 10
1296.498734640092
 20
888.1466393159408
 30
0.0
 10
1287.509188919006
 20
894.3131900631101
 30
0.0
 10
1272.614263606025
 20
904.3322761306654
 30
0.0
 10
1254.910526668748
 20
915.9945159083633
 30
0.0
 10
1237.191432009776
 20
927.4042581023547
 30
0.0
 10
1219.460203019612
 20
938.5638566647137
 30
0.0
 10
1201.719538123659
 20
949.4704014289961
 30
0.0
 10
1183.972271382004
 20
960.1224503257592
 30
0.0
 10
1166.221203334127
 20
970.5182078884752
 30
0.0
 10
1148.469142292327
 20
980.6560624130188
 30
0.0
 10
1130.718906018841
 20
990.5342604570337
 30
0.0
 10
1112.973271434148
 20
1000.151673293267
 30
0.0
 10
1095.235171836329
 20
1009.505058178901
 30
0.0
 10
1077.506956058164
 20
1018.599248445067
 30
0.0
 10
1059.793153544566
 20
1027.409132764826
 30
0.0
 10
1047.467732288585
 20
1033.405385500095
 30
0.0
 10
1041.050728184943
 20
1036.426484734657
 30
0.0
 10
1040.527912963349
 20
1036.672623998442
 30
0.0
  0
SPLINE
  5
89
330
1F
100
AcDbEntity
  8
0
  6
Continuous
 62
     7
370
    25
100
AcDbSpline
210
0.0
220
0.0
230
1.0
 70
     8
 71
     3
 72
    22
 73
    18
 74
     0
 42
0.00000001
 43
0.00000001
 40
0.0
 40
0.0
 40
0.0
 40
0.0
 40
0.0643894492435349
 40
0.1328116464656172
 40
0.2012339611740117
 40
0.2696563097251903
 40
0.3380786065149893
 40
0.4065007886984823
 40
0.4749227988171605
 40
0.5433445845160557
 40
0.6117660982658427
 40
0.6801872970921476
 40
0.7486081423124924
 40
0.8170285992812725
 40
0.8854486371447194
 40
0.9538682286043427
 40
1.0
 40
1.0
 40
1.0
 40
1.0
 10
1008.527912963349
 20
1036.672165478414
 30
0.0
 10
1002.978153339372
 20
1034.017567137659
 30
0.0
 10
991.5310494767335
 20
1028.54211144604
 30
0.0
 10
974.1655769469731
 20
1019.912484873632
 30
0.0
 10
956.440150990294
 20
1010.866300998558
 30
0.0
 10
938.7036011786823
 20
1001.549732562403
 30
0.0
 10
920.9592704230748
 20
991.9718372840384
 30
0.0
 10
903.2098308722292
 20
982.1321288643767
 30
0.0
 10
885.4581329161938
 20
972.032727295255
 30
0.0
 10
867.7069775862034
 20
961.6751135254144
 30
0.0
 10
849.9591809054957
 20
951.0609614839681
 30
0.0
 10
832.2175432878706
 20
940.1920544403218
 30
0.0
 10
814.4849053055972
 20
929.0697858873326
 30
0.0
 10
796.7639529203299
 20
917.6972379584386
 30
0.0
 10
779.0579384715901
 20
906.0713652497751
 30
0.0
 10
763.2887944388049
 20
895.4998700657917
 30
0.0
 10
753.4280136725024
 20
888.7416575191204
 30
0.0
 10
749.4569104681831
 20
886.0200110150961
 30
0.0
  0
SPLINE
  5
8A
330
1F
100
AcDbEntity
  8
0
  6
Continuous
 62
     7
370
    25
100
AcDbSpline
210
0.0
220
0.0
230
1.0
 70
     8
 71
     3
 72
    13
 73
     9
 74
     0
 42
0.00000001
 43
0.00000001
 40
0.0
 40
0.0
 40
0.0
 40
0.0
 40
0.142981782638398
 40
0.3348693577983117
 40
0.5181577746545962
 40
0.6961926033186183
 40
0.8715334079583701
 40
1.0
 40
1.0
 40
1.0
 40
1.0
 10
1299.26382055176
 20
856.8847119150045
 30
0.0
 10
1299.582807540552
 20
857.0837472966884
 30
0.0
 10
1300.329888505077
 20
857.5498965446124
 30
0.0
 10
1301.333324897982
 20
858.463684793377
 30
0.0
 10
1302.219161287905
 20
859.6108532633937
 30
0.0
 10
1302.834800763768
 20
860.8767864306036
 30
0.0
 10
1303.189192929579
 20
862.1061859043765
 30
0.0
 10
1303.190869692581
 20
862.9066133058446
 30
0.0
 10
1303.191578720837
 20
863.2450783385151
 30
0.0
  0
SPLINE
  5
8B
330
1F
100
AcDbEntity
  8
0
  6
Continuous
 62
     7
370
    25
100
AcDbSpline
210
0.0
220
0.0
230
1.0
 70
     8
 71
     3
 72
    14
 73
    10
 74
     0
 42
0.00000001
 43
0.00000001
 40
0.0
 40
0.0
 40
0.0
 40
0.0
 40
0.0614381656331039
 40
0.2431195410132564
 40
0.4195925435478711
 40
0.5950602498894775
 40
0.7738910582584051
 40
0.9746982872863071
 40
1.0
 40
1.0
 40
1.0
 40
1.0
 10
745.8642472058606
 20
863.266874674414
 30
0.0
 10
745.8535870106989
 20
863.1051404627875
 30
0.0
 10
745.8114031054974
 20
862.4651352332767
 30
0.0
 10
746.0612509270443
 20
861.3688088386838
 30
0.0
 10
746.5767248257669
 20
860.0642073926211
 30
0.0
 10
747.3491683779126
 20
858.8985238644051
 30
0.0
 10
748.3566050172259
 20
857.8494416399093
 30
0.0
 10
749.2192175650157
 20
857.2204846845265
 30
0.0
 10
749.7343605919674
 20
856.9185037452278
 30
0.0
 10
749.792005374938
 20
856.8847119150048
 30
0.0
  0
LWPOLYLINE
  5
8C
330
1F
100
AcDbEntity
  8
0
  6
Continuous
 62
     7
370
    25
100
AcDbPolyline
 90
      168
 70
   128
 43
0.0
 10
847.7512176667
 20
2512.6518290078
 10
841.2268681634
 20
2508.7409604117
 10
834.9619607916
 20
2504.6911854143
 10
828.965362827
 20
2500.5082360191
 10
823.2455617834
 20
2496.1980327234
 10
817.8106533998
 20
2491.7666761379
 10
812.668330181
 20
2487.2204383523
 10
807.8258705106
 20
2482.5657540578
 10
803.2901283488
 20
2477.8092114395
 10
799.0675235314
 20
2472.9575428516
 10
795.1640326833
 20
2468.0176152885
 10
791.5851807592
 20
2462.9964206653
 10
788.336033224
 20
2457.9010659213
 10
785.4211888826
 20
2452.7387629615
 10
782.8447733712
 20
2447.5168184485
 10
780.6104333178
 20
2442.2426234607
 10
778.721331181
 20
2436.9236430314
 10
777.1801407736
 20
2431.5674055827
 10
775.9890434783
 20
2426.1814922695
 10
775.14972516
 20
2420.77352625
 10
774.66337378
 20
2415.3511618954
 10
774.5306777144
 20
2409.922073956
 10
774.7518247795
 20
2404.4939466986
 10
775.3265019664
 20
2399.0744630305
 10
776.2538958839
 20
2393.6712936247
 10
777.5326939094
 20
2388.2920860633
 10
779.1610860475
 20
2382.9444540132
 10
781.1367674911
 20
2377.6359664493
 10
783.4569418841
 20
2372.3741369424
 10
786.1183252791
 20
2367.1664130237
 10
789.1171507856
 20
2362.020165644
 10
792.4491739012
 20
2356.942678741
 10
796.10967852
 20
2351.9411389296
 10
800.0934836069
 20
2347.0226253302
 10
804.3949505314
 20
2342.1940995487
 10
809.007991048
 20
2337.4623958234
 10
813.9260759137
 20
2332.8342113519
 10
819.1422441294
 20
2328.3160968117
 10
824.6491127922
 20
2323.9144470887
 10
830.4388875454
 20
2319.6354922259
 10
836.5033736102
 20
2315.4852886055
 10
842.8339873847
 20
2311.4697103764
 10
849.4217685932
 20
2307.5944411407
 10
856.2573929678
 20
2303.8649659087
 10
863.3311854468
 20
2300.2865633354
 10
870.633133868
 20
2296.8642982496
 10
878.1529031397
 20
2293.6030144848
 10
885.8798498696
 20
2290.5073280235
 10
893.8030374286
 20
2287.5816204637
 10
901.9112514307
 20
2284.8300328172
 10
910.1930156057
 20
2282.2564596488
 10
918.6366080425
 20
2279.8645435634
 10
927.2300777802
 20
2277.6576700508
 10
935.9612617233
 20
2275.6389626936
 10
944.8178018574
 20
2273.8112787465
 10
953.7871627402
 20
2272.1772050915
 10
962.8566492445
 20
2270.7390545773
 10
972.0134245261
 20
2269.4988627451
 10
981.2445281938
 20
2268.4583849477
 10
990.5368946525
 20
2267.6190938652
 10
999.8773715966
 20
2266.9821774201
 10
1009.2527386255
 20
2266.5485370965
 10
1018.6497259555
 20
2266.3187866638
 10
1028.0550332019
 20
2266.2932513081
 10
1037.455348204
 20
2266.4719671717
 10
1046.8373658671
 20
2266.8546813023
 10
1056.1878069944
 20
2267.440852011
 10
1065.493437082
 20
2268.2296496385
 10
1074.7410850512
 20
2269.2199577301
 10
1083.9176618903
 20
2270.4103746155
 10
1093.0101791811
 20
2271.7992153925
 10
1102.0057674819
 20
2273.3845143124
 10
1110.8916945436
 20
2275.1640275619
 10
1119.6553833301
 20
2277.135236439
 10
1128.2844298198
 20
2279.2953509179
 10
1136.7666205624
 20
2281.641313598
 10
1145.0899499654
 20
2284.1698040317
 10
1153.2426372867
 20
2286.8772434234
 10
1161.2131433092
 20
2289.7597996954
 10
1168.9901866729
 20
2292.8133929116
 10
1176.5627598425
 20
2296.0337010524
 10
1183.9201446875
 20
2299.4161661316
 10
1191.0519276525
 20
2302.9560006482
 10
1197.948014496
 20
2306.6481943623
 10
1204.5986445784
 20
2310.4875213865
 10
1210.9944046765
 20
2314.4685475828
 10
1217.1262423071
 20
2318.5856382537
 10
1222.9854785396
 20
2322.8329661178
 10
1228.5638202804
 20
2327.2045195575
 10
1233.8533720105
 20
2331.6941111277
 10
1238.846646961
 20
2336.2953863136
 10
1243.5365777096
 20
2341.0018325247
 10
1247.9165261837
 20
2345.8067883127
 10
1251.980293056
 20
2350.7034527999
 10
1255.722126519
 20
2355.6848953055
 10
1259.1367304258
 20
2360.7440651544
 10
1262.2192717865
 20
2365.8738016576
 10
1264.9653876084
 20
2371.0668442467
 10
1267.3711910717
 20
2376.3158427506
 10
1269.4332770305
 20
2381.6133677988
 10
1271.1487268329
 20
2386.9519213371
 10
1272.5151124514
 20
2392.3239472399
 10
1273.5304999201
 20
2397.7218420053
 10
1274.1934520714
 20
2403.1379655168
 10
1274.5030305707
 20
2408.5646518572
 10
1274.4587972444
 20
2413.9942201589
 10
1274.0608146997
 20
2419.4189854752
 10
1273.3096462364
 20
2424.8312696572
 10
1272.2063550494
 20
2430.2234122221
 10
1270.7525027242
 20
2435.5877811949
 10
1268.950147026
 20
2440.9167839112
 10
1266.8018389878
 20
2446.2028777637
 10
1264.3106192995
 20
2451.4385808775
 10
1261.4800140038
 20
2456.6164827004
 10
1258.3140295061
 20
2461.7292544914
 10
1254.8171469033
 20
2466.7696596937
 10
1250.9943156419
 20
2471.7305641775
 10
1246.8509465119
 20
2476.6049463371
 10
1242.392903989
 20
2481.3859070297
 10
1237.6264979338
 20
2486.0666793401
 10
1232.5584746613
 20
2490.6406381584
 10
1227.1960073915
 20
2495.1013095575
 10
1221.5466860972
 20
2499.4423799558
 10
1215.6185067611
 20
2503.6577050536
 10
1209.419860058
 20
2507.7413185296
 10
1202.9595194791
 20
2511.6874404856
 10
1196.2466289143
 20
2515.4904856271
 10
1189.2906897093
 20
2519.1450711691
 10
1182.1015472182
 20
2522.6460244544
 10
1174.6893768685
 20
2525.9883902752
 10
1167.0646697583
 20
2529.1674378863
 10
1159.2382178079
 20
2532.1786677014
 10
1151.2210984848
 20
2535.0178176613
 10
1143.0246591251
 20
2537.6808692669
 10
1134.6605008719
 20
2540.1640532664
 10
1126.1404622561
 20
2542.4638549904
 10
1117.4766024394
 20
2544.5770193268
 10
1108.6811841468
 20
2546.5005553279
 10
1099.7666563091
 20
2548.2317404434
 10
1090.7456364438
 20
2549.7681243745
 10
1081.6308927956
 20
2551.1075325415
 10
1072.4353262649
 20
2552.2480691619
 10
1063.171952148
 20
2553.1881199337
 10
1053.8538817149
 20
2553.9263543201
 10
1044.4943036524
 20
2554.4617274329
 10
1035.1064653966
 20
2554.7934815113
 10
1025.7036543827
 20
2554.9211469945
 10
1016.2991792384
 20
2554.8445431864
 10
1006.9063509465
 20
2554.563778511
 10
997.5384640051
 20
2554.0792503593
 10
988.2087776106
 20
2553.3916445268
 10
978.9304968909
 20
2552.5019342426
 10
969.7167542147
 20
2551.4113787922
 10
960.5805906045
 20
2550.1215217348
 10
951.5349372782
 20
2548.6341887188
 10
942.5925973467
 20
2546.9514848979
 10
933.766227692
 20
2545.075791951
 10
925.0683210535
 20
2543.0097647119
 10
916.5111883454
 20
2540.756327411
 10
908.1069412321
 20
2538.318669537
 10
899.8674749855
 20
2535.7002413218
 10
891.8044516489
 20
2532.9047488578
 10
883.9292835301
 20
2529.936148852
 10
876.2531170488
 20
2526.7986430258
 10
868.7868169605
 20
2523.4966721678
 10
861.540950978
 20
2520.0349098485
 10
854.5257748143
 20
2516.4182558054
 10
847.7512176667
 20
2512.6518290078
  0
LWPOLYLINE
  5
8D
330
1F
100
AcDbEntity
  8
0
  6
Continuous
 62
     7
370
    25
100
AcDbPolyline
 90
       98
 70
   128
 43
0.0
 10
725.3425566321
 20
2031.4155289705
 10
725.1493560557
 20
2029.8027235836
 10
724.663286027
 20
2023.8634016544
 10
724.5306758825
 20
2017.9179477561
 10
724.751681934
 20
2011.9733699824
 10
725.3260436746
 20
2006.0366753946
 10
726.2530840861
 20
2000.1148617615
 10
727.5317104367
 20
1994.2149093116
 10
729.1604155694
 20
1988.3437725046
 10
731.1372796779
 20
1982.5083718345
 10
733.4599725703
 20
1976.715585672
 10
736.1257564153
 20
1970.9722421566
 10
739.1314889695
 20
1965.2851111483
 10
742.4736272812
 20
1959.6608962476
 10
746.1482318667
 20
1954.1062268939
 10
750.1509713538
 20
1948.6276505508
 10
754.4771275873
 20
1943.231624989
 10
759.1216011905
 20
1937.9245106739
 10
764.0789175761
 20
1932.7125632682
 10
769.3432333991
 20
1927.6019262586
 10
774.9083434444
 20
1922.5986237141
 10
780.7676879416
 20
1917.7085531849
 10
786.9143602967
 20
1912.9374787513
 10
793.3411152333
 20
1908.291024229
 10
800.0403773328
 20
1903.7746665404
 10
807.004249964
 20
1899.3937292586
 10
814.2245245907
 20
1895.1533763324
 10
821.6926904476
 20
1891.0586059994
 10
829.3999445726
 20
1887.1142448944
 10
837.3372021821
 20
1883.3249423602
 10
845.4951073806
 20
1879.695164967
 10
853.8640441882
 20
1876.2291912479
 10
862.4341478754
 20
1872.9311066552
 10
871.1953165909
 20
1869.8047987452
 10
880.1372232691
 20
1866.8539525955
 10
889.2493278029
 20
1864.0820464615
 10
898.5208894674
 20
1861.4923476762
 10
907.9409795809
 20
1859.0879087993
 10
917.4984943864
 20
1856.8715640185
 10
927.1821681399
 20
1854.8459258094
 10
936.98058639
 20
1853.0133818554
 10
946.8821994326
 20
1851.376092234
 10
956.8753359242
 20
1849.9359868699
 10
966.9482166401
 20
1848.6947632607
 10
977.0889683582
 20
1847.6538844758
 10
987.2856378552
 20
1846.8145774319
 10
997.5262059952
 20
1846.1778314465
 10
1007.7986018981
 20
1845.7443970723
 10
1018.0907171671
 20
1845.514785212
 10
1028.3904201615
 20
1845.4892665163
 10
1038.685570297
 20
1845.6678710649
 10
1048.9640323558
 20
1846.0503883311
 10
1059.2136907906
 20
1846.6363674296
 10
1069.4224640062
 20
1847.4251176484
 10
1079.5783185999
 20
1848.4157092629
 10
1089.6692835459
 20
1849.6069746313
 10
1099.6834643059
 20
1850.9975095718
 10
1109.6090568494
 20
1852.585675017
 10
1119.4343615678
 20
1854.3695989462
 10
1129.1477970648
 20
1856.347178592
 10
1138.737913808
 20
1858.5160829191
 10
1148.1934076245
 20
1860.8737553716
 10
1157.5031330259
 20
1863.4174168866
 10
1166.6561163455
 20
1866.1440691702
 10
1175.6415686735
 20
1869.0504982315
 10
1184.448898574
 20
1872.1332781708
 10
1193.0677245698
 20
1875.3887752184
 10
1201.4878873792
 20
1878.8131520173
 10
1209.6994618909
 20
1882.4023721467
 10
1217.6927688633
 20
1886.1522048797
 10
1225.4583863337
 20
1890.0582301703
 10
1232.9871607239
 20
1894.1158438634
 10
1240.2702176305
 20
1898.320263122
 10
1247.2989722848
 20
1902.6665320646
 10
1254.0651396721
 20
1907.149527607
 10
1260.5607442978
 20
1911.7639655011
 10
1266.7781295881
 20
1916.5044065636
 10
1272.709966915
 20
1921.3652630872
 10
1278.3492642349
 20
1926.3408054272
 10
1283.6893743304
 20
1931.425168755
 10
1288.7240026455
 20
1936.6123599715
 10
1293.4472147052
 20
1941.8962647708
 10
1297.8534431105
 20
1947.2706548479
 10
1301.9374941012
 20
1952.7291952399
 10
1305.6945536777
 20
1958.2654517932
 10
1309.1201932755
 20
1963.8728987478
 10
1312.2103749853
 20
1969.5449264292
 10
1314.9614563126
 20
1975.2748490397
 10
1317.370194471
 20
1981.0559125391
 10
1319.4337502051
 20
1986.8813026055
 10
1321.1496911366
 20
1992.7441526682
 10
1322.5159946319
 20
1998.637552001
 10
1323.5310501861
 20
2004.5545538685
 10
1324.1936613211
 20
2010.4881837141
 10
1324.5030469964
 20
2016.4314473815
 10
1324.4588425293
 20
2022.3773393583
 10
1324.061100025
 20
2028.3188510344
 10
1323.7132692946
 20
2031.4155289705
  0
LWPOLYLINE
  5
8E
330
1F
100
AcDbEntity
  8
0
  6
Continuous
 62
     7
370
    25
100
AcDbPolyline
 90
       39
 70
   128
 43
0.0
 10
974.5279129633
 20
2410.60081503
 10
974.5964362256
 20
2409.090169808
 10
974.9905209398
 20
2406.6834684147
 10
975.7320748664
 20
2404.3042443933
 10
976.8158965375
 20
2401.9691862909
 10
978.2343837228
 20
2399.6946728622
 10
979.9775867539
 20
2397.4966581848
 10
982.033278314
 20
2395.3905597523
 10
984.3870392038
 20
2393.3911503321
 10
987.0223594818
 20
2391.5124543446
 10
989.9207542698
 20
2389.7676494923
 10
993.0618934109
 20
2388.1689743277
 10
996.4237440707
 20
2386.7276424083
 10
999.9827252826
 20
2385.453763642
 10
1003.7138733503
 20
2384.3562733731
 10
1007.5910169511
 20
2383.4428697072
 10
1011.5869607082
 20
2382.7199595148
 10
1015.6736759474
 20
2382.1926134915
 10
1019.8224972974
 20
2381.8645305907
 10
1024.0043237575
 20
2381.7380120783
 10
1028.1898228197
 20
2381.8139453906
 10
1032.3496362154
 20
2382.0917979102
 10
1036.4545858423
 20
2382.5696207011
 10
1040.4758784283
 20
2383.2440621799
 10
1044.3853074951
 20
2384.1103916241
 10
1048.1554512068
 20
2385.1625323552
 10
1051.7598647141
 20
2386.3931043618
 10
1055.173265646
 20
2387.7934760656
 10
1058.3717114475
 20
2389.3538248652
 10
1061.3327673193
 20
2391.0632060348
 10
1064.0356635821
 20
2392.9096294937
 10
1066.4614413606
 20
2394.8801439081
 10
1068.5930855666
 20
2396.9609275352
 10
1070.4156442475
 20
2399.1373851728
 10
1071.9163334638
 20
2401.3942505343
 10
1073.0846269588
 20
2403.7156933309
 10
1073.9123299931
 20
2406.0854303092
 10
1074.3936368246
 20
2408.4868394671
 10
1074.5279129633
 20
2410.60081503
  0
LWPOLYLINE
  5
8F
330
1F
100
AcDbEntity
  8
0
  6
Continuous
 62
     7
370
    25
100
AcDbPolyline
 90
       76
 70
   128
 43
0.0
 10
989.172573904
 20
2435.9102626968
 10
986.3381115316
 20
2434.130799491
 10
983.7715231769
 20
2432.2206550331
 10
981.4908116132
 20
2430.193227614
 10
979.5119743932
 20
2428.0627381805
 10
977.8488916385
 20
2425.8441305852
 10
976.5132286795
 20
2423.5529667662
 10
975.5143542323
 20
2421.2053175915
 10
974.8592746833
 20
2418.8176501334
 10
974.5525849451
 20
2416.4067121634
 10
974.5964362256
 20
2413.9894146793
 10
974.9905209398
 20
2411.582713286
 10
975.7320748664
 20
2409.2034892646
 10
976.8158965375
 20
2406.8684311622
 10
978.2343837228
 20
2404.5939177335
 10
979.9775867539
 20
2402.3959030561
 10
982.033278314
 20
2400.2898046237
 10
984.3870392038
 20
2398.2903952034
 10
987.0223594818
 20
2396.4116992159
 10
989.9207542698
 20
2394.6668943636
 10
993.0618934109
 20
2393.068219199
 10
996.4237440707
 20
2391.6268872796
 10
999.9827252826
 20
2390.3530085133
 10
1003.7138733503
 20
2389.2555182444
 10
1007.5910169511
 20
2388.3421145785
 10
1011.5869607082
 20
2387.6192043861
 10
1015.6736759474
 20
2387.0918583628
 10
1019.8224972974
 20
2386.763775462
 10
1024.0043237575
 20
2386.6372569496
 10
1028.1898228197
 20
2386.7131902619
 10
1032.3496362154
 20
2386.9910427815
 10
1036.4545858423
 20
2387.4688655724
 10
1040.4758784283
 20
2388.1433070512
 10
1044.3853074951
 20
2389.0096364954
 10
1048.1554512068
 20
2390.0617772265
 10
1051.7598647141
 20
2391.2923492331
 10
1055.173265646
 20
2392.6927209369
 10
1058.3717114475
 20
2394.2530697365
 10
1061.3327673193
 20
2395.9624509061
 10
1064.0356635821
 20
2397.8088743651
 10
1066.4614413606
 20
2399.7793887795
 10
1068.5930855666
 20
2401.8601724065
 10
1070.4156442475
 20
2404.0366300441
 10
1071.9163334638
 20
2406.2934954056
 10
1073.0846269588
 20
2408.6149382022
 10
1073.9123299931
 20
2410.9846751806
 10
1074.3936368246
 20
2413.3860843384
 10
1074.5251714316
 20
2415.802321516
 10
1074.3060111935
 20
2418.2164385455
 10
1073.7376933618
 20
2420.6115021305
 10
1072.8242042778
 20
2422.9707126208
 10
1071.5719514111
 20
2425.27752185
 10
1069.9897184157
 20
2427.5157492087
 10
1068.0886035194
 20
2429.6696951402
 10
1065.8819416771
 20
2431.7242512614
 10
1063.3852110362
 20
2433.6650063372
 10
1060.6159243683
 20
2435.4783473652
 10
1057.5935062295
 20
2437.1515550611
 10
1054.3391567116
 20
2438.672893075
 10
1050.8757027382
 20
2440.0316903139
 10
1047.2274379503
 20
2441.2184157914
 10
1043.4199523043
 20
2442.2247454809
 10
1039.4799525762
 20
2443.0436207027
 10
1035.4350750332
 20
2443.6692976356
 10
1031.3136915851
 20
2444.0973876052
 10
1027.1447107755
 20
2444.3248878683
 10
1022.9573750094
 20
2444.3502026737
 10
1018.7810554387
 20
2444.1731544564
 10
1014.6450459444
 20
2443.7949850823
 10
1010.5783576614
 20
2443.218347138
 10
1006.6095154861
 20
2442.4472853243
 10
1002.7663579947
 20
2441.4872080858
 10
999.0758421758
 20
2440.3448496745
 10
995.5638543462
 20
2439.0282229139
 10
992.2550285772
 20
2437.5465629948
 10
989.172573904
 20
2435.9102626968
  0
LWPOLYLINE
  5
90
330
1F
100
AcDbEntity
  8
0
  6
Continuous
 62
     7
370
    25
100
AcDbPolyline
 90
       23
 70
   128
 43
0.0
 10
1008.5279129633
 20
899.1315127813
 10
1008.5391016867
 20
898.7861451494
 10
1008.8068493916
 20
897.4143209997
 10
1009.4257796784
 20
896.0808560769
 10
1010.3820666673
 20
894.8155377838
 10
1011.6543484871
 20
893.6466312402
 10
1013.2142044644
 20
892.6002478867
 10
1015.0267899942
 20
891.6997621984
 10
1017.051614911
 20
890.9652895375
 10
1019.2434479721
 20
890.4132368096
 10
1021.5533272487
 20
890.0559359604
 10
1023.9296538549
 20
889.9013685005
 10
1026.319344581
 20
889.9529872114
 10
1028.669017685
 20
890.2096390165
 10
1030.9261853525
 20
890.6655907385
 10
1033.0404261876
 20
891.3106571695
 10
1034.9645115438
 20
892.1304285912
 10
1036.6554605337
 20
893.1065926648
 10
1038.075500151
 20
894.217343498
 10
1039.1929090573
 20
895.4378687525
 10
1039.982726184
 20
896.7409039111
 10
1040.4273083216
 20
898.0973413214
 10
1040.5279129633
 20
899.1315127813
  0
SPLINE
  5
91
330
1F
100
AcDbEntity
  8
0
  6
Continuous
 62
     7
370
    25
100
AcDbSpline
210
0.0
220
0.0
230
1.0
 70
     8
 71
     3
 72
    24
 73
    20
 74
     0
 42
0.00000001
 43
0.00000001
 40
0.0
 40
0.0
 40
0.0
 40
0.0
 40
0.124999999999997
 40
0.124999999999997
 40
0.2499999999999939
 40
0.2499999999999939
 40
0.3749999999999909
 40
0.3749999999999909
 40
0.4999999999999879
 40
0.4999999999999879
 40
0.6249999999999849
 40
0.6249999999999849
 40
0.7499999999999818
 40
0.7499999999999818
 40
0.8124999999999855
 40
0.8124999999999855
 40
0.874999999999989
 40
0.874999999999989
 40
1.0
 40
1.0
 40
1.0
 40
1.0
 10
1297.446319737104
 20
881.8586983543189
 30
0.0
 10
1297.679655841778
 20
881.9674963578814
 30
0.0
 10
1297.887748037052
 20
882.090869909449
 30
0.0
 10
1298.253668182268
 20
882.3666397869601
 30
0.0
 10
1298.408931039101
 20
882.5176201837218
 30
0.0
 10
1298.658504907279
 20
882.8381616577354
 30
0.0
 10
1298.754592393254
 20
883.0099983813465
 30
0.0
 10
1298.882952573877
 20
883.3695384629306
 30
0.0
 10
1298.914579482586
 20
883.5539646795366
 30
0.0
 10
1298.914332146374
 20
883.9319000056732
 30
0.0
 10
1298.881395220651
 20
884.1274903329846
 30
0.0
 10
1298.752791965097
 20
884.512929718164
 30
0.0
 10
1298.657810922557
 20
884.7038405285917
 30
0.0
 10
1298.469077392412
 20
884.9874788103771
 30
0.0
 10
1298.397948528889
 20
885.082045005435
 30
0.0
 10
1298.242689890145
 20
885.2665807733079
 30
0.0
 10
1298.158465351335
 20
885.3568267380928
 30
0.0
 10
1297.886498027492
 20
885.6216495846905
 30
0.0
 10
1297.679648272411
 20
885.790368673084
 30
0.0
 10
1297.446319737104
 20
885.9509695915259
 30
0.0
  0
LWPOLYLINE
  5
92
330
1F
100
AcDbEntity
  8
0
  6
Continuous
 62
     7
370
    25
100
AcDbPolyline
 90
       15
 70
   128
 43
0.0
 10
1028.0723078565
 20
726.3523913405
 10
1047.2663825733
 20
739.4107045677
 10
1066.4821080587
 20
752.1778659606
 10
1085.7158820559
 20
764.6514821359
 10
1104.9640989242
 20
776.8292147394
 10
1124.2231503155
 20
788.7087808845
 10
1143.4894258509
 20
800.2879535799
 10
1162.7593137968
 20
811.5645621475
 10
1182.0292017427
 20
822.5364926288
 10
1201.2954772781
 20
833.2016881818
 10
1220.5545286695
 20
843.5581494661
 10
1239.8027455377
 20
853.6039350178
 10
1259.0365195349
 20
863.3371616136
 10
1278.2522450204
 20
872.7560046239
 10
1297.4463197371
 20
881.8586983543
  0
SPLINE
  5
93
330
1F
100
AcDbEntity
  8
0
  6
Continuous
 62
     7
370
    25
100
AcDbSpline
210
0.0
220
0.0
230
1.0
 70
     8
 71
     3
 72
    24
 73
    20
 74
     0
 42
0.00000001
 43
0.00000001
 40
0.0
 40
0.0
 40
0.0
 40
0.0
 40
0.1250000000000029
 40
0.1250000000000029
 40
0.2500000000000059
 40
0.2500000000000059
 40
0.3750000000000088
 40
0.3750000000000088
 40
0.5000000000000118
 40
0.5000000000000118
 40
0.6250000000000147
 40
0.6250000000000147
 40
0.7500000000000177
 40
0.7500000000000177
 40
0.8125000000000142
 40
0.8125000000000142
 40
0.8750000000000108
 40
0.8750000000000108
 40
1.0
 40
1.0
 40
1.0
 40
1.0
 10
1020.983518070183
 20
726.3523913404698
 30
0.0
 10
1021.216854174857
 20
726.1917852120042
 30
0.0
 10
1021.47058510575
 20
726.0485539476781
 30
0.0
 10
1022.018656086718
 20
725.7966879790887
 30
0.0
 10
1022.310050107211
 20
725.6898188490514
 30
0.0
 10
1022.913302610075
 20
725.5180341385201
 30
0.0
 10
1023.229444705624
 20
725.4518957901585
 30
0.0
 10
1023.876940679693
 20
725.3635436472936
 30
0.0
 10
1024.20249356116
 20
725.3417743600252
 30
0.0
 10
1024.857120114192
 20
725.3419446052472
 30
0.0
 10
1025.189594571027
 20
725.3646155965397
 30
0.0
 10
1025.832533964006
 20
725.4531350497016
 30
0.0
 10
1026.144969906869
 20
725.5185118182407
 30
0.0
 10
1026.600001698143
 20
725.6484193861259
 30
0.0
 10
1026.750133429565
 20
725.6973781963269
 30
0.0
 10
1027.039934378412
 20
725.804244341821
 30
0.0
 10
1027.180064146644
 20
725.8622169046201
 30
0.0
 10
1027.586497203376
 20
726.0494143359233
 30
0.0
 10
1027.838979321207
 20
726.191790422028
 30
0.0
 10
1028.072307856514
 20
726.3523913404698
 30
0.0
  0
LWPOLYLINE
  5
94
330
1F
100
AcDbEntity
  8
0
  6
Continuous
 62
     7
370
    25
100
AcDbPolyline
 90
       15
 70
   128
 43
0.0
 10
751.6095061896
 20
881.8586983543
 10
770.8035809063
 20
872.7560046239
 10
790.0193063918
 20
863.3371616136
 10
809.253080389
 20
853.6039350178
 10
828.5012972572
 20
843.5581494661
 10
847.7603486486
 20
833.2016881818
 10
867.026624184
 20
822.5364926288
 10
886.2965121299
 20
811.5645621475
 10
905.5664000758
 20
800.2879535799
 10
924.8326756112
 20
788.7087808845
 10
944.0917270025
 20
776.8292147394
 10
963.3399438708
 20
764.6514821359
 10
982.573717868
 20
752.1778659606
 10
1001.7894433534
 20
739.4107045677
 10
1020.9835180702
 20
726.3523913405
  0
SPLINE
  5
95
330
1F
100
AcDbEntity
  8
0
  6
Continuous
 62
     7
370
    25
100
AcDbSpline
210
0.0
220
0.0
230
1.0
 70
     8
 71
     3
 72
    24
 73
    20
 74
     0
 42
0.00000001
 43
0.00000001
 40
0.0
 40
0.0
 40
0.0
 40
0.0
 40
0.124999999999997
 40
0.124999999999997
 40
0.2499999999999939
 40
0.2499999999999939
 40
0.3749999999999909
 40
0.3749999999999909
 40
0.4999999999999879
 40
0.4999999999999879
 40
0.6249999999999849
 40
0.6249999999999849
 40
0.7499999999999818
 40
0.7499999999999818
 40
0.8124999999999855
 40
0.8124999999999855
 40
0.874999999999989
 40
0.874999999999989
 40
1.0
 40
1.0
 40
1.0
 40
1.0
 10
751.6095061895937
 20
885.950969591526
 30
0.0
 10
751.37617008492
 20
885.7903634630605
 30
0.0
 10
751.1680778896456
 20
885.620785517466
 30
0.0
 10
750.80215774443
 20
885.2637661096504
 30
0.0
 10
750.6468948875968
 20
885.0783101316009
 30
0.0
 10
750.3973210194187
 20
884.7023510912386
 30
0.0
 10
750.3012335334437
 20
884.5091779207816
 30
0.0
 10
750.1728733528213
 20
884.1211350634558
 30
0.0
 10
750.141246444112
 20
883.9296859238519
 30
0.0
 10
750.1414937803238
 20
883.5518055198478
 30
0.0
 10
750.1744307060472
 20
883.3635290101337
 30
0.0
 10
750.3030339616009
 20
883.0066463729472
 30
0.0
 10
750.3980150041409
 20
882.8368263221181
 30
0.0
 10
750.5867485342856
 20
882.5950960804817
 30
0.0
 10
750.6578773978084
 20
882.5163238680517
 30
0.0
 10
750.8131360365526
 20
882.3662625824836
 30
0.0
 10
750.8973605753635
 20
882.2947181606743
 30
0.0
 10
751.1693278992059
 20
882.0902833883983
 30
0.0
 10
751.3761776542864
 20
881.9674928285013
 30
0.0
 10
751.6095061895937
 20
881.8586983543196
 30
0.0
  0
SPLINE
  5
96
330
1F
100
AcDbEntity
  8
0
  6
Continuous
 62
     7
370
    25
100
AcDbSpline
210
0.0
220
0.0
230
1.0
 70
     8
 71
     3
 72
    29
 73
    25
 74
     0
 42
0.00000001
 43
0.00000001
 40
0.0
 40
0.0
 40
0.0
 40
0.0
 40
0.1249999999999965
 40
0.1249999999999965
 40
0.1874999999999926
 40
0.1874999999999926
 40
0.2499999999999887
 40
0.2499999999999887
 40
0.3749999999999859
 40
0.3749999999999859
 40
0.4374999999999845
 40
0.4374999999999845
 40
0.499999999999983
 40
0.499999999999983
 40
0.6249999999999839
 40
0.6249999999999839
 40
0.6874999999999866
 40
0.6874999999999866
 40
0.7499999999999892
 40
0.812499999999992
 40
0.812499999999992
 40
0.8749999999999947
 40
0.8749999999999947
 40
1.0
 40
1.0
 40
1.0
 40
1.0
 10
1031.598980775214
 20
720.6607454537067
 30
0.0
 10
1031.132477378324
 20
720.3655440830346
 30
0.0
 10
1030.627903542797
 20
720.1041058424183
 30
0.0
 10
1029.816175253189
 20
719.7606087681239
 30
0.0
 10
1029.536386967494
 20
719.6542797420208
 30
0.0
 10
1028.957950408535
 20
719.4583480910879
 30
0.0
 10
1028.658419535761
 20
719.3686361804405
 30
0.0
 10
1027.750751059196
 20
719.1306419957161
 30
0.0
 10
1027.127751975659
 20
719.0109490339104
 30
0.0
 10
1026.166617302842
 20
718.8894417272865
 30
0.0
 10
1025.840497938628
 20
718.8586066088548
 30
0.0
 10
1025.184752996195
 20
718.8175457907037
 30
0.0
 10
1024.857777964132
 20
718.8073994408089
 30
0.0
 10
1023.879463434226
 20
718.8071666574301
 30
0.0
 10
1023.230709712245
 20
718.8469996542984
 30
0.0
 10
1022.262895987823
 20
718.968269218418
 30
0.0
 10
1021.942008944839
 20
719.0190530094895
 30
0.0
 10
1021.315979609067
 20
719.1390467683528
 30
0.0
 10
1020.70219263756
 20
719.2778605153093
 30
0.0
 10
1020.112551008132
 20
719.4537923991146
 30
0.0
 10
1019.535162024904
 20
719.6485599576454
 30
0.0
 10
1019.251324240235
 20
719.7559323254693
 30
0.0
 10
1018.430411554715
 20
720.1025378899193
 30
0.0
 10
1017.923352338703
 20
720.3655416845293
 30
0.0
 10
1017.456845151483
 20
720.6607454537065
 30
0.0
  0
ARC
  5
97
330
1F
100
AcDbEntity
  8
0
  6
Continuous
 62
     7
370
    25
100
AcDbCircle
 10
1025.8527971643
 20
719.396849325
 30
0.0
 40
8.490550254588692
100
AcDbArc
 50
124.994229778
 51
171.4391813353
  0
ARC
  5
98
330
1F
100
AcDbEntity
  8
0
  6
Continuous
 62
     7
370
    25
100
AcDbCircle
 10
1023.2030287624
 20
719.396849325
 30
0.0
 40
8.49055025459047
100
AcDbArc
 50
8.5608186647
 51
55.005770222
  0
LWPOLYLINE
  5
99
330
1F
100
AcDbEntity
  8
0
  6
Continuous
 62
     7
370
    25
100
AcDbPolyline
 90
       15
 70
   128
 43
0.0
 10
1300.2995576261
 20
875.7782867
 10
1281.1534680961
 20
866.6983497039
 10
1261.9857819244
 20
857.3030538012
 10
1242.8000923622
 20
847.5941602718
 10
1223.5999960361
 20
837.573489184
 10
1204.3890922732
 20
827.242919053
 10
1185.1709824267
 20
816.6043864888
 10
1165.9492692007
 20
805.6598858337
 10
1146.7275559746
 20
794.4114687875
 10
1127.5094461281
 20
782.8612440239
 10
1108.2985423652
 20
771.0113767942
 10
1089.0984460391
 20
758.8640885222
 10
1069.9127564769
 20
746.4216563873
 10
1050.7450703052
 20
733.6864128978
 10
1031.5989807752
 20
720.6607454537
  0
ARC
  5
9A
330
1F
100
AcDbEntity
  8
0
  6
Continuous
 62
     7
370
    25
100
AcDbCircle
 10
1293.0852315
 20
876.1026064392
 30
0.0
 40
7.221612337117702
100
AcDbArc
 50
357.4260035875
 51
52.8507043437
  0
LWPOLYLINE
  5
9B
330
1F
100
AcDbEntity
  8
0
  6
Continuous
 62
     7
370
    25
100
AcDbPolyline
 90
       15
 70
   128
 43
0.0
 10
1017.4568451515
 20
720.6607454537
 10
998.3107556215
 20
733.6864128978
 10
979.1430694498
 20
746.4216563873
 10
959.9573798876
 20
758.8640885222
 10
940.7572835615
 20
771.0113767942
 10
921.5463797986
 20
782.8612440239
 10
902.3282699521
 20
794.4114687875
 10
883.106556726
 20
805.6598858337
 10
863.8848435
 20
816.6043864888
 10
844.6667336535
 20
827.242919053
 10
825.4558298906
 20
837.573489184
 10
806.2557335645
 20
847.5941602718
 10
787.0700440023
 20
857.3030538012
 10
767.9023578306
 20
866.6983497039
 10
748.7562683006
 20
875.7782867
  0
ARC
  5
9C
330
1F
100
AcDbEntity
  8
0
  6
Continuous
 62
     7
370
    25
100
AcDbCircle
 10
755.9705944267
 20
876.1026064392
 30
0.0
 40
7.221612337116745
100
AcDbArc
 50
127.1492956563
 51
182.5739964125
  0
LINE
  5
9D
330
1F
100
AcDbEntity
  8
0
  6
Continuous
 62
     7
370
    25
100
AcDbLine
 10
1031.5989807752
 20
720.6607454537
 30
0.0
 11
1031.5989807752
 21
704.056394701
 31
0.0
  0
ARC
  5
9E
330
1F
100
AcDbEntity
  8
0
  6
Continuous
 62
     7
370
    25
100
AcDbCircle
 10
1024.5279129633
 20
717.7035055506
 30
0.0
 40
15.37021907911822
100
AcDbArc
 50
242.6096722366
 51
297.3903277634
  0
LINE
  5
9F
330
1F
100
AcDbEntity
  8
0
  6
Continuous
 62
     7
370
    25
100
AcDbLine
 10
1017.4568451515
 20
704.056394701
 30
0.0
 11
1017.4568451515
 21
720.6607454537
 31
0.0
  0
LINE
  5
A0
330
1F
100
AcDbEntity
  8
0
  6
Continuous
 62
     7
370
    25
100
AcDbLine
 10
1300.2995576261
 20
859.1739359474
 30
0.0
 11
1300.2995576261
 21
875.7782867
 31
0.0
  0
LINE
  5
A1
330
1F
100
AcDbEntity
  8
0
  6
Continuous
 62
     7
370
    25
100
AcDbLine
 10
1031.5989807752
 20
704.056394701
 30
0.0
 11
1300.2995576261
 21
859.1739359474
 31
0.0
  0
LINE
  5
A2
330
1F
100
AcDbEntity
  8
0
  6
Continuous
 62
     7
370
    25
100
AcDbLine
 10
748.7562683006
 20
859.1739359474
 30
0.0
 11
1017.4568451515
 21
704.056394701
 31
0.0
  0
LINE
  5
A3
330
1F
100
AcDbEntity
  8
0
  6
Continuous
 62
     7
370
    25
100
AcDbLine
 10
748.7562683006
 20
875.7782867
 30
0.0
 11
748.7562683006
 21
859.1739359474
 31
0.0
  0
LWPOLYLINE
  5
A4
330
1F
100
AcDbEntity
  8
0
  6
Continuous
 62
     8
370
    25
100
AcDbPolyline
 90
       15
 70
   128
 43
0.0
 10
1297.4463197371
 20
885.9509695915
 10
1278.2522450204
 20
899.0092828187
 10
1259.0365195349
 20
911.7764442117
 10
1239.8027455377
 20
924.250060387
 10
1220.5545286695
 20
936.4277929905
 10
1201.2954772781
 20
948.3073591356
 10
1182.0292017427
 20
959.886531831
 10
1162.7593137968
 20
971.1631403985
 10
1143.4894258509
 20
982.1350708799
 10
1124.2231503155
 20
992.8002664329
 10
1104.9640989242
 20
1003.1567277172
 10
1085.7158820559
 20
1013.2025132689
 10
1066.4821080587
 20
1022.9357398647
 10
1047.2663825733
 20
1032.3545828749
 10
1040.5279129633
 20
1035.5851061867
  0
LWPOLYLINE
  5
A5
330
1F
100
AcDbEntity
  8
0
  6
Continuous
 62
     8
370
    25
100
AcDbPolyline
 90
       15
 70
   128
 43
0.0
 10
1008.5279129633
 20
1035.5851061867
 10
1001.7894433534
 20
1032.3545828749
 10
982.573717868
 20
1022.9357398647
 10
963.3399438708
 20
1013.2025132689
 10
944.0917270025
 20
1003.1567277172
 10
924.8326756112
 20
992.8002664329
 10
905.5664000758
 20
982.1350708799
 10
886.2965121299
 20
971.1631403985
 10
867.026624184
 20
959.886531831
 10
847.7603486486
 20
948.3073591356
 10
828.5012972572
 20
936.4277929905
 10
809.253080389
 20
924.250060387
 10
790.0193063918
 20
911.7764442117
 10
770.8035809063
 20
899.0092828187
 10
751.6095061896
 20
885.9509695915
  0
ARC
  5
A6
330
1F
100
AcDbEntity
  8
0
  6
Continuous
 62
     8
370
    25
100
AcDbCircle
 10
1019.9062086696
 20
703.7858316986
 30
0.0
 40
2.46426175196816
100
AcDbArc
 50
173.6965160678
 51
235.0373491861
  0
ARC
  5
A7
330
1F
100
AcDbEntity
  8
0
  6
Continuous
 62
     8
370
    25
100
AcDbCircle
 10
1029.2208266675
 20
703.7535097491
 30
0.0
 40
2.397364439168178
100
AcDbArc
 50
304.0328203451
 51
7.258192139
  0
ARC
  5
A8
330
1F
100
AcDbEntity
  8
0
  6
Continuous
 62
     8
370
    25
100
AcDbCircle
 10
751.2062778125
 20
858.9035022606
 30
0.0
 40
2.464889650117793
100
AcDbArc
 50
173.7011524831
 51
234.9866671236
  0
ARC
  5
A9
330
1F
100
AcDbEntity
  8
0
  6
Continuous
 62
     8
370
    25
100
AcDbCircle
 10
1297.9211298464
 20
858.8711158044
 30
0.0
 40
2.397627732205222
100
AcDbArc
 50
304.0563508335
 51
7.2558295599
  0
ARC
  5
AA
330
1F
100
AcDbEntity
  8
0
  6
Continuous
 62
     8
370
    25
100
AcDbCircle
 10
1298.5828599459
 20
884.1093282463
 30
0.0
 40
2.164108705840171
100
AcDbArc
 50
62.012461961
 51
121.6801623995
  0
SPLINE
  5
AB
330
1F
100
AcDbEntity
  8
0
  6
Continuous
 62
     8
370
    25
100
AcDbSpline
210
0.0
220
0.0
230
1.0
 70
     8
 71
     3
 72
    10
 73
     6
 74
     0
 42
0.00000001
 43
0.00000001
 40
0.0
 40
0.0
 40
0.0
 40
0.0
 40
0.2834209688677719
 40
0.707527057621008
 40
1.0
 40
1.0
 40
1.0
 40
1.0
 10
1303.10401492368
 20
879.7146922608406
 30
0.0
 10
1303.104952704078
 20
879.2847925820578
 30
0.0
 10
1303.107293762354
 20
878.2115986824796
 30
0.0
 10
1302.022082425121
 20
876.8331170822951
 30
0.0
 10
1300.798830120994
 20
876.0840284791495
 30
0.0
 10
1300.299557626103
 20
875.7782867000213
 30
0.0
  0
SPLINE
  5
AC
330
1F
100
AcDbEntity
  8
0
  6
Continuous
 62
     8
370
    25
100
AcDbSpline
210
0.0
220
0.0
230
1.0
 70
     8
 71
     3
 72
    10
 73
     6
 74
     0
 42
0.00000001
 43
0.00000001
 40
0.0
 40
0.0
 40
0.0
 40
0.0
 40
0.4289325522434173
 40
0.8587275490975591
 40
1.0
 40
1.0
 40
1.0
 40
1.0
 10
748.7562683005954
 20
875.7782867000216
 30
0.0
 10
748.0573217666736
 20
876.2403248432629
 30
0.0
 10
746.6580233434471
 20
877.1653301389912
 30
0.0
 10
745.7856463590235
 20
878.6112064220133
 30
0.0
 10
745.9183274647478
 20
879.4741011177646
 30
0.0
 10
745.9511505315636
 20
879.6875667057936
 30
0.0
  0
ARC
  5
AD
330
1F
100
AcDbEntity
  8
0
  6
Continuous
 62
     8
370
    25
100
AcDbCircle
 10
750.4727497857
 20
884.1085525438
 30
0.0
 40
2.164882375450195
100
AcDbArc
 50
58.3257501189
 51
117.9288910048
  0
ARC
  5
AE
330
1F
100
AcDbEntity
  8
0
  6
Continuous
 62
     8
370
    25
100
AcDbCircle
 10
1298.2239191893
 20
863.7550402755
 30
0.0
 40
5.029392784937202
100
AcDbArc
 50
294.3746582936
 51
354.3052007488
  0
ARC
  5
AF
330
1F
100
AcDbEntity
  8
0
  6
Continuous
 62
     8
370
    25
100
AcDbCircle
 10
750.8319067374
 20
863.7550402755
 30
0.0
 40
5.029392784938057
100
AcDbArc
 50
185.6947992512
 51
245.6253417064
  0
ENDSEC
  0
SECTION
  2
OBJECTS
  0
DICTIONARY
  5
C
330
0
100
AcDbDictionary
281
     1
  3
ACAD_GROUP
350
D
  3
ACAD_LAYOUT
350
1A
  3
ACAD_MLINESTYLE
350
17
  3
ACAD_PLOTSETTINGS
350
19
  3
ACAD_PLOTSTYLENAME
350
E
  3
ACAD_SCALELIST
350
47
  3
DWGPROPS
350
B0
  0
DICTIONARY
  5
D
102
{ACAD_REACTORS
330
C
102
}
330
C
100
AcDbDictionary
281
     1
  0
DICTIONARY
  5
1A
102
{ACAD_REACTORS
330
C
102
}
330
C
100
AcDbDictionary
281
     1
  3
Layout1
350
1E
  3
Layout2
350
26
  3
Model
350
22
  0
DICTIONARY
  5
17
102
{ACAD_REACTORS
330
C
102
}
330
C
100
AcDbDictionary
281
     1
  3
Standard
350
18
  0
DICTIONARY
  5
19
102
{ACAD_REACTORS
330
C
102
}
330
C
100
AcDbDictionary
281
     1
  0
ACDBDICTIONARYWDFLT
  5
E
102
{ACAD_REACTORS
330
C
102
}
330
C
100
AcDbDictionary
281
     1
  3
Normal
350
F
100
AcDbDictionaryWithDefault
340
F
  0
DICTIONARY
  5
47
102
{ACAD_REACTORS
330
C
102
}
330
C
100
AcDbDictionary
281
     1
  3
A0
350
48
  3
A1
350
49
  3
A2
350
4A
  3
A3
350
4B
  3
A4
350
4C
  3
A5
350
4D
  3
A6
350
4E
  3
A7
350
4F
  3
A8
350
50
  3
A9
350
51
  3
B0
350
52
  3
B1
350
53
  3
B2
350
54
  3
B3
350
55
  3
B4
350
56
  3
B5
350
57
  3
B6
350
58
  3
B7
350
59
  3
B8
350
5A
  3
B9
350
5B
  3
C0
350
5C
  3
C1
350
5D
  3
C2
350
5E
  3
C3
350
5F
  3
C4
350
60
  3
C5
350
61
  3
C6
350
62
  3
C7
350
63
  3
C8
350
64
  3
C9
350
65
  3
D0
350
66
  3
D1
350
67
  3
D2
350
68
  0
XRECORD
  5
B0
102
{ACAD_REACTORS
330
C
102
}
330
C
100
AcDbXrecord
280
     1
  1
DWGPROPS COOKIE
  2

  3

  4

  6

  7

  8
9222
  9

300
=
301
=
302
=
303
=
304
=
305
=
306
=
307
=
308
=
309
=
 40
0.0
 41
2459915.328392453
 42
2459915.328393356
  1

 90
        0
  0
LAYOUT
  5
1E
102
{ACAD_REACTORS
330
1A
102
}
330
1A
100
AcDbPlotSettings
  1

  2
none_device
  4

  6

 40
0.0
 41
0.0
 42
0.0
 43
0.0
 44
0.0
 45
0.0
 46
0.0
 47
0.0
 48
0.0
 49
0.0
140
0.0
141
0.0
142
1.0
143
1.0
 70
   688
 72
     1
 73
     0
 74
     5
  7

 75
    16
147
1.0
148
0.0
149
0.0
100
AcDbLayout
  1
Layout1
 70
     1
 71
     1
 10
0.0
 20
0.0
 11
420.0
 21
297.0
 12
0.0
 22
0.0
 32
0.0
 14
1.0000000000E+20
 24
1.0000000000E+20
 34
1.0000000000E+20
 15
-1.0000000000E+20
 25
-1.0000000000E+20
 35
-1.0000000000E+20
146
0.0
 13
0.0
 23
0.0
 33
0.0
 16
1.0
 26
0.0
 36
0.0
 17
0.0
 27
1.0
 37
0.0
 76
     0
330
1B
  0
LAYOUT
  5
26
102
{ACAD_REACTORS
330
1A
102
}
330
1A
100
AcDbPlotSettings
  1

  2
none_device
  4

  6

 40
0.0
 41
0.0
 42
0.0
 43
0.0
 44
0.0
 45
0.0
 46
0.0
 47
0.0
 48
0.0
 49
0.0
140
0.0
141
0.0
142
1.0
143
1.0
 70
   688
 72
     1
 73
     0
 74
     5
  7

 75
    16
147
1.0
148
0.0
149
0.0
100
AcDbLayout
  1
Layout2
 70
     1
 71
     2
 10
0.0
 20
0.0
 11
0.0
 21
0.0
 12
0.0
 22
0.0
 32
0.0
 14
0.0
 24
0.0
 34
0.0
 15
0.0
 25
0.0
 35
0.0
146
0.0
 13
0.0
 23
0.0
 33
0.0
 16
1.0
 26
0.0
 36
0.0
 17
0.0
 27
1.0
 37
0.0
 76
     0
330
23
  0
LAYOUT
  5
22
102
{ACAD_REACTORS
330
1A
102
}
330
1A
100
AcDbPlotSettings
  1

  2
none_device
  4
Letter_(8.50_x_11.00_Inches)
  6

 40
6.35
 41
6.35
 42
6.35000508
 43
6.35000508
 44
215.9
 45
279.4
 46
0.0
 47
0.0
 48
0.0
 49
0.0
140
0.0
141
0.0
142
1.0
143
1.0
 70
  1712
 72
     1
 73
     0
 74
     0
  7

 75
     0
147
1.0
148
0.0
149
0.0
100
AcDbLayout
  1
Model
 70
     1
 71
     0
 10
0.0
 20
0.0
 11
2100.0
 21
2970.0
 12
0.0
 22
0.0
 32
0.0
 14
0.0
 24
0.0
 34
0.0
 15
2100.0
 25
2970.0
 35
0.0
146
0.0
 13
0.0
 23
0.0
 33
0.0
 16
1.0
 26
0.0
 36
0.0
 17
0.0
 27
1.0
 37
0.0
 76
     0
330
1F
331
29
  0
MLINESTYLE
  5
18
102
{ACAD_REACTORS
330
17
102
}
330
17
100
AcDbMlineStyle
  2
Standard
 70
     0
  3

 62
   256
 51
90.0
 52
90.0
 71
     2
 49
0.5
 62
   256
  6
BYLAYER
 49
-0.5
 62
   256
  6
BYLAYER
  0
ACDBPLACEHOLDER
  5
F
102
{ACAD_REACTORS
330
E
102
}
330
E
  0
SCALE
  5
48
102
{ACAD_REACTORS
330
47
102
}
330
47
100
AcDbScale
 70
     0
300
1:1
140
1.0
141
1.0
290
     1
  0
SCALE
  5
49
102
{ACAD_REACTORS
330
47
102
}
330
47
100
AcDbScale
 70
     0
300
1:2
140
1.0
141
2.0
290
     0
  0
SCALE
  5
4A
102
{ACAD_REACTORS
330
47
102
}
330
47
100
AcDbScale
 70
     0
300
1:4
140
1.0
141
4.0
290
     0
  0
SCALE
  5
4B
102
{ACAD_REACTORS
330
47
102
}
330
47
100
AcDbScale
 70
     0
300
1:5
140
1.0
141
5.0
290
     0
  0
SCALE
  5
4C
102
{ACAD_REACTORS
330
47
102
}
330
47
100
AcDbScale
 70
     0
300
1:8
140
1.0
141
8.0
290
     0
  0
SCALE
  5
4D
102
{ACAD_REACTORS
330
47
102
}
330
47
100
AcDbScale
 70
     0
300
1:10
140
1.0
141
10.0
290
     0
  0
SCALE
  5
4E
102
{ACAD_REACTORS
330
47
102
}
330
47
100
AcDbScale
 70
     0
300
1:16
140
1.0
141
16.0
290
     0
  0
SCALE
  5
4F
102
{ACAD_REACTORS
330
47
102
}
330
47
100
AcDbScale
 70
     0
300
1:20
140
1.0
141
20.0
290
     0
  0
SCALE
  5
50
102
{ACAD_REACTORS
330
47
102
}
330
47
100
AcDbScale
 70
     0
300
1:30
140
1.0
141
30.0
290
     0
  0
SCALE
  5
51
102
{ACAD_REACTORS
330
47
102
}
330
47
100
AcDbScale
 70
     0
300
1:40
140
1.0
141
40.0
290
     0
  0
SCALE
  5
52
102
{ACAD_REACTORS
330
47
102
}
330
47
100
AcDbScale
 70
     0
300
1:50
140
1.0
141
50.0
290
     0
  0
SCALE
  5
53
102
{ACAD_REACTORS
330
47
102
}
330
47
100
AcDbScale
 70
     0
300
1:100
140
1.0
141
100.0
290
     0
  0
SCALE
  5
54
102
{ACAD_REACTORS
330
47
102
}
330
47
100
AcDbScale
 70
     0
300
2:1
140
2.0
141
1.0
290
     0
  0
SCALE
  5
55
102
{ACAD_REACTORS
330
47
102
}
330
47
100
AcDbScale
 70
     0
300
4:1
140
4.0
141
1.0
290
     0
  0
SCALE
  5
56
102
{ACAD_REACTORS
330
47
102
}
330
47
100
AcDbScale
 70
     0
300
8:1
140
8.0
141
1.0
290
     0
  0
SCALE
  5
57
102
{ACAD_REACTORS
330
47
102
}
330
47
100
AcDbScale
 70
     0
300
10:1
140
10.0
141
1.0
290
     0
  0
SCALE
  5
58
102
{ACAD_REACTORS
330
47
102
}
330
47
100
AcDbScale
 70
     0
300
100:1
140
100.0
141
1.0
290
     0
  0
SCALE
  5
59
102
{ACAD_REACTORS
330
47
102
}
330
47
100
AcDbScale
 70
     0
300
1/128" = 1'-0"
140
0.0078125
141
12.0
290
     0
  0
SCALE
  5
5A
102
{ACAD_REACTORS
330
47
102
}
330
47
100
AcDbScale
 70
     0
300
1/64" = 1'-0"
140
0.015625
141
12.0
290
     0
  0
SCALE
  5
5B
102
{ACAD_REACTORS
330
47
102
}
330
47
100
AcDbScale
 70
     0
300
1/32" = 1'-0"
140
0.03125
141
12.0
290
     0
  0
SCALE
  5
5C
102
{ACAD_REACTORS
330
47
102
}
330
47
100
AcDbScale
 70
     0
300
1/16" = 1'-0"
140
0.0625
141
12.0
290
     0
  0
SCALE
  5
5D
102
{ACAD_REACTORS
330
47
102
}
330
47
100
AcDbScale
 70
     0
300
3/32" = 1'-0"
140
0.09375
141
12.0
290
     0
  0
SCALE
  5
5E
102
{ACAD_REACTORS
330
47
102
}
330
47
100
AcDbScale
 70
     0
300
1/8" = 1'-0"
140
0.125
141
12.0
290
     0
  0
SCALE
  5
5F
102
{ACAD_REACTORS
330
47
102
}
330
47
100
AcDbScale
 70
     0
300
3/16" = 1'-0"
140
0.1875
141
12.0
290
     0
  0
SCALE
  5
60
102
{ACAD_REACTORS
330
47
102
}
330
47
100
AcDbScale
 70
     0
300
1/4" = 1'-0"
140
0.25
141
12.0
290
     0
  0
SCALE
  5
61
102
{ACAD_REACTORS
330
47
102
}
330
47
100
AcDbScale
 70
     0
300
3/8" = 1'-0"
140
0.375
141
12.0
290
     0
  0
SCALE
  5
62
102
{ACAD_REACTORS
330
47
102
}
330
47
100
AcDbScale
 70
     0
300
1/2" = 1'-0"
140
0.5
141
12.0
290
     0
  0
SCALE
  5
63
102
{ACAD_REACTORS
330
47
102
}
330
47
100
AcDbScale
 70
     0
300
3/4" = 1'-0"
140
0.75
141
12.0
290
     0
  0
SCALE
  5
64
102
{ACAD_REACTORS
330
47
102
}
330
47
100
AcDbScale
 70
     0
300
1" = 1'-0"
140
1.0
141
12.0
290
     0
  0
SCALE
  5
65
102
{ACAD_REACTORS
330
47
102
}
330
47
100
AcDbScale
 70
     0
300
1-1/2" = 1'-0"
140
1.5
141
12.0
290
     0
  0
SCALE
  5
66
102
{ACAD_REACTORS
330
47
102
}
330
47
100
AcDbScale
 70
     0
300
3" = 1'-0"
140
3.0
141
12.0
290
     0
  0
SCALE
  5
67
102
{ACAD_REACTORS
330
47
102
}
330
47
100
AcDbScale
 70
     0
300
6" = 1'-0"
140
6.0
141
12.0
290
     0
  0
SCALE
  5
68
102
{ACAD_REACTORS
330
47
102
}
330
47
100
AcDbScale
 70
     0
300
1'-0" = 1'-0"
140
12.0
141
12.0
290
     0
  0
ENDSEC
  0
EOF
