  0
SECTION
  2
HEADER
  9
$ACADVER
  1
AC1015
  9
$ACADMAINTVER
 70
     6
  9
$DWGCODEPAGE
  3
DOS932
  9
$INSBASE
 10
0.0
 20
0.0
 30
0.0
  9
$EXTMIN
 10
0.0
 20
0.0
 30
0.0
  9
$EXTMAX
 10
10500.0
 20
14850.0
 30
0.0
  9
$LIMMIN
 10
0.0
 20
0.0
  9
$LIMMAX
 10
10500.0
 20
14850.0
  9
$ORTHOMODE
 70
     0
  9
$REGENMODE
 70
     1
  9
$FILLMODE
 70
     1
  9
$QTEXTMODE
 70
     0
  9
$MIRRTEXT
 70
     1
  9
$LTSCALE
 40
50.0
  9
$ATTMODE
 70
     1
  9
$TEXTSIZE
 40
175.0
  9
$TRACEWID
 40
1.0
  9
$TEXTSTYLE
  7
Standard
  9
$CLAYER
  8
0
  9
$CELTYPE
  6
ByLayer
  9
$CECOLOR
 62
   256
  9
$CELTSCALE
 40
1.0
  9
$DISPSILH
 70
     0
  9
$DIMSCALE
 40
1.0
  9
$DIMASZ
 40
165.1
  9
$DIMEXO
 40
50.0
  9
$DIMDLI
 40
3.75
  9
$DIMRND
 40
0.0
  9
$DIMDLE
 40
0.0
  9
$DIMEXE
 40
50.0
  9
$DIMTP
 40
0.0
  9
$DIMTM
 40
0.0
  9
$DIMTXT
 40
175.0
  9
$DIMCEN
 40
2.5
  9
$DIMTSZ
 40
0.0
  9
$DIMTOL
 70
     0
  9
$DIMLIM
 70
     0
  9
$DIMTIH
 70
     1
  9
$DIMTOH
 70
     1
  9
$DIMSE1
 70
     0
  9
$DIMSE2
 70
     0
  9
$DIMTAD
 70
     1
  9
$DIMZIN
 70
     1
  9
$DIMBLK
  1

  9
$DIMASO
 70
     1
  9
$DIMSHO
 70
     1
  9
$DIMPOST
  1

  9
$DIMAPOST
  1

  9
$DIMALT
 70
     0
  9
$DIMALTD
 70
     3
  9
$DIMALTF
 40
0.0393700787
  9
$DIMLFAC
 40
1.0
  9
$DIMTOFL
 70
     1
  9
$DIMTVP
 40
0.0
  9
$DIMTIX
 70
     0
  9
$DIMSOXD
 70
     0
  9
$DIMSAH
 70
     0
  9
$DIMBLK1
  1

  9
$DIMBLK2
  1

  9
$DIMSTYLE
  2
ISO-25
  9
$DIMCLRD
 70
     0
  9
$DIMCLRE
 70
     0
  9
$DIMCLRT
 70
     0
  9
$DIMTFAC
 40
1.0
  9
$DIMGAP
 40
76.2
  9
$DIMJUST
 70
     0
  9
$DIMSD1
 70
     0
  9
$DIMSD2
 70
     0
  9
$DIMTOLJ
 70
     0
  9
$DIMTZIN
 70
     1
  9
$DIMALTZ
 70
     0
  9
$DIMALTTZ
 70
     0
  9
$DIMUPT
 70
     0
  9
$DIMDEC
 70
     2
  9
$DIMTDEC
 70
     2
  9
$DIMALTU
 70
     2
  9
$DIMALTTD
 70
     3
  9
$DIMTXSTY
  7
Standard
  9
$DIMAUNIT
 70
     0
  9
$DIMADEC
 70
     2
  9
$DIMALTRND
 40
0.0
  9
$DIMAZIN
 70
     0
  9
$DIMDSEP
 70
    44
  9
$DIMATFIT
 70
     3
  9
$DIMFRAC
 70
     0
  9
$DIMLDRBLK
  1

  9
$DIMLUNIT
 70
     2
  9
$DIMLWD
 70
    -2
  9
$DIMLWE
 70
    -2
  9
$DIMTMOVE
 70
     0
  9
$LUNITS
 70
     2
  9
$LUPREC
 70
     2
  9
$SKETCHINC
 40
1.0
  9
$FILLETRAD
 40
10.0
  9
$AUNITS
 70
     0
  9
$AUPREC
 70
     2
  9
$MENU
  1
.
  9
$ELEVATION
 40
0.0
  9
$PELEVATION
 40
0.0
  9
$THICKNESS
 40
0.0
  9
$LIMCHECK
 70
     0
  9
$CHAMFERA
 40
0.0
  9
$CHAMFERB
 40
0.0
  9
$CHAMFERC
 40
0.0
  9
$CHAMFERD
 40
0.0
  9
$SKPOLY
 70
     0
  9
$TDCREATE
 40
2459916.667850648
  9
$TDUCREATE
 40
2459916.292850648
  9
$TDUPDATE
 40
2459916.667850914
  9
$TDUUPDATE
 40
2459916.292850914
  9
$TDINDWG
 40
0.0000000116
  9
$TDUSRTIMER
 40
0.0000000116
  9
$USRTIMER
 70
     1
  9
$ANGBASE
 50
0.0
  9
$ANGDIR
 70
     0
  9
$PDMODE
 70
     0
  9
$PDSIZE
 40
-1.0
  9
$PLINEWID
 40
0.0
  9
$SPLFRAME
 70
     0
  9
$SPLINETYPE
 70
     6
  9
$SPLINESEGS
 70
     8
  9
$HANDSEED
  5
AE
  9
$SURFTAB1
 70
     6
  9
$SURFTAB2
 70
     6
  9
$SURFTYPE
 70
     6
  9
$SURFU
 70
     6
  9
$SURFV
 70
     6
  9
$UCSBASE
  2

  9
$UCSNAME
  2

  9
$UCSORG
 10
0.0
 20
0.0
 30
0.0
  9
$UCSXDIR
 10
1.0
 20
0.0
 30
0.0
  9
$UCSYDIR
 10
0.0
 20
1.0
 30
0.0
  9
$UCSORTHOREF
  2

  9
$UCSORTHOVIEW
 70
     0
  9
$UCSORGTOP
 10
0.0
 20
0.0
 30
0.0
  9
$UCSORGBOTTOM
 10
0.0
 20
0.0
 30
0.0
  9
$UCSORGLEFT
 10
0.0
 20
0.0
 30
0.0
  9
$UCSORGRIGHT
 10
0.0
 20
0.0
 30
0.0
  9
$UCSORGFRONT
 10
0.0
 20
0.0
 30
0.0
  9
$UCSORGBACK
 10
0.0
 20
0.0
 30
0.0
  9
$PUCSBASE
  2

  9
$PUCSNAME
  2

  9
$PUCSORG
 10
0.0
 20
0.0
 30
0.0
  9
$PUCSXDIR
 10
1.0
 20
0.0
 30
0.0
  9
$PUCSYDIR
 10
0.0
 20
1.0
 30
0.0
  9
$PUCSORTHOREF
  2

  9
$PUCSORTHOVIEW
 70
     0
  9
$PUCSORGTOP
 10
0.0
 20
0.0
 30
0.0
  9
$PUCSORGBOTTOM
 10
0.0
 20
0.0
 30
0.0
  9
$PUCSORGLEFT
 10
0.0
 20
0.0
 30
0.0
  9
$PUCSORGRIGHT
 10
0.0
 20
0.0
 30
0.0
  9
$PUCSORGFRONT
 10
0.0
 20
0.0
 30
0.0
  9
$PUCSORGBACK
 10
0.0
 20
0.0
 30
0.0
  9
$USERI1
 70
     0
  9
$USERI2
 70
     0
  9
$USERI3
 70
     0
  9
$USERI4
 70
     0
  9
$USERI5
 70
     0
  9
$USERR1
 40
0.0
  9
$USERR2
 40
0.0
  9
$USERR3
 40
0.0
  9
$USERR4
 40
0.0
  9
$USERR5
 40
0.0
  9
$WORLDVIEW
 70
     1
  9
$SHADEDGE
 70
     3
  9
$SHADEDIF
 70
    70
  9
$TILEMODE
 70
     1
  9
$MAXACTVP
 70
    64
  9
$PINSBASE
 10
0.0
 20
0.0
 30
0.0
  9
$PLIMCHECK
 70
     0
  9
$PEXTMIN
 10
1.0000000000E+20
 20
1.0000000000E+20
 30
1.0000000000E+20
  9
$PEXTMAX
 10
-1.0000000000E+20
 20
-1.0000000000E+20
 30
-1.0000000000E+20
  9
$PLIMMIN
 10
0.0
 20
0.0
  9
$PLIMMAX
 10
420.0
 20
297.0
  9
$UNITMODE
 70
     0
  9
$VISRETAIN
 70
     1
  9
$PLINEGEN
 70
     0
  9
$PSLTSCALE
 70
     1
  9
$TREEDEPTH
 70
  3020
  9
$CMLSTYLE
  2
Standard
  9
$CMLJUST
 70
     0
  9
$CMLSCALE
 40
20.0
  9
$PROXYGRAPHICS
 70
     1
  9
$MEASUREMENT
 70
     1
  9
$CELWEIGHT
370
    -1
  9
$ENDCAPS
280
     0
  9
$JOINSTYLE
280
     0
  9
$LWDISPLAY
290
     1
  9
$INSUNITS
 70
     4
  9
$HYPERLINKBASE
  1

  9
$STYLESHEET
  1

  9
$XEDIT
290
     1
  9
$CEPSNTYPE
380
     0
  9
$PSTYLEMODE
290
     1
  9
$FINGERPRINTGUID
  2
{eeeeb648-5206-438f-bfd5-0359c4c372a8}
  9
$VERSIONGUID
  2
{FAEB1C32-E019-11D5-929B-00C0DF256EC4}
  9
$EXTNAMES
290
     1
  9
$PSVPSCALE
 40
0.0
  9
$OLESTARTUP
290
     0
  0
ENDSEC
  0
SECTION
  2
CLASSES
  0
CLASS
  1
ACDBDICTIONARYWDFLT
  2
AcDbDictionaryWithDefault
  3
ObjectDBX Classes
 90
        0
280
     0
281
     0
  0
CLASS
  1
VISUALSTYLE
  2
AcDbVisualStyle
  3
ObjectDBX Classes
 90
     4095
280
     0
281
     0
  0
CLASS
  1
MATERIAL
  2
AcDbMaterial
  3
ObjectDBX Classes
 90
     1153
280
     0
281
     0
  0
CLASS
  1
SCALE
  2
AcDbScale
  3
ObjectDBX Classes
 90
     1153
280
     0
281
     0
  0
CLASS
  1
TABLESTYLE
  2
AcDbTableStyle
  3
ObjectDBX Classes
 90
     4095
280
     0
281
     0
  0
CLASS
  1
MLEADERSTYLE
  2
AcDbMLeaderStyle
  3
ACDB_MLEADERSTYLE_CLASS
 90
     4095
280
     0
281
     0
  0
CLASS
  1
SUN
  2
AcDbSun
  3
SCENEOE
 90
     1153
280
     0
281
     0
  0
CLASS
  1
ACDBPLACEHOLDER
  2
AcDbPlaceHolder
  3
ObjectDBX Classes
 90
        0
280
     0
281
     0
  0
CLASS
  1
LAYOUT
  2
AcDbLayout
  3
ObjectDBX Classes
 90
        0
280
     0
281
     0
  0
ENDSEC
  0
SECTION
  2
TABLES
  0
TABLE
  2
VPORT
  5
8
330
0
100
AcDbSymbolTable
 70
     1
  0
VPORT
  5
29
330
8
100
AcDbSymbolTableRecord
100
AcDbViewportTableRecord
  2
*Active
 70
     0
 10
0.0
 20
0.0
 11
1.0
 21
1.0
 12
5250.0
 22
7425.0
 13
0.0
 23
0.0
 14
10.0
 24
10.0
 15
10.0
 25
10.0
 16
0.0
 26
0.0
 36
1.0
 17
0.0
 27
0.0
 37
0.0
 40
14850.0
 41
0.7070707071
 42
50.0
 43
0.0
 44
0.0
 50
0.0
 51
0.0
 71
     0
 72
  2000
 73
     1
 74
     3
 75
     0
 76
     0
 77
     0
 78
     0
281
     0
 65
     1
110
0.0
120
0.0
130
0.0
111
1.0
121
0.0
131
0.0
112
0.0
122
1.0
132
0.0
 79
     0
146
0.0
  0
ENDTAB
  0
TABLE
  2
LTYPE
  5
5
330
0
100
AcDbSymbolTable
 70
     6
  0
LTYPE
  5
14
330
5
100
AcDbSymbolTableRecord
100
AcDbLinetypeTableRecord
  2
ByBlock
 70
     0
  3

 72
    65
 73
     0
 40
0.0
  0
LTYPE
  5
15
330
5
100
AcDbSymbolTableRecord
100
AcDbLinetypeTableRecord
  2
ByLayer
 70
     0
  3

 72
    65
 73
     0
 40
0.0
  0
LTYPE
  5
16
330
5
100
AcDbSymbolTableRecord
100
AcDbLinetypeTableRecord
  2
Continuous
 70
     0
  3
Solid line
 72
    65
 73
     0
 40
0.0
  0
LTYPE
  5
6E
330
5
100
AcDbSymbolTableRecord
100
AcDbLinetypeTableRecord
  2
HIDDEN
 70
     0
  3
Hidden __ __ __ __ __ __ __ __ __ __ __ __ __ __
 72
    65
 73
     2
 40
1.905
 49
1.27
 74
     0
 49
-0.635
 74
     0
  0
LTYPE
  5
6F
330
5
100
AcDbSymbolTableRecord
100
AcDbLinetypeTableRecord
  2
PHANTOM
 70
     0
  3
Phantom ______  __  __  ______  __  __  ______
 72
    65
 73
     6
 40
12.7
 49
6.35
 74
     0
 49
-1.27
 74
     0
 49
1.27
 74
     0
 49
-1.27
 74
     0
 49
1.27
 74
     0
 49
-1.27
 74
     0
  0
LTYPE
  5
70
330
5
100
AcDbSymbolTableRecord
100
AcDbLinetypeTableRecord
  2
CENTER
 70
     0
  3
Center ____ _ ____ _ ____ _ ____ _ ____ _ ____
 72
    65
 73
     4
 40
10.16
 49
6.35
 74
     0
 49
-1.27
 74
     0
 49
1.27
 74
     0
 49
-1.27
 74
     0
  0
LTYPE
  5
71
330
5
100
AcDbSymbolTableRecord
100
AcDbLinetypeTableRecord
  2
CENTERX2
 70
     0
  3
Center (2x) ________  __  ________  __  _____
 72
    65
 73
     4
 40
20.32
 49
12.7
 74
     0
 49
-2.54
 74
     0
 49
2.54
 74
     0
 49
-2.54
 74
     0
  0
LTYPE
  5
72
330
5
100
AcDbSymbolTableRecord
100
AcDbLinetypeTableRecord
  2
DOT2
 70
     0
  3
Dot (.5x) ........................................
 72
    65
 73
     2
 40
0.635
 49
0.0
 74
     0
 49
-0.635
 74
     0
  0
ENDTAB
  0
TABLE
  2
LAYER
  5
2
330
0
100
AcDbSymbolTable
 70
     1
  0
LAYER
  5
10
330
2
100
AcDbSymbolTableRecord
100
AcDbLayerTableRecord
  2
0
 70
     0
 62
     7
  6
Continuous
370
    -3
390
F
  0
ENDTAB
  0
TABLE
  2
STYLE
  5
3
330
0
100
AcDbSymbolTable
 70
     2
  0
STYLE
  5
11
330
3
100
AcDbSymbolTableRecord
100
AcDbTextStyleTableRecord
  2
Standard
 70
     0
 40
0.0
 41
1.0
 50
0.0
 71
     0
 42
175.0
  3
txt
  4
bigfont
  0
STYLE
  5
76
330
3
100
AcDbSymbolTableRecord
100
AcDbTextStyleTableRecord
  2
SLDTEXTSTYLE0
 70
     0
 40
0.0
 41
0.7
 50
0.0
 71
     0
 42
175.0
  3
TXT
  4
bigfont
  0
ENDTAB
  0
TABLE
  2
VIEW
  5
6
330
0
100
AcDbSymbolTable
 70
     0
  0
ENDTAB
  0
TABLE
  2
UCS
  5
7
330
0
100
AcDbSymbolTable
 70
     0
  0
ENDTAB
  0
TABLE
  2
APPID
  5
9
330
0
100
AcDbSymbolTable
 70
     1
  0
APPID
  5
12
330
9
100
AcDbSymbolTableRecord
100
AcDbRegAppTableRecord
  2
ACAD
 70
     0
  0
ENDTAB
  0
TABLE
  2
DIMSTYLE
  5
A
330
0
100
AcDbSymbolTable
 70
     1
100
AcDbDimStyleTable
  0
DIMSTYLE
105
27
330
A
100
AcDbSymbolTableRecord
100
AcDbDimStyleTableRecord
  2
ISO-25
 70
     0
 41
2.5
 42
0.625
 43
3.75
 44
1.25
 73
     0
 74
     0
 77
     1
 78
     8
140
2.5
141
2.5
143
0.0393700787
147
0.625
171
     3
172
     1
178
     0
271
     2
272
     2
274
     3
278
    44
283
     0
284
     8
340
11
  0
ENDTAB
  0
TABLE
  2
BLOCK_RECORD
  5
1
330
0
100
AcDbSymbolTable
 70
     2
  0
BLOCK_RECORD
  5
1F
330
1
100
AcDbSymbolTableRecord
100
AcDbBlockTableRecord
  2
*Model_Space
340
22
  0
BLOCK_RECORD
  5
1B
330
1
100
AcDbSymbolTableRecord
100
AcDbBlockTableRecord
  2
*Paper_Space
340
1E
  0
BLOCK_RECORD
  5
23
330
1
100
AcDbSymbolTableRecord
100
AcDbBlockTableRecord
  2
*Paper_Space0
340
26
  0
BLOCK_RECORD
  5
73
330
1
100
AcDbSymbolTableRecord
100
AcDbBlockTableRecord
  2
SW_NOTE_0
340
0
102
{BLKREFS
331
79
102
}
  0
ENDTAB
  0
ENDSEC
  0
SECTION
  2
BLOCKS
  0
BLOCK
  5
20
330
1F
100
AcDbEntity
  8
0
100
AcDbBlockBegin
  2
*Model_Space
 70
     0
 10
0.0
 20
0.0
 30
0.0
  3
*Model_Space
  1

  0
ENDBLK
  5
21
330
1F
100
AcDbEntity
  8
0
100
AcDbBlockEnd
  0
BLOCK
  5
1C
330
1B
100
AcDbEntity
 67
     1
  8
0
100
AcDbBlockBegin
  2
*Paper_Space
 70
     0
 10
0.0
 20
0.0
 30
0.0
  3
*Paper_Space
  1

  0
ENDBLK
  5
1D
330
1B
100
AcDbEntity
 67
     1
  8
0
100
AcDbBlockEnd
  0
BLOCK
  5
24
330
23
100
AcDbEntity
  8
0
100
AcDbBlockBegin
  2
*Paper_Space0
 70
     0
 10
0.0
 20
0.0
 30
0.0
  3
*Paper_Space0
  1

  0
ENDBLK
  5
25
330
23
100
AcDbEntity
  8
0
100
AcDbBlockEnd
  0
BLOCK
  5
74
330
73
100
AcDbEntity
  8
0
100
AcDbBlockBegin
  2
SW_NOTE_0
 70
     0
 10
0.0
 20
0.0
 30
0.0
  3
SW_NOTE_0
  1

  0
MTEXT
  5
77
330
73
100
AcDbEntity
  8
0
  6
Continuous
 62
     0
370
     0
100
AcDbMText
 10
0.0
 20
341.0658394813
 30
0.0
 40
264.5833333333
 41
0.0
 71
     1
 72
     1
  1
HOA-D28K
  7
SLDTEXTSTYLE0
 73
     1
 44
1.0
  0
MTEXT
  5
78
330
73
100
AcDbEntity
  8
0
  6
Continuous
 62
     0
370
     0
100
AcDbMText
 10
0.0
 20
-61.7119422287
 30
0.0
 40
264.5833333333
 41
0.0
 71
     1
 72
     1
  1
HOA-D28O
  7
SLDTEXTSTYLE0
 73
     1
 44
1.0
  0
ENDBLK
  5
75
330
73
100
AcDbEntity
  8
0
100
AcDbBlockEnd
  0
ENDSEC
  0
SECTION
  2
ENTITIES
  0
INSERT
  5
79
330
1F
100
AcDbEntity
  8
0
  6
Continuous
 62
     7
370
     0
100
AcDbBlockReference
  2
SW_NOTE_0
 10
7516.0428501701
 20
2429.6268532928
 30
0.0
  0
SPLINE
  5
7A
330
1F
100
AcDbEntity
  8
0
  6
Continuous
 62
     7
370
    25
100
AcDbSpline
210
0.0
220
0.0
230
1.0
 70
     8
 71
     3
 72
    31
 73
    27
 74
     0
 42
0.00000001
 43
0.00000001
 40
0.0
 40
0.0
 40
0.0
 40
0.0
 40
0.0369841141720174
 40
0.0742661512065495
 40
0.1131563982982927
 40
0.1498763783914783
 40
0.1848046530403659
 40
0.2227639523197882
 40
0.2576302044119072
 40
0.2656427984894017
 40
0.3323398925304183
 40
0.3627176252092031
 40
0.3832495124819433
 40
0.4617302155915961
 40
0.5386080998586852
 40
0.5566472411624042
 40
0.5773654244763475
 40
0.6534046451416485
 40
0.7266903389209929
 40
0.7502655335103249
 40
0.7760855758875529
 40
0.8467271021397829
 40
0.9223445347655359
 40
0.9430228218764825
 40
0.9597740174012366
 40
1.0
 40
1.0
 40
1.0
 40
1.0
 10
4807.501692064603
 20
5025.208813313354
 30
0.0
 10
4808.906190186204
 20
5029.727888910177
 30
0.0
 10
4811.726500262661
 20
5038.802443191146
 30
0.0
 10
4814.865244008334
 20
5052.749000706848
 30
0.0
 10
4816.857672189204
 20
5066.648866466187
 30
0.0
 10
4817.384844171211
 20
5080.110427477795
 30
0.0
 10
4816.419007319152
 20
5093.145247619776
 30
0.0
 10
4813.427410720059
 20
5105.190791802447
 30
0.0
 10
4810.300563065024
 20
5113.836748324912
 30
0.0
 10
4802.804505407526
 20
5123.394449061876
 30
0.0
 10
4800.326584719513
 20
5129.764571696532
 30
0.0
 10
4794.204595200411
 20
5137.93311860419
 30
0.0
 10
4789.484348444751
 20
5147.705445335851
 30
0.0
 10
4781.937578942082
 20
5159.489303343517
 30
0.0
 10
4776.836598622707
 20
5174.913736179463
 30
0.0
 10
4772.45957777481
 20
5183.580782070149
 30
0.0
 10
4769.133340668221
 20
5194.128798217576
 30
0.0
 10
4763.217323194968
 20
5207.84709355769
 30
0.0
 10
4759.415360990904
 20
5225.170824493737
 30
0.0
 10
4755.661448285661
 20
5236.551249481479
 30
0.0
 10
4753.068689530191
 20
5249.170743699984
 30
0.0
 10
4748.419435973379
 20
5265.910828941104
 30
0.0
 10
4745.741956992118
 20
5284.537112988446
 30
0.0
 10
4743.179442397102
 20
5296.395258254305
 30
0.0
 10
4741.95518097159
 20
5305.220827465278
 30
0.0
 10
4740.936666012395
 20
5311.517330343392
 30
0.0
 10
4740.217592755796
 20
5315.962671856427
 30
0.0
  0
SPLINE
  5
7B
330
1F
100
AcDbEntity
  8
0
  6
Continuous
 62
     7
370
    25
100
AcDbSpline
210
0.0
220
0.0
230
1.0
 70
     8
 71
     3
 72
    17
 73
    13
 74
     0
 42
0.00000001
 43
0.00000001
 40
0.0
 40
0.0
 40
0.0
 40
0.0
 40
0.122873524188336
 40
0.2319817844225089
 40
0.3427064989686744
 40
0.4427856705002859
 40
0.5513468375404783
 40
0.6620874711677287
 40
0.7658577946497784
 40
0.8741220977043894
 40
0.9879090597397349
 40
1.0
 40
1.0
 40
1.0
 40
1.0
 10
4781.52746309133
 20
4970.504093458031
 30
0.0
 10
4783.107498534222
 20
4970.553963863832
 30
0.0
 10
4786.090561353606
 20
4970.648117798166
 30
0.0
 10
4788.876717198081
 20
4970.461439263038
 30
0.0
 10
4791.532289686958
 20
4970.899765342308
 30
0.0
 10
4793.818596841364
 20
4971.576739330315
 30
0.0
 10
4795.859487379288
 20
4972.542378619187
 30
0.0
 10
4797.570130632776
 20
4973.763838580217
 30
0.0
 10
4798.987097445871
 20
4975.210085598935
 30
0.0
 10
4800.034934681329
 20
4976.820244715015
 30
0.0
 10
4800.624469659183
 20
4978.092377756103
 30
0.0
 10
4800.739499615644
 20
4978.838401019389
 30
0.0
 10
4800.750548579015
 20
4978.91005873329
 30
0.0
  0
SPLINE
  5
7C
330
1F
100
AcDbEntity
  8
0
  6
Continuous
 62
     7
370
    25
100
AcDbSpline
210
0.0
220
0.0
230
1.0
 70
     8
 71
     3
 72
    14
 73
    10
 74
     0
 42
0.00000001
 43
0.00000001
 40
0.0
 40
0.0
 40
0.0
 40
0.0
 40
0.0387337429499002
 40
0.2140826577194448
 40
0.3869979586993754
 40
0.5605768063136916
 40
0.7074438312561713
 40
0.8552117439607128
 40
1.0
 40
1.0
 40
1.0
 40
1.0
 10
4809.654784117764
 20
5009.076242406003
 30
0.0
 10
4809.72292322765
 20
5009.248302947902
 30
0.0
 10
4810.099530305298
 20
5010.199287161999
 30
0.0
 10
4810.383326737794
 20
5012.113760654323
 30
0.0
 10
4810.489997360193
 20
5014.793848820285
 30
0.0
 10
4810.170993235193
 20
5017.465486183905
 30
0.0
 10
4809.551905313532
 20
5020.094437947642
 30
0.0
 10
4808.683304777978
 20
5022.628367526509
 30
0.0
 10
4807.892879500383
 20
5024.354524967352
 30
0.0
 10
4807.501692064603
 20
5025.208813313354
 30
0.0
  0
SPLINE
  5
7D
330
1F
100
AcDbEntity
  8
0
  6
Continuous
 62
     7
370
    25
100
AcDbSpline
210
0.0
220
0.0
230
1.0
 70
     8
 71
     3
 72
    16
 73
    12
 74
     0
 42
0.00000001
 43
0.00000001
 40
0.0
 40
0.0
 40
0.0
 40
0.0
 40
0.0190764781497468
 40
0.2048876891179439
 40
0.258699643289686
 40
0.3494045384035706
 40
0.5156932380460548
 40
0.5569177445787169
 40
0.7604042533858074
 40
0.7823422512635577
 40
1.0
 40
1.0
 40
1.0
 40
1.0
 10
4800.750548579015
 20
4978.91005873329
 30
0.0
 10
4800.812930927103
 20
4979.101330060499
 30
0.0
 10
4801.48293799242
 20
4981.155647420277
 30
0.0
 10
4802.16719721171
 20
4983.789949537525
 30
0.0
 10
4803.251166642355
 20
4987.091941354288
 30
0.0
 10
4804.05927114339
 20
4990.274459721451
 30
0.0
 10
4805.075193525473
 20
4993.239797341681
 30
0.0
 10
4806.234758132863
 20
4997.418250052891
 30
0.0
 10
4807.055100870327
 20
5000.121293670059
 30
0.0
 10
4808.326349313867
 20
5004.536471825201
 30
0.0
 10
4809.02243437807
 20
5006.915261124406
 30
0.0
 10
4809.654784117764
 20
5009.076242406003
 30
0.0
  0
SPLINE
  5
7E
330
1F
100
AcDbEntity
  8
0
  6
Continuous
 62
     7
370
    25
100
AcDbSpline
210
0.0
220
0.0
230
1.0
 70
     8
 71
     3
 72
    56
 73
    52
 74
     0
 42
0.00000001
 43
0.00000001
 40
0.0
 40
0.0
 40
0.0
 40
0.0
 40
0.018697568838501
 40
0.0390073983863551
 40
0.0594177833791471
 40
0.0798108095277165
 40
0.1000770840872361
 40
0.1204658129892105
 40
0.1408660581513719
 40
0.1611613780255025
 40
0.1814886003285782
 40
0.2018360949577463
 40
0.222126355733244
 40
0.2424470325521114
 40
0.2628372043019048
 40
0.2831673204968194
 40
0.3035870625597912
 40
0.323962770216815
 40
0.3443015781323455
 40
0.3647588155203113
 40
0.3851951432700413
 40
0.4057693399372218
 40
0.4261854801289049
 40
0.4467568364417827
 40
0.4672665014508041
 40
0.4880210466642639
 40
0.5085766160154231
 40
0.5293261597380245
 40
0.5499561644572559
 40
0.5707418656862558
 40
0.5915862812766001
 40
0.6124963375432065
 40
0.6334787962339794
 40
0.6544991028232727
 40
0.6755711858262579
 40
0.6966076123254925
 40
0.7178827963725114
 40
0.7392422659096037
 40
0.7605520282529981
 40
0.7819679560580836
 40
0.8035189246511004
 40
0.8251979825253063
 40
0.8470266427305339
 40
0.8688330286963566
 40
0.8908008953806806
 40
0.9127687616654359
 40
0.9347466836650787
 40
0.9564039891845059
 40
0.9780830406816643
 40
0.9996340092746812
 40
0.9999999999999999
 40
0.9999999999999999
 40
0.9999999999999999
 40
0.9999999999999999
 10
4727.452300540047
 20
5440.680164259991
 30
0.0
 10
4727.437350021495
 20
5440.820111112987
 30
0.0
 10
4727.406159825686
 20
5441.112072206694
 30
0.0
 10
4727.320821320028
 20
5441.556325450083
 30
0.0
 10
4727.21941646254
 20
5442.012931091634
 30
0.0
 10
4727.084007639579
 20
5442.468230120549
 30
0.0
 10
4726.930317232777
 20
5442.922614171327
 30
0.0
 10
4726.758088915882
 20
5443.376281960428
 30
0.0
 10
4726.552039229783
 20
5443.828342177198
 30
0.0
 10
4726.332580960918
 20
5444.279144996359
 30
0.0
 10
4726.0745878503
 20
5444.726800446246
 30
0.0
 10
4725.819087549768
 20
5445.174667826895
 30
0.0
 10
4725.510115554825
 20
5445.61791165694
 30
0.0
 10
4725.203244384089
 20
5446.061621149735
 30
0.0
 10
4724.858876894134
 20
5446.501893790365
 30
0.0
 10
4724.499434118706
 20
5446.941241361012
 30
0.0
 10
4724.108818768423
 20
5447.376786146276
 30
0.0
 10
4723.699457920373
 20
5447.809940606682
 30
0.0
 10
4723.270559885596
 20
5448.240773912728
 30
0.0
 10
4722.811815917688
 20
5448.667718967637
 30
0.0
 10
4722.335456966876
 20
5449.093852969585
 30
0.0
 10
4721.828894604677
 20
5449.514660665586
 30
0.0
 10
4721.311055557616
 20
5449.934592347139
 30
0.0
 10
4720.768689289759
 20
5450.349612967723
 30
0.0
 10
4720.189604217157
 20
5450.760280471178
 30
0.0
 10
4719.603573862216
 20
5451.169373341107
 30
0.0
 10
4718.987110858488
 20
5451.574110657069
 30
0.0
 10
4718.347698262559
 20
5451.972478107459
 30
0.0
 10
4717.697812751298
 20
5452.370495666792
 30
0.0
 10
4717.00841109605
 20
5452.759597608288
 30
0.0
 10
4716.303392042301
 20
5453.147092893697
 30
0.0
 10
4715.576256459482
 20
5453.530432935776
 30
0.0
 10
4714.832168945742
 20
5453.910632250661
 30
0.0
 10
4714.060501430383
 20
5454.28433228641
 30
0.0
 10
4713.257168671435
 20
5454.648518915128
 30
0.0
 10
4712.455303194062
 20
5455.015705043194
 30
0.0
 10
4711.617233174548
 20
5455.373799294177
 30
0.0
 10
4710.751707072559
 20
5455.724805232589
 30
0.0
 10
4709.876189623366
 20
5456.073669599001
 30
0.0
 10
4708.969349246093
 20
5456.412509901673
 30
0.0
 10
4708.049686187871
 20
5456.75023325638
 30
0.0
 10
4707.097127934588
 20
5457.078808510702
 30
0.0
 10
4706.132799824778
 20
5457.405106923131
 30
0.0
 10
4705.142604965729
 20
5457.723137317762
 30
0.0
 10
4704.129599073512
 20
5458.031824109961
 30
0.0
 10
4703.10590278834
 20
5458.33730131749
 30
0.0
 10
4702.067605751562
 20
5458.631368926712
 30
0.0
 10
4701.014304295955
 20
5458.913327742723
 30
0.0
 10
4699.960413849274
 20
5459.189136909356
 30
0.0
 10
4699.241001825895
 20
5459.367819084396
 30
0.0
 10
4698.875215967068
 20
5459.455011733621
 30
0.0
 10
4698.869107718664
 20
5459.45646776137
 30
0.0
  0
SPLINE
  5
7F
330
1F
100
AcDbEntity
  8
0
  6
Continuous
 62
     7
370
    25
100
AcDbSpline
210
0.0
220
0.0
230
1.0
 70
     8
 71
     3
 72
    57
 73
    53
 74
     0
 42
0.00000001
 43
0.00000001
 40
0.0
 40
0.0
 40
0.0
 40
0.0
 40
0.0174390994494194
 40
0.0370481001051303
 40
0.0568417819164229
 40
0.0764713072037536
 40
0.096303658501996
 40
0.1161929751416128
 40
0.1361455615539724
 40
0.1561267902142159
 40
0.1761865513530682
 40
0.1962967864074636
 40
0.2165004974916533
 40
0.2368036744006932
 40
0.2571873459813448
 40
0.2776848040424358
 40
0.2982834645647635
 40
0.3190097985789936
 40
0.3396965900608586
 40
0.3606852323829151
 40
0.3816534327217996
 40
0.4027735490502142
 40
0.423732451335097
 40
0.4448617910171151
 40
0.4656894548226596
 40
0.4863762463045245
 40
0.5071025833085551
 40
0.5277012378612228
 40
0.548198695922314
 40
0.5685823675029655
 40
0.588885532585063
 40
0.6090892436692529
 40
0.629199478723648
 40
0.6494160784453518
 40
0.6693972838458941
 40
0.6893498702582537
 40
0.7092391868978706
 40
0.7290715610445259
 40
0.7487010863318567
 40
0.7684947681431492
 40
0.7881037464802269
 40
0.8076855602174716
 40
0.827246748179684
 40
0.8467940210671627
 40
0.8661890975968465
 40
0.8858020467415583
 40
0.9050632989982633
 40
0.9244805184119331
 40
0.9438621801879449
 40
0.9630531504311715
 40
0.9823697244351733
 40
1.0
 40
1.0
 40
1.0
 40
1.0
 10
4639.263281931469
 20
5460.298311049795
 30
0.0
 10
4638.95047330016
 20
5460.232048045498
 30
0.0
 10
4638.285934083548
 20
5460.091277105832
 30
0.0
 10
4637.279778887875
 20
5459.866322316595
 30
0.0
 10
4636.247409085884
 20
5459.624755973998
 30
0.0
 10
4635.227539036449
 20
5459.372363571209
 30
0.0
 10
4634.220108138401
 20
5459.111482636125
 30
0.0
 10
4633.220256778854
 20
5458.842004373084
 30
0.0
 10
4632.228151711151
 20
5458.566301577399
 30
0.0
 10
4631.257555449181
 20
5458.277445378013
 30
0.0
 10
4630.292535245743
 20
5457.983869255536
 30
0.0
 10
4629.349323833475
 20
5457.677292849304
 30
0.0
 10
4628.414388368551
 20
5457.364184865603
 30
0.0
 10
4627.48715183403
 20
5457.044385343745
 30
0.0
 10
4626.582663814505
 20
5456.711771625149
 30
0.0
 10
4625.682123147661
 20
5456.374216953871
 30
0.0
 10
4624.805800122584
 20
5456.02356509714
 30
0.0
 10
4623.935217381717
 20
5455.668747064522
 30
0.0
 10
4623.087952902288
 20
5455.301463991906
 30
0.0
 10
4622.248003039592
 20
5454.929185543211
 30
0.0
 10
4621.427669658112
 20
5454.545894583053
 30
0.0
 10
4620.634159417335
 20
5454.154581909121
 30
0.0
 10
4619.849379107125
 20
5453.759031042609
 30
0.0
 10
4619.094307783983
 20
5453.35765206734
 30
0.0
 10
4618.371146686392
 20
5452.950175160725
 30
0.0
 10
4617.663054565453
 20
5452.542519262772
 30
0.0
 10
4616.990298480945
 20
5452.128040360592
 30
0.0
 10
4616.329296699111
 20
5451.712449049405
 30
0.0
 10
4615.707021358573
 20
5451.290973022497
 30
0.0
 10
4615.098038874154
 20
5450.869235257905
 30
0.0
 10
4614.526783548497
 20
5450.442084372713
 30
0.0
 10
4613.973802325156
 20
5450.013749107343
 30
0.0
 10
4613.43909042712
 20
5449.58256262
 30
0.0
 10
4612.937656831114
 20
5449.147199330475
 30
0.0
 10
4612.454048579107
 20
5448.710069906026
 30
0.0
 10
4612.00865998002
 20
5448.269450968811
 30
0.0
 10
4611.581072806454
 20
5447.827393086333
 30
0.0
 10
4611.176715738385
 20
5447.384622017325
 30
0.0
 10
4610.796812509841
 20
5446.93924499741
 30
0.0
 10
4610.446488110502
 20
5446.491894425659
 30
0.0
 10
4610.12143560572
 20
5446.041924862448
 30
0.0
 10
4609.818163814807
 20
5445.591433307001
 30
0.0
 10
4609.537544730934
 20
5445.139084431923
 30
0.0
 10
4609.277890473527
 20
5444.686214342507
 30
0.0
 10
4609.045737164277
 20
5444.230467920401
 30
0.0
 10
4608.840743961583
 20
5443.774860156165
 30
0.0
 10
4608.661236860549
 20
5443.317307881343
 30
0.0
 10
4608.489548966138
 20
5442.861019042189
 30
0.0
 10
4608.368324725639
 20
5442.402461242476
 30
0.0
 10
4608.252662803044
 20
5441.94447782572
 30
0.0
 10
4608.181155488514
 20
5441.498706642011
 30
0.0
 10
4608.140637103531
 20
5441.205167815568
 30
0.0
 10
4608.121302564836
 20
5441.065097134047
 30
0.0
  0
SPLINE
  5
80
330
1F
100
AcDbEntity
  8
0
  6
Continuous
 62
     7
370
    25
100
AcDbSpline
210
0.0
220
0.0
230
1.0
 70
     8
 71
     3
 72
    25
 73
    21
 74
     0
 42
0.00000001
 43
0.00000001
 40
0.0
 40
0.0
 40
0.0
 40
0.0
 40
0.0432952462556329
 40
0.0468837404504545
 40
0.1634601218679454
 40
0.1745887565403171
 40
0.2789609005463459
 40
0.3021912589432206
 40
0.3953578835144141
 40
0.4278729280591376
 40
0.5103164678210632
 40
0.5462871098121665
 40
0.6160939202451244
 40
0.6673172902846797
 40
0.7295815872328217
 40
0.7913500645788489
 40
0.84314311146602
 40
0.9146676968823627
 40
0.957180695922718
 40
1.0
 40
1.0
 40
1.0
 40
1.0
 10
4869.363532463805
 20
4109.841698079666
 30
0.0
 10
4868.036106567321
 20
4121.979353760275
 30
0.0
 10
4866.598657965447
 20
4135.123029979292
 30
0.0
 10
4861.676394571261
 20
4181.988559606286
 30
0.0
 10
4857.490547947417
 20
4218.154414944488
 30
0.0
 10
4850.560411342313
 20
4284.797156450171
 30
0.0
 10
4846.087549873701
 20
4323.078007715839
 30
0.0
 10
4839.499370066727
 20
4386.799201410085
 30
0.0
 10
4834.670706553905
 20
4427.960825283732
 30
0.0
 10
4828.5040914035
 20
4488.247263428245
 30
0.0
 10
4823.55293936094
 20
4530.056215116604
 30
0.0
 10
4818.054217218735
 20
4584.682720880372
 30
0.0
 10
4812.866888364756
 20
4628.226879445278
 30
0.0
 10
4807.570776640106
 20
4681.773036010759
 30
0.0
 10
4801.776587703677
 20
4730.553929084133
 30
0.0
 10
4796.778789626797
 20
4782.143213786944
 30
0.0
 10
4790.636413896381
 20
4833.791097296755
 30
0.0
 10
4786.013935239369
 20
4882.669077679369
 30
0.0
 10
4780.813235229732
 20
4926.588173991414
 30
0.0
 10
4778.321486866952
 20
4951.378511570379
 30
0.0
 10
4777.071140551057
 20
4963.818173506011
 30
0.0
  0
SPLINE
  5
81
330
1F
100
AcDbEntity
  8
0
  6
Continuous
 62
     7
370
    25
100
AcDbSpline
210
0.0
220
0.0
230
1.0
 70
     8
 71
     3
 72
    10
 73
     6
 74
     0
 42
0.00000001
 43
0.00000001
 40
0.0
 40
0.0
 40
0.0
 40
0.0
 40
0.1296914599784829
 40
0.1875654634823834
 40
1.0
 40
1.0
 40
1.0
 40
1.0
 10
4740.36220274215
 20
5314.547070071088
 30
0.0
 10
4739.822976627303
 20
5320.037008497977
 30
0.0
 10
4739.043124228618
 20
5327.976797638295
 30
0.0
 10
4734.286497334386
 20
5369.097706792661
 30
0.0
 10
4730.75187584806
 20
5406.119890938367
 30
0.0
 10
4727.452300540047
 20
5440.680164259991
 30
0.0
  0
SPLINE
  5
82
330
1F
100
AcDbEntity
  8
0
  6
Continuous
 62
     7
370
    25
100
AcDbSpline
210
0.0
220
0.0
230
1.0
 70
     8
 71
     3
 72
    33
 73
    29
 74
     0
 42
0.00000001
 43
0.00000001
 40
0.0
 40
0.0
 40
0.0
 40
0.0
 40
0.0068078503333369
 40
0.0073216381712082
 40
0.1006090730855412
 40
0.1074248677477819
 40
0.1887210226980591
 40
0.2019454734451952
 40
0.2630782079936168
 40
0.2844530853468136
 40
0.3545131523784375
 40
0.3800009311151877
 40
0.4340185757279604
 40
0.4634255148302742
 40
0.496236253326877
 40
0.5329475034661182
 40
0.5769303975774366
 40
0.6191049186093299
 40
0.6501273647347795
 40
0.696940139473352
 40
0.7179989061579111
 40
0.773713543286811
 40
0.7919155092441476
 40
0.8505816422152372
 40
0.8622884328082986
 40
0.9296551839805838
 40
0.9344524665394252
 40
1.0
 40
1.0
 40
1.0
 40
1.0
 10
4608.121302564836
 20
5441.065097134047
 30
0.0
 10
4607.770496611522
 20
5437.906116394867
 30
0.0
 10
4607.39321536521
 20
5434.508727670142
 30
0.0
 10
4601.360306290943
 20
5387.011615775881
 30
0.0
 10
4596.986890373367
 20
5341.187533007002
 30
0.0
 10
4585.904873396295
 20
5255.245179984707
 30
0.0
 10
4581.353280577019
 20
5208.972831743759
 30
0.0
 10
4571.743665876904
 20
5135.078352476464
 30
0.0
 10
4567.179230764342
 20
5091.037202456663
 30
0.0
 10
4557.784566009704
 20
5018.575650889304
 30
0.0
 10
4552.10339805648
 20
4964.831621376686
 30
0.0
 10
4542.776058054405
 20
4893.526310410641
 30
0.0
 10
4537.382535751975
 20
4843.326853303896
 30
0.0
 10
4530.015134246544
 20
4787.71386662091
 30
0.0
 10
4524.902461254828
 20
4741.745675379525
 30
0.0
 10
4517.726234888438
 20
4687.392258996949
 30
0.0
 10
4511.342604191665
 20
4630.475330393026
 30
0.0
 10
4503.952016297498
 20
4574.242009553562
 30
0.0
 10
4497.562680733918
 20
4518.395594017384
 30
0.0
 10
4491.293185317468
 20
4470.819667227222
 30
0.0
 10
4484.585881828733
 20
4413.051392444978
 30
0.0
 10
4478.592608769994
 20
4367.329845940953
 30
0.0
 10
4471.304745440753
 20
4305.28861298842
 30
0.0
 10
4465.742818382408
 20
4262.524181870422
 30
0.0
 10
4458.088048894368
 20
4197.901185551958
 30
0.0
 10
4452.840113271003
 20
4157.406110802944
 30
0.0
 10
4445.123963298468
 20
4092.570267330983
 30
0.0
 10
4440.955212243995
 20
4058.989653618679
 30
0.0
 10
4437.070756150508
 20
4027.699126107364
 30
0.0
  0
SPLINE
  5
83
330
1F
100
AcDbEntity
  8
0
  6
Continuous
 62
     7
370
    25
100
AcDbSpline
210
0.0
220
0.0
230
1.0
 70
     8
 71
     3
 72
    55
 73
    51
 74
     0
 42
0.00000001
 43
0.00000001
 40
0.0
 40
0.0
 40
0.0
 40
0.0
 40
0.0200693352889107
 40
0.0435250130016696
 40
0.0670118167190879
 40
0.0901855437439628
 40
0.1133916278645338
 40
0.136303888370722
 40
0.1592497304694107
 40
0.1818854877744826
 40
0.2045575198978692
 40
0.2269409140493027
 40
0.249323675393993
 40
0.2714426218676135
 40
0.2935586943363524
 40
0.3154367818929802
 40
0.3372768170547231
 40
0.3588678468865119
 40
0.3804588300365775
 40
0.4018285347288014
 40
0.423158030251039
 40
0.4442526354514197
 40
0.4653472652528929
 40
0.4862075405707903
 40
0.507067815888688
 40
0.5277253579663513
 40
0.5483395430696941
 40
0.5687591149146735
 40
0.5892021249085785
 40
0.6093952232409334
 40
0.6296335486272487
 40
0.6496572889806286
 40
0.6696809822943084
 40
0.6895078841947881
 40
0.7093993974241654
 40
0.7290856920424456
 40
0.7488196412821095
 40
0.7683891922467767
 40
0.7879721763237654
 40
0.8074563021215933
 40
0.8269514557180045
 40
0.8463656364423706
 40
0.8657710679057913
 40
0.8851401614647393
 40
0.9045029521130654
 40
0.9238743099314873
 40
0.9432418484460778
 40
0.9626113263353409
 40
0.9819808096572324
 40
1.0
 40
1.0
 40
1.0
 40
1.0
 10
4938.435130583673
 20
4098.224251857166
 30
0.0
 10
4938.453605911058
 20
4098.73793365138
 30
0.0
 10
4938.493673947845
 20
4099.851971881849
 30
0.0
 10
4938.337009661915
 20
4101.568294444608
 30
0.0
 10
4938.286039185359
 20
4103.364167069362
 30
0.0
 10
4937.985501823088
 20
4105.152232600783
 30
0.0
 10
4937.801782836847
 20
4106.926921964521
 30
0.0
 10
4937.364257866465
 20
4108.691388512669
 30
0.0
 10
4937.052126458052
 20
4110.4441826942
 30
0.0
 10
4936.463396636984
 20
4112.182633679408
 30
0.0
 10
4936.037781217688
 20
4113.912440093395
 30
0.0
 10
4935.298572673946
 20
4115.62269350647
 30
0.0
 10
4934.745368606157
 20
4117.327520197106
 30
0.0
 10
4933.872097706618
 20
4119.00817279494
 30
0.0
 10
4933.186360872762
 20
4120.687005761474
 30
0.0
 10
4932.184029212686
 20
4122.337441734745
 30
0.0
 10
4931.35458442237
 20
4123.986842237755
 30
0.0
 10
4930.225604400526
 20
4125.60456829148
 30
0.0
 10
4929.255722570692
 20
4127.22387614287
 30
0.0
 10
4927.988135997747
 20
4128.807866827862
 30
0.0
 10
4926.887173739707
 20
4130.395712965021
 30
0.0
 10
4925.498486673285
 20
4131.944585542447
 30
0.0
 10
4924.268622814217
 20
4133.499553345215
 30
0.0
 10
4922.740582360531
 20
4135.010660542129
 30
0.0
 10
4921.374938733438
 20
4136.531660911862
 30
0.0
 10
4919.709294052897
 20
4138.003020978521
 30
0.0
 10
4918.21838364869
 20
4139.488713546045
 30
0.0
 10
4916.413138993034
 20
4140.917906631103
 30
0.0
 10
4914.786811784043
 20
4142.365560477678
 30
0.0
 10
4912.865532116506
 20
4143.755276504899
 30
0.0
 10
4911.099636607374
 20
4145.162345968914
 30
0.0
 10
4909.045405396448
 20
4146.506853513341
 30
0.0
 10
4907.154648078174
 20
4147.87375787949
 30
0.0
 10
4904.962055502051
 20
4149.169724879412
 30
0.0
 10
4902.939409323758
 20
4150.49515121715
 30
0.0
 10
4900.623953659008
 20
4151.745961646877
 30
0.0
 10
4898.463982411369
 20
4153.026918949021
 30
0.0
 10
4896.015319670788
 20
4154.226164772104
 30
0.0
 10
4893.740307708909
 20
4155.46701803642
 30
0.0
 10
4891.152234038004
 20
4156.611709701106
 30
0.0
 10
4888.729744021643
 20
4157.802669556468
 30
0.0
 10
4886.03787829599
 20
4158.902219147034
 30
0.0
 10
4883.472239620748
 20
4160.041121537171
 30
0.0
 10
4880.655872011325
 20
4161.086660838737
 30
0.0
 10
4877.954182856555
 20
4162.175015967265
 30
0.0
 10
4875.011393564341
 20
4163.165838513293
 30
0.0
 10
4872.178702936198
 20
4164.203874652065
 30
0.0
 10
4869.106030110415
 20
4165.134190829324
 30
0.0
 10
4866.2164521286
 20
4166.095513901541
 30
0.0
 10
4864.177831305868
 20
4166.661924263708
 30
0.0
 10
4863.19533331808
 20
4166.934901481876
 30
0.0
  0
SPLINE
  5
84
330
1F
100
AcDbEntity
  8
0
  6
Continuous
 62
     7
370
    25
100
AcDbSpline
210
0.0
220
0.0
230
1.0
 70
     8
 71
     3
 72
    56
 73
    52
 74
     0
 42
0.00000001
 43
0.00000001
 40
0.0
 40
0.0
 40
0.0
 40
0.0
 40
0.0142881079229667
 40
0.0372232517176947
 40
0.060158389602218
 40
0.0829346072405196
 40
0.105714183147164
 40
0.1283087742281634
 40
0.1509033886510892
 40
0.1733309812666218
 40
0.1957532584350319
 40
0.2180161895652576
 40
0.2402464597192379
 40
0.2623633077876733
 40
0.2844413836690833
 40
0.3063404100958064
 40
0.328247539565335
 40
0.3499888085279765
 40
0.3717211199784526
 40
0.3933091549474921
 40
0.4148590989102733
 40
0.4362580875663591
 40
0.4576570051378158
 40
0.4788529028510912
 40
0.5000369981210661
 40
0.5210690270370834
 40
0.54208825835962
 40
0.5629688128366803
 40
0.5837987601118253
 40
0.6044527965522225
 40
0.6251069113895267
 40
0.6455471490749417
 40
0.666023630774217
 40
0.6863154310864326
 40
0.7065907502945338
 40
0.7266784844087626
 40
0.746713473028193
 40
0.7666272181194322
 40
0.7864879442301661
 40
0.8061693838653128
 40
0.8258508462543208
 40
0.8453518922117219
 40
0.8647990039362228
 40
0.8840938199141086
 40
0.9033552385823287
 40
0.9224237414913186
 40
0.9414923226196471
 40
0.9603489533111553
 40
0.9792056110884211
 40
0.997833817283157
 40
1.0
 40
1.0
 40
1.0
 40
1.0
 10
4447.444439781353
 20
4112.338686985828
 30
0.0
 10
4446.742635330698
 20
4111.965775925923
 30
0.0
 10
4444.914300615969
 20
4110.994271348411
 30
0.0
 10
4442.150588995938
 20
4109.372176342754
 30
0.0
 10
4438.873584310822
 20
4107.554058675125
 30
0.0
 10
4435.827422253461
 20
4105.682086194573
 30
0.0
 10
4432.696270373011
 20
4103.844698809366
 30
0.0
 10
4429.801276252454
 20
4101.956246448791
 30
0.0
 10
4426.801033283276
 20
4100.106298588605
 30
0.0
 10
4424.062094408569
 20
4098.201981169916
 30
0.0
 10
4421.200611739479
 20
4096.337941750231
 30
0.0
 10
4418.586739022893
 20
4094.426410705688
 30
0.0
 10
4415.88495364298
 20
4092.545106218084
 30
0.0
 10
4413.411953579645
 20
4090.622849751982
 30
0.0
 10
4410.84077607343
 20
4088.73259086389
 30
0.0
 10
4408.508223478879
 20
4086.802863450775
 30
0.0
 10
4406.083062903386
 20
4084.902964702577
 30
0.0
 10
4403.905328146536
 20
4082.963231902712
 30
0.0
 10
4401.599341856156
 20
4081.057925782468
 30
0.0
 10
4399.561762517703
 20
4079.112516475263
 30
0.0
 10
4397.414264922942
 20
4077.197486403946
 30
0.0
 10
4395.507846871174
 20
4075.249714123317
 30
0.0
 10
4393.486687140193
 20
4073.33237972701
 30
0.0
 10
4391.738286574553
 20
4071.380955938151
 30
0.0
 10
4389.852503871196
 20
4069.462446613762
 30
0.0
 10
4388.242989661649
 20
4067.510802218113
 30
0.0
 10
4386.49201253156
 20
4065.588930200593
 30
0.0
 10
4385.019072274068
 20
4063.637368963171
 30
0.0
 10
4383.412788973374
 20
4061.715117809476
 30
0.0
 10
4382.074235755448
 20
4059.768101385891
 30
0.0
 10
4380.614694103811
 20
4057.84828928612
 30
0.0
 10
4379.415755664446
 20
4055.905654152708
 30
0.0
 10
4378.084743548129
 20
4053.989075251008
 30
0.0
 10
4377.035288762585
 20
4052.049818471964
 30
0.0
 10
4375.842900918952
 20
4050.137154080027
 30
0.0
 10
4374.923584062894
 20
4048.208420596241
 30
0.0
 10
4373.867569748294
 20
4046.303310225956
 30
0.0
 10
4373.090179182126
 20
4044.383466044196
 30
0.0
 10
4372.178713424551
 20
4042.485360375056
 30
0.0
 10
4371.526118894019
 20
4040.576869994473
 30
0.0
 10
4370.744268240798
 20
4038.688518499037
 30
0.0
 10
4370.243464838039
 20
4036.79124132838
 30
0.0
 10
4369.607427128431
 20
4034.913981751948
 30
0.0
 10
4369.230297743253
 20
4033.031910854567
 30
0.0
 10
4368.736672997101
 20
4031.167301687534
 30
0.0
 10
4368.496675202741
 20
4029.300415624736
 30
0.0
 10
4368.128860628419
 20
4027.45093067129
 30
0.0
 10
4368.029223378203
 20
4025.600932039499
 30
0.0
 10
4367.793696856834
 20
4023.768335808158
 30
0.0
 10
4367.826211642766
 20
4022.475174325842
 30
0.0
 10
4367.814089083156
 20
4021.797482313406
 30
0.0
 10
4367.812826257918
 20
4021.726886118879
 30
0.0
  0
SPLINE
  5
85
330
1F
100
AcDbEntity
  8
0
  6
Continuous
 62
     7
370
    25
100
AcDbSpline
210
0.0
220
0.0
230
1.0
 70
     8
 71
     3
 72
   204
 73
   200
 74
     0
 42
0.00000001
 43
0.00000001
 40
0.0
 40
0.0
 40
0.0
 40
0.0
 40
0.0044556832406453
 40
0.0094325507198793
 40
0.0144094062322444
 40
0.0193333223109463
 40
0.0242572383896482
 40
0.0291188292414305
 40
0.0339875077544224
 40
0.0387904106814715
 40
0.0436010192352587
 40
0.0483427614462911
 40
0.0530995759222056
 40
0.0577928301844952
 40
0.0624854652822896
 40
0.0671275946078067
 40
0.0717616691423845
 40
0.0763428896764146
 40
0.0809241102104447
 40
0.0854498375701054
 40
0.0899841320890719
 40
0.0944600208957185
 40
0.0989359189050664
 40
0.1033620963036432
 40
0.1077882790570519
 40
0.112171440087331
 40
0.1165454015429698
 40
0.1208780695452621
 40
0.125206309665631
 40
0.1295005204104479
 40
0.1337851347831654
 40
0.1380338144212074
 40
0.1422922736600215
 40
0.1464991876982273
 40
0.1507098528338251
 40
0.1548970458180303
 40
0.1590842399794815
 40
0.1632365487510629
 40
0.1673917077888676
 40
0.1715258908676202
 40
0.1756624138480329
 40
0.1797817558329563
 40
0.1838992413811615
 40
0.1880090166758327
 40
0.1921174546055788
 40
0.196227711516357
 40
0.2003371549523339
 40
0.2044470130468262
 40
0.2085568703849887
 40
0.2126667277231511
 40
0.2167765852230784
 40
0.2208860286590553
 40
0.2249962863604564
 40
0.2291047242902024
 40
0.2332144995848737
 40
0.2373319851330788
 40
0.2414513271180022
 40
0.2455878500984149
 40
0.2497220331771675
 40
0.2538771922149723
 40
0.2580295009865536
 40
0.2622166921323159
 40
0.2663937718195814
 40
0.2706143952263982
 40
0.2748213092646041
 40
0.2790699789216629
 40
0.2833186585597048
 40
0.2876128693045217
 40
0.2918974836772393
 40
0.2962351248356122
 40
0.3005677928379045
 40
0.3049417542935433
 40
0.3093249153238224
 40
0.3137510927223992
 40
0.318177270120976
 40
0.3226531733502357
 40
0.3271290569369537
 40
0.3316548096313358
 40
0.3361890788335178
 40
0.3407702993675479
 40
0.3453515298066049
 40
0.3499855947239597
 40
0.3546277336790552
 40
0.3593203687768496
 40
0.3640136136870868
 40
0.368762835395422
 40
0.3735121913740322
 40
0.3783227911688606
 40
0.3831256940959097
 40
0.3879943726089016
 40
0.3928559634606839
 40
0.3977798795393858
 40
0.4026969300209912
 40
0.4076804097783104
 40
0.4126572851540365
 40
0.4176981491369792
 40
0.4227305082175231
 40
0.4278245828698075
 40
0.4329186575220919
 40
0.4380699756633949
 40
0.4432212797000417
 40
0.4484246994027164
 40
0.4536371480338954
 40
0.4588907322091016
 40
0.4641534745146517
 40
0.469475527117753
 40
0.4747924143387079
 40
0.4801577353118991
 40
0.4855324589303336
 40
0.4909495389259422
 40
0.4963761854919361
 40
0.501853507659255
 40
0.507330841365738
 40
0.5128625169921512
 40
0.5183885811428687
 40
0.5239682245247242
 40
0.5295439299553614
 40
0.5351747815315112
 40
0.5408119147965591
 40
0.5464936480234664
 40
0.5521753850296843
 40
0.5578982105707226
 40
0.5636242245096184
 40
0.5694050907178186
 40
0.5751859621123284
 40
0.5810076206795908
 40
0.5868368875502162
 40
0.5927102443919072
 40
0.5985835947263173
 40
0.6044995507595372
 40
0.6104177029753755
 40
0.6163820349395636
 40
0.6223568411042951
 40
0.6283606050983014
 40
0.6343765551024415
 40
0.6404338754941288
 40
0.6464926250177272
 40
0.652596498459644
 40
0.6587003655958029
 40
0.6648532954902268
 40
0.6710071411271145
 40
0.6772030044837574
 40
0.6833982240733815
 40
0.6896398399243502
 40
0.6958814589451643
 40
0.7021723436006494
 40
0.7084525846993149
 40
0.7147434693548
 40
0.7210343536138032
 40
0.727275971842156
 40
0.7335175892780474
 40
0.7397128072845028
 40
0.7459086738071524
 40
0.7520625162838466
 40
0.7582154461782704
 40
0.7643193133144295
 40
0.7704231867563462
 40
0.7764819362799448
 40
0.782539256671632
 40
0.7885552066757723
 40
0.7945589706697784
 40
0.8005337768345101
 40
0.8064981087986982
 40
0.8124162610145363
 40
0.8183322232570379
 40
0.824205573591448
 40
0.8300789180854344
 40
0.83590818495606
 40
0.8417298557950653
 40
0.8475107149947537
 40
0.8532915812029539
 40
0.8590176072411997
 40
0.8647404327822382
 40
0.8704221577849495
 40
0.8761039030153459
 40
0.8817410362803938
 40
0.8873718878565438
 40
0.8929475932871809
 40
0.8985272248815578
 40
0.9040533006896168
 40
0.9095849646460713
 40
0.9150622983525543
 40
0.9205396320590371
 40
0.925966267226935
 40
0.9313833358292531
 40
0.9367580819614386
 40
0.9421234029346297
 40
0.9474402901555847
 40
0.952762342758686
 40
0.9580250850642361
 40
0.9632786692394424
 40
0.9684911178706214
 40
0.973694537573296
 40
0.9788458416099429
 40
0.9839971597512459
 40
0.9890912344035304
 40
0.994176626102147
 40
0.9992174900850894
 40
1.0
 40
1.0
 40
1.0
 40
1.0
 10
4367.616760477921
 20
4003.271838120228
 30
0.0
 10
4367.596939033285
 20
4002.734353298251
 30
0.0
 10
4367.554977616422
 20
4001.596513696411
 30
0.0
 10
4367.716998309975
 20
3999.857188128184
 30
0.0
 10
4367.751305134906
 20
3998.06124751412
 30
0.0
 10
4368.068648399759
 20
3996.273301583124
 30
0.0
 10
4368.248030246513
 20
3994.497743040014
 30
0.0
 10
4368.686618831155
 20
3992.733282279852
 30
0.0
 10
4368.998771881482
 20
3990.980500451476
 30
0.0
 10
4369.586465897376
 20
3989.241998365283
 30
0.0
 10
4370.01595147737
 20
3987.513303729381
 30
0.0
 10
4370.739794941637
 20
3985.80232066021
 30
0.0
 10
4371.308089881495
 20
3984.098207830616
 30
0.0
 10
4372.177772893107
 20
3982.41645922328
 30
0.0
 10
4372.864610640161
 20
3980.737679463161
 30
0.0
 10
4373.866572282252
 20
3979.087221833696
 30
0.0
 10
4374.696358485487
 20
3977.43785288036
 30
0.0
 10
4375.82439297765
 20
3975.820031230967
 30
0.0
 10
4376.797047083578
 20
3974.202080792338
 30
0.0
 10
4378.051918368396
 20
3972.61678507481
 30
0.0
 10
4379.165295785045
 20
3971.030210490905
 30
0.0
 10
4380.551539088295
 20
3969.480015604211
 30
0.0
 10
4381.782278102072
 20
3967.925138970745
 30
0.0
 10
4383.310097795839
 20
3966.414010092924
 30
0.0
 10
4384.675757935658
 20
3964.893007251652
 30
0.0
 10
4386.341574891223
 20
3963.421677604799
 30
0.0
 10
4387.831787959108
 20
3961.935863657586
 30
0.0
 10
4389.638324861085
 20
3960.508150859402
 30
0.0
 10
4391.255228392115
 20
3959.058834302373
 30
0.0
 10
4393.185586860493
 20
3957.672068265533
 30
0.0
 10
4394.943058724939
 20
3956.263425092704
 30
0.0
 10
4396.99827434541
 20
3954.919047447696
 30
0.0
 10
4398.895166510652
 20
3953.552074966691
 30
0.0
 10
4401.087986670034
 20
3952.256220316499
 30
0.0
 10
4403.104858724777
 20
3950.92939312017
 30
0.0
 10
4405.426224425796
 20
3949.680051195853
 30
0.0
 10
4407.586418886029
 20
3948.397674615309
 30
0.0
 10
4410.035486940627
 20
3947.198530568526
 30
0.0
 10
4412.310390797761
 20
3945.957650039862
 30
0.0
 10
4414.89849332307
 20
3944.81296565893
 30
0.0
 10
4417.320975555305
 20
3943.622003814102
 30
0.0
 10
4420.012843611687
 20
3942.522454909529
 30
0.0
 10
4422.578480720895
 20
3941.383551758614
 30
0.0
 10
4425.394852261009
 20
3940.338014810971
 30
0.0
 10
4428.096527522507
 20
3939.249650926577
 30
0.0
 10
4431.03936937224
 20
3938.258860716812
 30
0.0
 10
4433.87176842996
 20
3937.220663832237
 30
0.0
 10
4436.945649716091
 20
3936.290998677814
 30
0.0
 10
4439.899338824495
 20
3935.30432029797
 30
0.0
 10
4443.09270432756
 20
3934.437105013264
 30
0.0
 10
4446.173114196838
 20
3933.510694048925
 30
0.0
 10
4449.465429075633
 20
3932.701735024394
 30
0.0
 10
4452.666405199734
 20
3931.839607674157
 30
0.0
 10
4456.05196958111
 20
3931.092117535571
 30
0.0
 10
4459.358690507535
 20
3930.290987660208
 30
0.0
 10
4462.837126873592
 20
3929.607054987328
 30
0.0
 10
4466.248240472984
 20
3928.866003360283
 30
0.0
 10
4469.821593893911
 20
3928.248673487231
 30
0.0
 10
4473.320021729818
 20
3927.557733720193
 30
0.0
 10
4476.981818122664
 20
3927.008101617605
 30
0.0
 10
4480.582325443705
 20
3926.382974837234
 30
0.0
 10
4484.316073343842
 20
3925.886442066141
 30
0.0
 10
4488.012712923621
 20
3925.324061308567
 30
0.0
 10
4491.823841487048
 20
3924.890076239892
 30
0.0
 10
4495.603138843062
 20
3924.384977595383
 30
0.0
 10
4499.485508350208
 20
3924.010761394298
 30
0.0
 10
4503.352109846087
 20
3923.569601671586
 30
0.0
 10
4507.30416705942
 20
3923.252190557221
 30
0.0
 10
4511.251073872912
 20
3922.87211692176
 30
0.0
 10
4515.270248480798
 20
3922.617140700815
 30
0.0
 10
4519.287294762307
 20
3922.290385780534
 30
0.0
 10
4523.368244275434
 20
3922.095658003367
 30
0.0
 10
4527.456356524142
 20
3921.831739196045
 30
0.0
 10
4531.594751271228
 20
3921.69277385486
 30
0.0
 10
4535.748370997951
 20
3921.490344764356
 30
0.0
 10
4539.938269323032
 20
3921.410766680179
 30
0.0
 10
4544.152010781391
 20
3921.269982894721
 30
0.0
 10
4548.392391536271
 20
3921.246947052528
 30
0.0
 10
4552.66413500415
 20
3921.160324956905
 30
0.0
 10
4556.950914711711
 20
3921.194274503441
 30
0.0
 10
4561.272885644166
 20
3921.168044867284
 30
0.0
 10
4565.600340439872
 20
3921.262173210688
 30
0.0
 10
4569.972922152363
 20
3921.291586013124
 30
0.0
 10
4574.338596864509
 20
3921.446960932598
 30
0.0
 10
4578.754962732779
 20
3921.532309012766
 30
0.0
 10
4583.153010430778
 20
3921.743884849826
 30
0.0
 10
4587.610390269452
 20
3921.886896430875
 30
0.0
 10
4592.039492822775
 20
3922.152565033144
 30
0.0
 10
4596.530332437112
 20
3922.359066360493
 30
0.0
 10
4600.988984953179
 20
3922.673027214135
 30
0.0
 10
4605.507664065116
 20
3922.942755298244
 30
0.0
 10
4609.989438796674
 20
3923.310395167243
 30
0.0
 10
4614.533487338619
 20
3923.637304053148
 30
0.0
 10
4619.035272399557
 20
3924.060395800829
 30
0.0
 10
4623.603860749956
 20
3924.442403336723
 30
0.0
 10
4628.117070980486
 20
3924.926313465794
 30
0.0
 10
4632.705903239987
 20
3925.359021125415
 30
0.0
 10
4637.22931068372
 20
3925.898579049799
 30
0.0
 10
4641.829648622929
 20
3926.391165670233
 30
0.0
 10
4646.362720009847
 20
3926.984458803593
 30
0.0
 10
4650.970701917378
 20
3927.534019601701
 30
0.0
 10
4655.510761406515
 20
3928.178178272365
 30
0.0
 10
4660.122491495757
 20
3928.783457213079
 30
0.0
 10
4664.659382628615
 20
3929.482313571501
 30
0.0
 10
4669.271796935297
 20
3930.144187033332
 30
0.0
 10
4673.807832309009
 20
3930.895673296032
 30
0.0
 10
4678.417178711887
 20
3931.613051539877
 30
0.0
 10
4682.939451850824
 20
3932.420022597818
 30
0.0
 10
4687.538936340846
 20
3933.191562032897
 30
0.0
 10
4692.050586700786
 20
3934.050148300618
 30
0.0
 10
4696.644524222981
 20
3934.872644117145
 30
0.0
 10
4701.133930797022
 20
3935.78923669625
 30
0.0
 10
4705.715320989671
 20
3936.665769489017
 30
0.0
 10
4710.179250211017
 20
3937.63730737414
 30
0.0
 10
4714.748366110244
 20
3938.561572796743
 30
0.0
 10
4719.189759292896
 20
3939.581858434337
 30
0.0
 10
4723.716814686351
 20
3940.570865047512
 30
0.0
 10
4728.139832949832
 20
3941.638705744733
 30
0.0
 10
4732.642952799174
 20
3942.681229932069
 30
0.0
 10
4737.028879784888
 20
3943.804843252061
 30
0.0
 10
4741.509385836004
 20
3944.892076657268
 30
0.0
 10
4745.842434079438
 20
3946.072249285192
 30
0.0
 10
4750.29033876604
 20
3947.209613325126
 30
0.0
 10
4754.586563641225
 20
3948.440736671038
 30
0.0
 10
4758.985810699578
 20
3949.636884275731
 30
0.0
 10
4763.247644421618
 20
3950.91318604066
 30
0.0
 10
4767.596692159816
 20
3952.163945183568
 30
0.0
 10
4771.804806915126
 20
3953.493295270415
 30
0.0
 10
4776.118388707598
 20
3954.788984941829
 30
0.0
 10
4780.258131962875
 20
3956.173753549804
 30
0.0
 10
4784.522503332278
 20
3957.518731568338
 30
0.0
 10
4788.611084014888
 20
3958.952366407957
 30
0.0
 10
4792.812685789821
 20
3960.352448699608
 30
0.0
 10
4796.835868360784
 20
3961.83692745232
 30
0.0
 10
4800.986453819711
 20
3963.283329015163
 30
0.0
 10
4804.938620307857
 20
3964.819132635756
 30
0.0
 10
4809.026708067298
 20
3966.316424907565
 30
0.0
 10
4812.911824507432
 20
3967.899597704711
 30
0.0
 10
4816.924586341035
 20
3969.450559693274
 30
0.0
 10
4820.731675086358
 20
3971.084982847497
 30
0.0
 10
4824.676815569897
 20
3972.684976835487
 30
0.0
 10
4828.416693549619
 20
3974.363577301199
 30
0.0
 10
4832.267291595212
 20
3976.018358576212
 30
0.0
 10
4835.924685202055
 20
3977.744557982868
 30
0.0
 10
4839.709917791701
 20
3979.444238902431
 30
0.0
 10
4843.269573011597
 20
3981.221344702799
 30
0.0
 10
4846.953715118929
 20
3982.967477578785
 30
0.0
 10
4850.412463312377
 20
3984.78158836244
 30
0.0
 10
4853.981229978825
 20
3986.557558309452
 30
0.0
 10
4857.298962385656
 20
3988.398233075918
 30
0.0
 10
4860.714432122407
 20
3990.197394284688
 30
0.0
 10
4863.903827992136
 20
3992.051588376389
 30
0.0
 10
4867.18001139252
 20
3993.870034526849
 30
0.0
 10
4870.209180113843
 20
3995.746276935366
 30
0.0
 10
4873.358386251994
 20
3997.579110803223
 30
0.0
 10
4876.24834111965
 20
3999.468700774836
 30
0.0
 10
4879.250227316462
 20
4001.318247478376
 30
0.0
 10
4881.98747838583
 20
4003.222939347401
 30
0.0
 10
4884.854447864294
 20
4005.086028144772
 30
0.0
 10
4887.44909875891
 20
4007.001684887981
 30
0.0
 10
4890.170286782523
 20
4008.878832909646
 30
0.0
 10
4892.636590672517
 20
4010.802264663306
 30
0.0
 10
4895.214581977257
 20
4012.691479015841
 30
0.0
 10
4897.527685620104
 20
4014.624941837109
 30
0.0
 10
4899.970929177934
 20
4016.521359848022
 30
0.0
 10
4902.148707138375
 20
4018.461186967568
 30
0.0
 10
4904.43657813746
 20
4020.369662160785
 30
0.0
 10
4906.493306604591
 20
4022.311763057252
 30
0.0
 10
4908.635355001144
 20
4024.227372897054
 30
0.0
 10
4910.543202084174
 20
4026.17490238625
 30
0.0
 10
4912.563840369996
 20
4028.092321178925
 30
0.0
 10
4914.312773014544
 20
4030.043672185473
 30
0.0
 10
4916.196978720438
 20
4031.962392765295
 30
0.0
 10
4917.812553718581
 20
4033.913661085278
 30
0.0
 10
4919.542362111678
 20
4035.838336022686
 30
0.0
 10
4921.040610255885
 20
4037.787102553429
 30
0.0
 10
4922.621857098045
 20
4039.711994645766
 30
0.0
 10
4923.980428630549
 20
4041.656584920841
 30
0.0
 10
4925.438260513124
 20
4043.576682564953
 30
0.0
 10
4926.62464444976
 20
4045.521148653753
 30
0.0
 10
4927.955066084054
 20
4047.43772093294
 30
0.0
 10
4929.019091439585
 20
4049.375057737565
 30
0.0
 10
4930.205904506719
 20
4051.287683276958
 30
0.0
 10
4931.131746652875
 20
4053.216439030923
 30
0.0
 10
4932.168055024479
 20
4055.123153110532
 30
0.0
 10
4932.96517380242
 20
4057.041456209229
 30
0.0
 10
4933.869841546115
 20
4058.939464720092
 30
0.0
 10
4934.529115886055
 20
4060.848147776793
 30
0.0
 10
4935.291693239147
 20
4062.737673165596
 30
0.0
 10
4935.811455143412
 20
4064.63385241267
 30
0.0
 10
4936.442246577877
 20
4066.510750007592
 30
0.0
 10
4936.820713649708
 20
4068.392746909075
 30
0.0
 10
4937.313915948261
 20
4070.257378072696
 30
0.0
 10
4937.554271578977
 20
4072.124252967519
 30
0.0
 10
4937.921078526078
 20
4073.973758155318
 30
0.0
 10
4938.024351031197
 20
4075.822637948267
 30
0.0
 10
4938.246024479475
 20
4077.655482436562
 30
0.0
 10
4938.224780520733
 20
4078.972281994274
 30
0.0
 10
4938.237372737428
 20
4079.674803278994
 30
0.0
 10
4938.239064803674
 20
4079.769203858515
 30
0.0
  0
LINE
  5
86
330
1F
100
AcDbEntity
  8
0
  6
Continuous
 62
     7
370
    25
100
AcDbLine
 10
4938.2390648037
 20
4079.7692038585
 30
0.0
 11
4938.4351305837
 21
4098.2242518572
 31
0.0
  0
LINE
  5
87
330
1F
100
AcDbEntity
  8
0
  6
Continuous
 62
     7
370
    25
100
AcDbLine
 10
4367.8128262579
 20
4021.7268861189
 30
0.0
 11
4367.6167604779
 21
4003.2718381202
 31
0.0
  0
SPLINE
  5
88
330
1F
100
AcDbEntity
  8
0
  6
Continuous
 62
     7
370
    25
100
AcDbSpline
210
0.0
220
0.0
230
1.0
 70
     8
 71
     3
 72
    32
 73
    28
 74
     0
 42
0.00000001
 43
0.00000001
 40
0.0
 40
0.0
 40
0.0
 40
0.0
 40
0.0085246942094068
 40
0.0621720800336083
 40
0.103527242851891
 40
0.160819513130385
 40
0.1945784994749421
 40
0.2147953819994276
 40
0.2842832018813946
 40
0.3555255725380721
 40
0.3729333814030988
 40
0.3901527142272671
 40
0.4603187686639461
 40
0.505035262478816
 40
0.5467794815120528
 40
0.6050697473252771
 40
0.6323448263277623
 40
0.645008181984389
 40
0.7168100075850086
 40
0.7693974769332953
 40
0.8003739457847019
 40
0.8724273055548742
 40
0.8832927624711466
 40
0.8864664832654409
 40
0.9650616554914362
 40
0.996204241217367
 40
1.0
 40
1.0
 40
1.0
 40
1.0
 10
4436.825398381155
 20
4022.372504511781
 30
0.0
 10
4436.826677401445
 20
4022.280214593361
 30
0.0
 10
4436.836005519254
 20
4021.607128139657
 30
0.0
 10
4436.904172874464
 20
4020.293147602164
 30
0.0
 10
4436.972599309814
 20
4019.218001627158
 30
0.0
 10
4437.125486006639
 20
4018.02889179518
 30
0.0
 10
4437.206602921629
 20
4017.115033494309
 30
0.0
 10
4437.376949495632
 20
4016.032787125313
 30
0.0
 10
4437.566920404046
 20
4014.864045559907
 30
0.0
 10
4437.881405625762
 20
4013.569399234164
 30
0.0
 10
4438.048227757298
 20
4012.75996590083
 30
0.0
 10
4438.275538181136
 20
4011.916158508664
 30
0.0
 10
4438.511643811954
 20
4011.029895626743
 30
0.0
 10
4438.92575100394
 20
4009.860588606063
 30
0.0
 10
4439.260517180319
 20
4008.817645152449
 30
0.0
 10
4439.649346427846
 20
4007.849384087481
 30
0.0
 10
4439.90734943822
 20
4007.182475950252
 30
0.0
 10
4440.273022673915
 20
4006.419692222089
 30
0.0
 10
4440.679112405477
 20
4005.483600346479
 30
0.0
 10
4441.256120296365
 20
4004.414801204283
 30
0.0
 10
4441.80630492901
 20
4003.336305009751
 30
0.0
 10
4442.277470746018
 20
4002.565717422745
 30
0.0
 10
4442.596564133309
 20
4002.014926790732
 30
0.0
 10
4442.994854771968
 20
4001.416127570074
 30
0.0
 10
4443.465122098793
 20
4000.664078184284
 30
0.0
 10
4443.996081053893
 20
3999.951501033166
 30
0.0
 10
4444.160898311689
 20
3999.72583328929
 30
0.0
 10
4444.178804327633
 20
3999.701316377204
 30
0.0
  0
SPLINE
  5
89
330
1F
100
AcDbEntity
  8
0
  6
Continuous
 62
     7
370
    25
100
AcDbSpline
210
0.0
220
0.0
230
1.0
 70
     8
 71
     3
 72
    63
 73
    59
 74
     0
 42
0.00000001
 43
0.00000001
 40
0.0
 40
0.0
 40
0.0
 40
0.0
 40
0.0163092655096067
 40
0.0331842615688397
 40
0.0645195698570684
 40
0.0774975763780214
 40
0.1123252183773836
 40
0.1220872048185089
 40
0.1597947058319281
 40
0.1658755461596273
 40
0.2068985191791925
 40
0.2091213316985275
 40
0.2389350862149154
 40
0.252546365061306
 40
0.2536686647089642
 40
0.2941929718831363
 40
0.3000036342102378
 40
0.3352819255373602
 40
0.3459433716498481
 40
0.3763811436435548
 40
0.3915285511017031
 40
0.417068506059217
 40
0.4366950800547102
 40
0.4566711414135589
 40
0.4815429809959758
 40
0.4955300774448074
 40
0.5259211148128748
 40
0.5346636077298556
 40
0.570013900656954
 40
0.5729310520507158
 40
0.5878386326632105
 40
0.6088911506334082
 40
0.6136881736784195
 40
0.645117080854222
 40
0.6569452342760913
 40
0.6804455362260421
 40
0.6998301780847624
 40
0.7154145036088698
 40
0.7424001675583712
 40
0.7492543285116104
 40
0.7774550409244164
 40
0.782884219569269
 40
0.7845316440692895
 40
0.8133278870186268
 40
0.8263617944263425
 40
0.8445911827239304
 40
0.8677624184844641
 40
0.8752446723988904
 40
0.8947402436014877
 40
0.9043567862848023
 40
0.9089066696871556
 40
0.9315879722159255
 40
0.9498149352750049
 40
0.9584548249102631
 40
0.9753400767354392
 40
0.9827306769445231
 40
0.9911526259153859
 40
1.0
 40
1.0
 40
1.0
 40
1.0
 10
4844.091024171406
 20
4058.902040660229
 30
0.0
 10
4844.323870236927
 20
4059.117191443303
 30
0.0
 10
4844.797639257303
 20
4059.554956090523
 30
0.0
 10
4845.665368975026
 20
4060.405981844148
 30
0.0
 10
4846.535818205492
 20
4061.224356760697
 30
0.0
 10
4847.573715937294
 20
4062.276574160512
 30
0.0
 10
4848.360702789463
 20
4063.045115719072
 30
0.0
 10
4849.395516402161
 20
4064.143950707236
 30
0.0
 10
4850.108384741664
 20
4064.866938726746
 30
0.0
 10
4851.144313512068
 20
4066.008772425271
 30
0.0
 10
4851.779696608051
 20
4066.681571511107
 30
0.0
 10
4852.636732683421
 20
4067.669022712252
 30
0.0
 10
4853.175261101381
 20
4068.289085617686
 30
0.0
 10
4853.696228053323
 20
4068.895401427496
 30
0.0
 10
4854.34658134439
 20
4069.660336060203
 30
0.0
 10
4854.862822327244
 20
4070.320096009037
 30
0.0
 10
4855.799546817795
 20
4071.456553454179
 30
0.0
 10
4856.330709727769
 20
4072.180474345332
 30
0.0
 10
4857.17492875827
 20
4073.256618417243
 30
0.0
 10
4857.728676050344
 20
4074.035686913692
 30
0.0
 10
4858.477288097376
 20
4075.04606601626
 30
0.0
 10
4859.044236324161
 20
4075.884257620204
 30
0.0
 10
4859.705669162749
 20
4076.821172902675
 30
0.0
 10
4860.282012855695
 20
4077.73305565801
 30
0.0
 10
4860.850586653349
 20
4078.582436032353
 30
0.0
 10
4861.445761725488
 20
4079.57978011998
 30
0.0
 10
4861.930992402339
 20
4080.336945166008
 30
0.0
 10
4862.532104609575
 20
4081.408906545969
 30
0.0
 10
4862.947243836822
 20
4082.095690080885
 30
0.0
 10
4863.346894221981
 20
4082.86335248266
 30
0.0
 10
4863.655950371706
 20
4083.438979413861
 30
0.0
 10
4863.964287253203
 20
4084.063808843523
 30
0.0
 10
4864.411142162657
 20
4084.929995838469
 30
0.0
 10
4864.718534070378
 20
4085.640667872518
 30
0.0
 10
4865.205643996585
 20
4086.663864313779
 30
0.0
 10
4865.536879202718
 20
4087.48846815389
 30
0.0
 10
4865.942607723949
 20
4088.39556786386
 30
0.0
 10
4866.287814881936
 20
4089.327298723239
 30
0.0
 10
4866.603736045777
 20
4090.107363182708
 30
0.0
 10
4866.933855324588
 20
4091.070329979716
 30
0.0
 10
4867.149287104457
 20
4091.681110635022
 30
0.0
 10
4867.335431066993
 20
4092.252817453419
 30
0.0
 10
4867.524033805139
 20
4092.842572476245
 30
0.0
 10
4867.708933529529
 20
4093.592690449314
 30
0.0
 10
4868.007178261013
 20
4094.579071024604
 30
0.0
 10
4868.208097717173
 20
4095.472173698381
 30
0.0
 10
4868.427719854616
 20
4096.299742598257
 30
0.0
 10
4868.589050306122
 20
4097.126153772067
 30
0.0
 10
4868.71967476326
 20
4097.737868709085
 30
0.0
 10
4868.822517281911
 20
4098.350552114952
 30
0.0
 10
4868.948524613037
 20
4099.032032327677
 30
0.0
 10
4869.043016569674
 20
4099.8718997911
 30
0.0
 10
4869.193399296323
 20
4100.773142051184
 30
0.0
 10
4869.276405181823
 20
4101.618594498062
 30
0.0
 10
4869.342218379108
 20
4102.126811833218
 30
0.0
 10
4869.396934526279
 20
4102.951314018516
 30
0.0
 10
4869.44733695913
 20
4103.570668185763
 30
0.0
 10
4869.463537412378
 20
4104.00131391016
 30
0.0
 10
4869.4718371859
 20
4104.221941192968
 30
0.0
  0
SPLINE
  5
8A
330
1F
100
AcDbEntity
  8
0
  6
Continuous
 62
     7
370
    25
100
AcDbSpline
210
0.0
220
0.0
230
1.0
 70
     8
 71
     3
 72
    55
 73
    51
 74
     0
 42
0.00000001
 43
0.00000001
 40
0.0
 40
0.0
 40
0.0
 40
0.0
 40
0.0200693352889107
 40
0.0435250130016696
 40
0.0670118167190879
 40
0.0901855437439628
 40
0.1133916278645338
 40
0.136303888370722
 40
0.1592497304694107
 40
0.1818854877744826
 40
0.2045575198978692
 40
0.2269409140493027
 40
0.249323675393993
 40
0.2714426218676135
 40
0.2935586943363524
 40
0.3154367818929802
 40
0.3372768170547231
 40
0.3588678468865119
 40
0.3804588300365775
 40
0.4018285347288014
 40
0.423158030251039
 40
0.4442526354514197
 40
0.4653472652528929
 40
0.4862075405707903
 40
0.507067815888688
 40
0.5277253579663513
 40
0.5483395430696941
 40
0.5687591149146735
 40
0.5892021249085785
 40
0.6093952232409334
 40
0.6296335486272487
 40
0.6496572889806286
 40
0.6696809822943084
 40
0.6895078841947881
 40
0.7093993974241654
 40
0.7290856920424456
 40
0.7488196412821095
 40
0.7683891922467767
 40
0.7879721763237654
 40
0.8074563021215933
 40
0.8269514557180045
 40
0.8463656364423706
 40
0.8657710679057913
 40
0.8851401614647393
 40
0.9045029521130654
 40
0.9238743099314873
 40
0.9432418484460778
 40
0.9626113263353409
 40
0.9819808096572324
 40
1.0
 40
1.0
 40
1.0
 40
1.0
 10
4938.435130583673
 20
4098.224251857166
 30
0.0
 10
4938.453605911058
 20
4098.73793365138
 30
0.0
 10
4938.493673947845
 20
4099.851971881849
 30
0.0
 10
4938.337009661915
 20
4101.568294444608
 30
0.0
 10
4938.286039185359
 20
4103.364167069362
 30
0.0
 10
4937.985501823088
 20
4105.152232600783
 30
0.0
 10
4937.801782836847
 20
4106.926921964521
 30
0.0
 10
4937.364257866465
 20
4108.691388512669
 30
0.0
 10
4937.052126458052
 20
4110.4441826942
 30
0.0
 10
4936.463396636984
 20
4112.182633679408
 30
0.0
 10
4936.037781217688
 20
4113.912440093395
 30
0.0
 10
4935.298572673946
 20
4115.62269350647
 30
0.0
 10
4934.745368606157
 20
4117.327520197106
 30
0.0
 10
4933.872097706618
 20
4119.00817279494
 30
0.0
 10
4933.186360872762
 20
4120.687005761474
 30
0.0
 10
4932.184029212686
 20
4122.337441734745
 30
0.0
 10
4931.35458442237
 20
4123.986842237755
 30
0.0
 10
4930.225604400526
 20
4125.60456829148
 30
0.0
 10
4929.255722570692
 20
4127.22387614287
 30
0.0
 10
4927.988135997747
 20
4128.807866827862
 30
0.0
 10
4926.887173739707
 20
4130.395712965021
 30
0.0
 10
4925.498486673285
 20
4131.944585542447
 30
0.0
 10
4924.268622814217
 20
4133.499553345215
 30
0.0
 10
4922.740582360531
 20
4135.010660542129
 30
0.0
 10
4921.374938733438
 20
4136.531660911862
 30
0.0
 10
4919.709294052897
 20
4138.003020978521
 30
0.0
 10
4918.21838364869
 20
4139.488713546045
 30
0.0
 10
4916.413138993034
 20
4140.917906631103
 30
0.0
 10
4914.786811784043
 20
4142.365560477678
 30
0.0
 10
4912.865532116506
 20
4143.755276504899
 30
0.0
 10
4911.099636607374
 20
4145.162345968914
 30
0.0
 10
4909.045405396448
 20
4146.506853513341
 30
0.0
 10
4907.154648078174
 20
4147.87375787949
 30
0.0
 10
4904.962055502051
 20
4149.169724879412
 30
0.0
 10
4902.939409323758
 20
4150.49515121715
 30
0.0
 10
4900.623953659008
 20
4151.745961646877
 30
0.0
 10
4898.463982411369
 20
4153.026918949021
 30
0.0
 10
4896.015319670788
 20
4154.226164772104
 30
0.0
 10
4893.740307708909
 20
4155.46701803642
 30
0.0
 10
4891.152234038004
 20
4156.611709701106
 30
0.0
 10
4888.729744021643
 20
4157.802669556468
 30
0.0
 10
4886.03787829599
 20
4158.902219147034
 30
0.0
 10
4883.472239620748
 20
4160.041121537171
 30
0.0
 10
4880.655872011325
 20
4161.086660838737
 30
0.0
 10
4877.954182856555
 20
4162.175015967265
 30
0.0
 10
4875.011393564341
 20
4163.165838513293
 30
0.0
 10
4872.178702936198
 20
4164.203874652065
 30
0.0
 10
4869.106030110415
 20
4165.134190829324
 30
0.0
 10
4866.2164521286
 20
4166.095513901541
 30
0.0
 10
4864.177831305868
 20
4166.661924263708
 30
0.0
 10
4863.19533331808
 20
4166.934901481876
 30
0.0
  0
SPLINE
  5
8B
330
1F
100
AcDbEntity
  8
0
  6
Continuous
 62
     7
370
    25
100
AcDbSpline
210
0.0
220
0.0
230
1.0
 70
     8
 71
     3
 72
    56
 73
    52
 74
     0
 42
0.00000001
 43
0.00000001
 40
0.0
 40
0.0
 40
0.0
 40
0.0
 40
0.0142881079229667
 40
0.0372232517176947
 40
0.060158389602218
 40
0.0829346072405196
 40
0.105714183147164
 40
0.1283087742281634
 40
0.1509033886510892
 40
0.1733309812666218
 40
0.1957532584350319
 40
0.2180161895652576
 40
0.2402464597192379
 40
0.2623633077876733
 40
0.2844413836690833
 40
0.3063404100958064
 40
0.328247539565335
 40
0.3499888085279765
 40
0.3717211199784526
 40
0.3933091549474921
 40
0.4148590989102733
 40
0.4362580875663591
 40
0.4576570051378158
 40
0.4788529028510912
 40
0.5000369981210661
 40
0.5210690270370834
 40
0.54208825835962
 40
0.5629688128366803
 40
0.5837987601118253
 40
0.6044527965522225
 40
0.6251069113895267
 40
0.6455471490749417
 40
0.666023630774217
 40
0.6863154310864326
 40
0.7065907502945338
 40
0.7266784844087626
 40
0.746713473028193
 40
0.7666272181194322
 40
0.7864879442301661
 40
0.8061693838653128
 40
0.8258508462543208
 40
0.8453518922117219
 40
0.8647990039362228
 40
0.8840938199141086
 40
0.9033552385823287
 40
0.9224237414913186
 40
0.9414923226196471
 40
0.9603489533111553
 40
0.9792056110884211
 40
0.997833817283157
 40
1.0
 40
1.0
 40
1.0
 40
1.0
 10
4447.444439781353
 20
4112.338686985828
 30
0.0
 10
4446.742635330698
 20
4111.965775925923
 30
0.0
 10
4444.914300615969
 20
4110.994271348411
 30
0.0
 10
4442.150588995938
 20
4109.372176342754
 30
0.0
 10
4438.873584310822
 20
4107.554058675125
 30
0.0
 10
4435.827422253461
 20
4105.682086194573
 30
0.0
 10
4432.696270373011
 20
4103.844698809366
 30
0.0
 10
4429.801276252454
 20
4101.956246448791
 30
0.0
 10
4426.801033283276
 20
4100.106298588605
 30
0.0
 10
4424.062094408569
 20
4098.201981169916
 30
0.0
 10
4421.200611739479
 20
4096.337941750231
 30
0.0
 10
4418.586739022893
 20
4094.426410705688
 30
0.0
 10
4415.88495364298
 20
4092.545106218084
 30
0.0
 10
4413.411953579645
 20
4090.622849751982
 30
0.0
 10
4410.84077607343
 20
4088.73259086389
 30
0.0
 10
4408.508223478879
 20
4086.802863450775
 30
0.0
 10
4406.083062903386
 20
4084.902964702577
 30
0.0
 10
4403.905328146536
 20
4082.963231902712
 30
0.0
 10
4401.599341856156
 20
4081.057925782468
 30
0.0
 10
4399.561762517703
 20
4079.112516475263
 30
0.0
 10
4397.414264922942
 20
4077.197486403946
 30
0.0
 10
4395.507846871174
 20
4075.249714123317
 30
0.0
 10
4393.486687140193
 20
4073.33237972701
 30
0.0
 10
4391.738286574553
 20
4071.380955938151
 30
0.0
 10
4389.852503871196
 20
4069.462446613762
 30
0.0
 10
4388.242989661649
 20
4067.510802218113
 30
0.0
 10
4386.49201253156
 20
4065.588930200593
 30
0.0
 10
4385.019072274068
 20
4063.637368963171
 30
0.0
 10
4383.412788973374
 20
4061.715117809476
 30
0.0
 10
4382.074235755448
 20
4059.768101385891
 30
0.0
 10
4380.614694103811
 20
4057.84828928612
 30
0.0
 10
4379.415755664446
 20
4055.905654152708
 30
0.0
 10
4378.084743548129
 20
4053.989075251008
 30
0.0
 10
4377.035288762585
 20
4052.049818471964
 30
0.0
 10
4375.842900918952
 20
4050.137154080027
 30
0.0
 10
4374.923584062894
 20
4048.208420596241
 30
0.0
 10
4373.867569748294
 20
4046.303310225956
 30
0.0
 10
4373.090179182126
 20
4044.383466044196
 30
0.0
 10
4372.178713424551
 20
4042.485360375056
 30
0.0
 10
4371.526118894019
 20
4040.576869994473
 30
0.0
 10
4370.744268240798
 20
4038.688518499037
 30
0.0
 10
4370.243464838039
 20
4036.79124132838
 30
0.0
 10
4369.607427128431
 20
4034.913981751948
 30
0.0
 10
4369.230297743253
 20
4033.031910854567
 30
0.0
 10
4368.736672997101
 20
4031.167301687534
 30
0.0
 10
4368.496675202741
 20
4029.300415624736
 30
0.0
 10
4368.128860628419
 20
4027.45093067129
 30
0.0
 10
4368.029223378203
 20
4025.600932039499
 30
0.0
 10
4367.793696856834
 20
4023.768335808158
 30
0.0
 10
4367.826211642766
 20
4022.475174325842
 30
0.0
 10
4367.814089083156
 20
4021.797482313406
 30
0.0
 10
4367.812826257918
 20
4021.726886118879
 30
0.0
  0
SPLINE
  5
8C
330
1F
100
AcDbEntity
  8
0
  6
Continuous
 62
     7
370
    25
100
AcDbSpline
210
0.0
220
0.0
230
1.0
 70
     8
 71
     3
 72
   204
 73
   200
 74
     0
 42
0.00000001
 43
0.00000001
 40
0.0
 40
0.0
 40
0.0
 40
0.0
 40
0.0044556832406453
 40
0.0094325507198793
 40
0.0144094062322444
 40
0.0193333223109463
 40
0.0242572383896482
 40
0.0291188292414305
 40
0.0339875077544224
 40
0.0387904106814715
 40
0.0436010192352587
 40
0.0483427614462911
 40
0.0530995759222056
 40
0.0577928301844952
 40
0.0624854652822896
 40
0.0671275946078067
 40
0.0717616691423845
 40
0.0763428896764146
 40
0.0809241102104447
 40
0.0854498375701054
 40
0.0899841320890719
 40
0.0944600208957185
 40
0.0989359189050664
 40
0.1033620963036432
 40
0.1077882790570519
 40
0.112171440087331
 40
0.1165454015429698
 40
0.1208780695452621
 40
0.125206309665631
 40
0.1295005204104479
 40
0.1337851347831654
 40
0.1380338144212074
 40
0.1422922736600215
 40
0.1464991876982273
 40
0.1507098528338251
 40
0.1548970458180303
 40
0.1590842399794815
 40
0.1632365487510629
 40
0.1673917077888676
 40
0.1715258908676202
 40
0.1756624138480329
 40
0.1797817558329563
 40
0.1838992413811615
 40
0.1880090166758327
 40
0.1921174546055788
 40
0.196227711516357
 40
0.2003371549523339
 40
0.2044470130468262
 40
0.2085568703849887
 40
0.2126667277231511
 40
0.2167765852230784
 40
0.2208860286590553
 40
0.2249962863604564
 40
0.2291047242902024
 40
0.2332144995848737
 40
0.2373319851330788
 40
0.2414513271180022
 40
0.2455878500984149
 40
0.2497220331771675
 40
0.2538771922149723
 40
0.2580295009865536
 40
0.2622166921323159
 40
0.2663937718195814
 40
0.2706143952263982
 40
0.2748213092646041
 40
0.2790699789216629
 40
0.2833186585597048
 40
0.2876128693045217
 40
0.2918974836772393
 40
0.2962351248356122
 40
0.3005677928379045
 40
0.3049417542935433
 40
0.3093249153238224
 40
0.3137510927223992
 40
0.318177270120976
 40
0.3226531733502357
 40
0.3271290569369537
 40
0.3316548096313358
 40
0.3361890788335178
 40
0.3407702993675479
 40
0.3453515298066049
 40
0.3499855947239597
 40
0.3546277336790552
 40
0.3593203687768496
 40
0.3640136136870868
 40
0.368762835395422
 40
0.3735121913740322
 40
0.3783227911688606
 40
0.3831256940959097
 40
0.3879943726089016
 40
0.3928559634606839
 40
0.3977798795393858
 40
0.4026969300209912
 40
0.4076804097783104
 40
0.4126572851540365
 40
0.4176981491369792
 40
0.4227305082175231
 40
0.4278245828698075
 40
0.4329186575220919
 40
0.4380699756633949
 40
0.4432212797000417
 40
0.4484246994027164
 40
0.4536371480338954
 40
0.4588907322091016
 40
0.4641534745146517
 40
0.469475527117753
 40
0.4747924143387079
 40
0.4801577353118991
 40
0.4855324589303336
 40
0.4909495389259422
 40
0.4963761854919361
 40
0.501853507659255
 40
0.507330841365738
 40
0.5128625169921512
 40
0.5183885811428687
 40
0.5239682245247242
 40
0.5295439299553614
 40
0.5351747815315112
 40
0.5408119147965591
 40
0.5464936480234664
 40
0.5521753850296843
 40
0.5578982105707226
 40
0.5636242245096184
 40
0.5694050907178186
 40
0.5751859621123284
 40
0.5810076206795908
 40
0.5868368875502162
 40
0.5927102443919072
 40
0.5985835947263173
 40
0.6044995507595372
 40
0.6104177029753755
 40
0.6163820349395636
 40
0.6223568411042951
 40
0.6283606050983014
 40
0.6343765551024415
 40
0.6404338754941288
 40
0.6464926250177272
 40
0.652596498459644
 40
0.6587003655958029
 40
0.6648532954902268
 40
0.6710071411271145
 40
0.6772030044837574
 40
0.6833982240733815
 40
0.6896398399243502
 40
0.6958814589451643
 40
0.7021723436006494
 40
0.7084525846993149
 40
0.7147434693548
 40
0.7210343536138032
 40
0.727275971842156
 40
0.7335175892780474
 40
0.7397128072845028
 40
0.7459086738071524
 40
0.7520625162838466
 40
0.7582154461782704
 40
0.7643193133144295
 40
0.7704231867563462
 40
0.7764819362799448
 40
0.782539256671632
 40
0.7885552066757723
 40
0.7945589706697784
 40
0.8005337768345101
 40
0.8064981087986982
 40
0.8124162610145363
 40
0.8183322232570379
 40
0.824205573591448
 40
0.8300789180854344
 40
0.83590818495606
 40
0.8417298557950653
 40
0.8475107149947537
 40
0.8532915812029539
 40
0.8590176072411997
 40
0.8647404327822382
 40
0.8704221577849495
 40
0.8761039030153459
 40
0.8817410362803938
 40
0.8873718878565438
 40
0.8929475932871809
 40
0.8985272248815578
 40
0.9040533006896168
 40
0.9095849646460713
 40
0.9150622983525543
 40
0.9205396320590371
 40
0.925966267226935
 40
0.9313833358292531
 40
0.9367580819614386
 40
0.9421234029346297
 40
0.9474402901555847
 40
0.952762342758686
 40
0.9580250850642361
 40
0.9632786692394424
 40
0.9684911178706214
 40
0.973694537573296
 40
0.9788458416099429
 40
0.9839971597512459
 40
0.9890912344035304
 40
0.994176626102147
 40
0.9992174900850894
 40
1.0
 40
1.0
 40
1.0
 40
1.0
 10
4367.616760477921
 20
4003.271838120228
 30
0.0
 10
4367.596939033285
 20
4002.734353298251
 30
0.0
 10
4367.554977616422
 20
4001.596513696411
 30
0.0
 10
4367.716998309975
 20
3999.857188128184
 30
0.0
 10
4367.751305134906
 20
3998.06124751412
 30
0.0
 10
4368.068648399759
 20
3996.273301583124
 30
0.0
 10
4368.248030246513
 20
3994.497743040014
 30
0.0
 10
4368.686618831155
 20
3992.733282279852
 30
0.0
 10
4368.998771881482
 20
3990.980500451476
 30
0.0
 10
4369.586465897376
 20
3989.241998365283
 30
0.0
 10
4370.01595147737
 20
3987.513303729381
 30
0.0
 10
4370.739794941637
 20
3985.80232066021
 30
0.0
 10
4371.308089881495
 20
3984.098207830616
 30
0.0
 10
4372.177772893107
 20
3982.41645922328
 30
0.0
 10
4372.864610640161
 20
3980.737679463161
 30
0.0
 10
4373.866572282252
 20
3979.087221833696
 30
0.0
 10
4374.696358485487
 20
3977.43785288036
 30
0.0
 10
4375.82439297765
 20
3975.820031230967
 30
0.0
 10
4376.797047083578
 20
3974.202080792338
 30
0.0
 10
4378.051918368396
 20
3972.61678507481
 30
0.0
 10
4379.165295785045
 20
3971.030210490905
 30
0.0
 10
4380.551539088295
 20
3969.480015604211
 30
0.0
 10
4381.782278102072
 20
3967.925138970745
 30
0.0
 10
4383.310097795839
 20
3966.414010092924
 30
0.0
 10
4384.675757935658
 20
3964.893007251652
 30
0.0
 10
4386.341574891223
 20
3963.421677604799
 30
0.0
 10
4387.831787959108
 20
3961.935863657586
 30
0.0
 10
4389.638324861085
 20
3960.508150859402
 30
0.0
 10
4391.255228392115
 20
3959.058834302373
 30
0.0
 10
4393.185586860493
 20
3957.672068265533
 30
0.0
 10
4394.943058724939
 20
3956.263425092704
 30
0.0
 10
4396.99827434541
 20
3954.919047447696
 30
0.0
 10
4398.895166510652
 20
3953.552074966691
 30
0.0
 10
4401.087986670034
 20
3952.256220316499
 30
0.0
 10
4403.104858724777
 20
3950.92939312017
 30
0.0
 10
4405.426224425796
 20
3949.680051195853
 30
0.0
 10
4407.586418886029
 20
3948.397674615309
 30
0.0
 10
4410.035486940627
 20
3947.198530568526
 30
0.0
 10
4412.310390797761
 20
3945.957650039862
 30
0.0
 10
4414.89849332307
 20
3944.81296565893
 30
0.0
 10
4417.320975555305
 20
3943.622003814102
 30
0.0
 10
4420.012843611687
 20
3942.522454909529
 30
0.0
 10
4422.578480720895
 20
3941.383551758614
 30
0.0
 10
4425.394852261009
 20
3940.338014810971
 30
0.0
 10
4428.096527522507
 20
3939.249650926577
 30
0.0
 10
4431.03936937224
 20
3938.258860716812
 30
0.0
 10
4433.87176842996
 20
3937.220663832237
 30
0.0
 10
4436.945649716091
 20
3936.290998677814
 30
0.0
 10
4439.899338824495
 20
3935.30432029797
 30
0.0
 10
4443.09270432756
 20
3934.437105013264
 30
0.0
 10
4446.173114196838
 20
3933.510694048925
 30
0.0
 10
4449.465429075633
 20
3932.701735024394
 30
0.0
 10
4452.666405199734
 20
3931.839607674157
 30
0.0
 10
4456.05196958111
 20
3931.092117535571
 30
0.0
 10
4459.358690507535
 20
3930.290987660208
 30
0.0
 10
4462.837126873592
 20
3929.607054987328
 30
0.0
 10
4466.248240472984
 20
3928.866003360283
 30
0.0
 10
4469.821593893911
 20
3928.248673487231
 30
0.0
 10
4473.320021729818
 20
3927.557733720193
 30
0.0
 10
4476.981818122664
 20
3927.008101617605
 30
0.0
 10
4480.582325443705
 20
3926.382974837234
 30
0.0
 10
4484.316073343842
 20
3925.886442066141
 30
0.0
 10
4488.012712923621
 20
3925.324061308567
 30
0.0
 10
4491.823841487048
 20
3924.890076239892
 30
0.0
 10
4495.603138843062
 20
3924.384977595383
 30
0.0
 10
4499.485508350208
 20
3924.010761394298
 30
0.0
 10
4503.352109846087
 20
3923.569601671586
 30
0.0
 10
4507.30416705942
 20
3923.252190557221
 30
0.0
 10
4511.251073872912
 20
3922.87211692176
 30
0.0
 10
4515.270248480798
 20
3922.617140700815
 30
0.0
 10
4519.287294762307
 20
3922.290385780534
 30
0.0
 10
4523.368244275434
 20
3922.095658003367
 30
0.0
 10
4527.456356524142
 20
3921.831739196045
 30
0.0
 10
4531.594751271228
 20
3921.69277385486
 30
0.0
 10
4535.748370997951
 20
3921.490344764356
 30
0.0
 10
4539.938269323032
 20
3921.410766680179
 30
0.0
 10
4544.152010781391
 20
3921.269982894721
 30
0.0
 10
4548.392391536271
 20
3921.246947052528
 30
0.0
 10
4552.66413500415
 20
3921.160324956905
 30
0.0
 10
4556.950914711711
 20
3921.194274503441
 30
0.0
 10
4561.272885644166
 20
3921.168044867284
 30
0.0
 10
4565.600340439872
 20
3921.262173210688
 30
0.0
 10
4569.972922152363
 20
3921.291586013124
 30
0.0
 10
4574.338596864509
 20
3921.446960932598
 30
0.0
 10
4578.754962732779
 20
3921.532309012766
 30
0.0
 10
4583.153010430778
 20
3921.743884849826
 30
0.0
 10
4587.610390269452
 20
3921.886896430875
 30
0.0
 10
4592.039492822775
 20
3922.152565033144
 30
0.0
 10
4596.530332437112
 20
3922.359066360493
 30
0.0
 10
4600.988984953179
 20
3922.673027214135
 30
0.0
 10
4605.507664065116
 20
3922.942755298244
 30
0.0
 10
4609.989438796674
 20
3923.310395167243
 30
0.0
 10
4614.533487338619
 20
3923.637304053148
 30
0.0
 10
4619.035272399557
 20
3924.060395800829
 30
0.0
 10
4623.603860749956
 20
3924.442403336723
 30
0.0
 10
4628.117070980486
 20
3924.926313465794
 30
0.0
 10
4632.705903239987
 20
3925.359021125415
 30
0.0
 10
4637.22931068372
 20
3925.898579049799
 30
0.0
 10
4641.829648622929
 20
3926.391165670233
 30
0.0
 10
4646.362720009847
 20
3926.984458803593
 30
0.0
 10
4650.970701917378
 20
3927.534019601701
 30
0.0
 10
4655.510761406515
 20
3928.178178272365
 30
0.0
 10
4660.122491495757
 20
3928.783457213079
 30
0.0
 10
4664.659382628615
 20
3929.482313571501
 30
0.0
 10
4669.271796935297
 20
3930.144187033332
 30
0.0
 10
4673.807832309009
 20
3930.895673296032
 30
0.0
 10
4678.417178711887
 20
3931.613051539877
 30
0.0
 10
4682.939451850824
 20
3932.420022597818
 30
0.0
 10
4687.538936340846
 20
3933.191562032897
 30
0.0
 10
4692.050586700786
 20
3934.050148300618
 30
0.0
 10
4696.644524222981
 20
3934.872644117145
 30
0.0
 10
4701.133930797022
 20
3935.78923669625
 30
0.0
 10
4705.715320989671
 20
3936.665769489017
 30
0.0
 10
4710.179250211017
 20
3937.63730737414
 30
0.0
 10
4714.748366110244
 20
3938.561572796743
 30
0.0
 10
4719.189759292896
 20
3939.581858434337
 30
0.0
 10
4723.716814686351
 20
3940.570865047512
 30
0.0
 10
4728.139832949832
 20
3941.638705744733
 30
0.0
 10
4732.642952799174
 20
3942.681229932069
 30
0.0
 10
4737.028879784888
 20
3943.804843252061
 30
0.0
 10
4741.509385836004
 20
3944.892076657268
 30
0.0
 10
4745.842434079438
 20
3946.072249285192
 30
0.0
 10
4750.29033876604
 20
3947.209613325126
 30
0.0
 10
4754.586563641225
 20
3948.440736671038
 30
0.0
 10
4758.985810699578
 20
3949.636884275731
 30
0.0
 10
4763.247644421618
 20
3950.91318604066
 30
0.0
 10
4767.596692159816
 20
3952.163945183568
 30
0.0
 10
4771.804806915126
 20
3953.493295270415
 30
0.0
 10
4776.118388707598
 20
3954.788984941829
 30
0.0
 10
4780.258131962875
 20
3956.173753549804
 30
0.0
 10
4784.522503332278
 20
3957.518731568338
 30
0.0
 10
4788.611084014888
 20
3958.952366407957
 30
0.0
 10
4792.812685789821
 20
3960.352448699608
 30
0.0
 10
4796.835868360784
 20
3961.83692745232
 30
0.0
 10
4800.986453819711
 20
3963.283329015163
 30
0.0
 10
4804.938620307857
 20
3964.819132635756
 30
0.0
 10
4809.026708067298
 20
3966.316424907565
 30
0.0
 10
4812.911824507432
 20
3967.899597704711
 30
0.0
 10
4816.924586341035
 20
3969.450559693274
 30
0.0
 10
4820.731675086358
 20
3971.084982847497
 30
0.0
 10
4824.676815569897
 20
3972.684976835487
 30
0.0
 10
4828.416693549619
 20
3974.363577301199
 30
0.0
 10
4832.267291595212
 20
3976.018358576212
 30
0.0
 10
4835.924685202055
 20
3977.744557982868
 30
0.0
 10
4839.709917791701
 20
3979.444238902431
 30
0.0
 10
4843.269573011597
 20
3981.221344702799
 30
0.0
 10
4846.953715118929
 20
3982.967477578785
 30
0.0
 10
4850.412463312377
 20
3984.78158836244
 30
0.0
 10
4853.981229978825
 20
3986.557558309452
 30
0.0
 10
4857.298962385656
 20
3988.398233075918
 30
0.0
 10
4860.714432122407
 20
3990.197394284688
 30
0.0
 10
4863.903827992136
 20
3992.051588376389
 30
0.0
 10
4867.18001139252
 20
3993.870034526849
 30
0.0
 10
4870.209180113843
 20
3995.746276935366
 30
0.0
 10
4873.358386251994
 20
3997.579110803223
 30
0.0
 10
4876.24834111965
 20
3999.468700774836
 30
0.0
 10
4879.250227316462
 20
4001.318247478376
 30
0.0
 10
4881.98747838583
 20
4003.222939347401
 30
0.0
 10
4884.854447864294
 20
4005.086028144772
 30
0.0
 10
4887.44909875891
 20
4007.001684887981
 30
0.0
 10
4890.170286782523
 20
4008.878832909646
 30
0.0
 10
4892.636590672517
 20
4010.802264663306
 30
0.0
 10
4895.214581977257
 20
4012.691479015841
 30
0.0
 10
4897.527685620104
 20
4014.624941837109
 30
0.0
 10
4899.970929177934
 20
4016.521359848022
 30
0.0
 10
4902.148707138375
 20
4018.461186967568
 30
0.0
 10
4904.43657813746
 20
4020.369662160785
 30
0.0
 10
4906.493306604591
 20
4022.311763057252
 30
0.0
 10
4908.635355001144
 20
4024.227372897054
 30
0.0
 10
4910.543202084174
 20
4026.17490238625
 30
0.0
 10
4912.563840369996
 20
4028.092321178925
 30
0.0
 10
4914.312773014544
 20
4030.043672185473
 30
0.0
 10
4916.196978720438
 20
4031.962392765295
 30
0.0
 10
4917.812553718581
 20
4033.913661085278
 30
0.0
 10
4919.542362111678
 20
4035.838336022686
 30
0.0
 10
4921.040610255885
 20
4037.787102553429
 30
0.0
 10
4922.621857098045
 20
4039.711994645766
 30
0.0
 10
4923.980428630549
 20
4041.656584920841
 30
0.0
 10
4925.438260513124
 20
4043.576682564953
 30
0.0
 10
4926.62464444976
 20
4045.521148653753
 30
0.0
 10
4927.955066084054
 20
4047.43772093294
 30
0.0
 10
4929.019091439585
 20
4049.375057737565
 30
0.0
 10
4930.205904506719
 20
4051.287683276958
 30
0.0
 10
4931.131746652875
 20
4053.216439030923
 30
0.0
 10
4932.168055024479
 20
4055.123153110532
 30
0.0
 10
4932.96517380242
 20
4057.041456209229
 30
0.0
 10
4933.869841546115
 20
4058.939464720092
 30
0.0
 10
4934.529115886055
 20
4060.848147776793
 30
0.0
 10
4935.291693239147
 20
4062.737673165596
 30
0.0
 10
4935.811455143412
 20
4064.63385241267
 30
0.0
 10
4936.442246577877
 20
4066.510750007592
 30
0.0
 10
4936.820713649708
 20
4068.392746909075
 30
0.0
 10
4937.313915948261
 20
4070.257378072696
 30
0.0
 10
4937.554271578977
 20
4072.124252967519
 30
0.0
 10
4937.921078526078
 20
4073.973758155318
 30
0.0
 10
4938.024351031197
 20
4075.822637948267
 30
0.0
 10
4938.246024479475
 20
4077.655482436562
 30
0.0
 10
4938.224780520733
 20
4078.972281994274
 30
0.0
 10
4938.237372737428
 20
4079.674803278994
 30
0.0
 10
4938.239064803674
 20
4079.769203858515
 30
0.0
  0
LINE
  5
8D
330
1F
100
AcDbEntity
  8
0
  6
Continuous
 62
     7
370
    25
100
AcDbLine
 10
4938.2390648037
 20
4079.7692038585
 30
0.0
 11
4938.4351305837
 21
4098.2242518572
 31
0.0
  0
LINE
  5
8E
330
1F
100
AcDbEntity
  8
0
  6
Continuous
 62
     7
370
    25
100
AcDbLine
 10
4367.8128262579
 20
4021.7268861189
 30
0.0
 11
4367.6167604779
 21
4003.2718381202
 31
0.0
  0
LINE
  5
8F
330
1F
100
AcDbEntity
  8
0
  6
Continuous
 62
     7
370
    25
100
AcDbLine
 10
4666.8390749911
 20
12754.4142842984
 30
0.0
 11
4667.2751323131
 21
12754.478863593
 31
0.0
  0
SPLINE
  5
90
330
1F
100
AcDbEntity
  8
0
  6
Continuous
 62
     7
370
    25
100
AcDbSpline
210
0.0
220
0.0
230
1.0
 70
     8
 71
     3
 72
     9
 73
     5
 74
     0
 42
0.00000001
 43
0.00000001
 40
0.0
 40
0.0
 40
0.0
 40
0.0
 40
0.7963623576134353
 40
1.0
 40
1.0
 40
1.0
 40
1.0
 10
4297.595215755448
 20
12858.09887427679
 30
0.0
 10
4297.509660228491
 20
12858.14995380087
 30
0.0
 10
4297.402227316653
 20
12858.21409485877
 30
0.0
 10
4297.604666973875
 20
12858.18960659511
 30
0.0
 10
4297.645891308398
 20
12858.18461986283
 30
0.0
  0
SPLINE
  5
91
330
1F
100
AcDbEntity
  8
0
  6
Continuous
 62
     7
370
    25
100
AcDbSpline
210
0.0
220
0.0
230
1.0
 70
     8
 71
     3
 72
     9
 73
     5
 74
     0
 42
0.00000001
 43
0.00000001
 40
0.0
 40
0.0
 40
0.0
 40
0.0
 40
0.3755596509759813
 40
1.0
 40
1.0
 40
1.0
 40
1.0
 10
4652.28856512724
 20
12755.01106634501
 30
0.0
 10
4652.321695898378
 20
12754.99471840569
 30
0.0
 10
4652.409912966032
 20
12754.95118886442
 30
0.0
 10
4652.334144300611
 20
12754.95440417171
 30
0.0
 10
4652.28683128873
 20
12754.95641193931
 30
0.0
  0
LINE
  5
92
330
1F
100
AcDbEntity
  8
0
  6
Continuous
 62
     7
370
    25
100
AcDbLine
 10
4284.6975429675
 20
12865.7350268637
 30
0.0
 11
4284.8272384389
 21
12865.5110193058
 31
0.0
  0
SPLINE
  5
93
330
1F
100
AcDbEntity
  8
0
  6
Continuous
 62
     7
370
    25
100
AcDbSpline
210
0.0
220
0.0
230
1.0
 70
     8
 71
     3
 72
    40
 73
    36
 74
     0
 42
0.00000001
 43
0.00000001
 40
0.0
 40
0.0
 40
0.0
 40
0.0
 40
0.0024788093017239
 40
0.0344175683303885
 40
0.0663559908647497
 40
0.0982877141909803
 40
0.1302279111513107
 40
0.1621587543483024
 40
0.1941070958657334
 40
0.2260372145932716
 40
0.2579802975840814
 40
0.2899053947355308
 40
0.321842633836611
 40
0.353785527333227
 40
0.3857286103240369
 40
0.4176587290515751
 40
0.4495905137834443
 40
0.481521356980436
 40
0.5134615450256933
 40
0.5454072121752478
 40
0.5773456499627535
 40
0.6092728626194842
 40
0.6412097944808917
 40
0.6731453349066572
 40
0.7050860024374093
 40
0.7370222827387813
 40
0.7689619226566049
 40
0.8008888403174885
 40
0.8328220590602742
 40
0.8647581296062947
 40
0.8966991901733814
 40
0.9286330523621422
 40
0.960581249339404
 40
0.9925139190555445
 40
1.0
 40
1.0
 40
1.0
 40
1.0
 10
4297.721970707014
 20
12857.89439229483
 30
0.0
 10
4297.72582734469
 20
12857.88635091834
 30
0.0
 10
4297.779375671546
 20
12857.77469867262
 30
0.0
 10
4299.427837128955
 20
12857.09587020345
 30
0.0
 10
4302.775300750848
 20
12855.84813374223
 30
0.0
 10
4307.911702697719
 20
12854.11112259075
 30
0.0
 10
4314.553161095358
 20
12851.90038714774
 30
0.0
 10
4322.710979275022
 20
12849.30568783654
 30
0.0
 10
4332.296109934057
 20
12846.28542747437
 30
0.0
 10
4343.198499922816
 20
12842.8938822948
 30
0.0
 10
4355.334246805498
 20
12839.17857406864
 30
0.0
 10
4368.587838426964
 20
12835.14667248488
 30
0.0
 10
4382.833104499647
 20
12830.85044602275
 30
0.0
 10
4397.93922434537
 20
12826.32929700743
 30
0.0
 10
4413.763595379494
 20
12821.61212368967
 30
0.0
 10
4430.160266460347
 20
12816.770478287
 30
0.0
 10
4446.969472975677
 20
12811.83054471763
 30
0.0
 10
4464.036761286694
 20
12806.81754080086
 30
0.0
 10
4481.219106299277
 20
12801.8432657453
 30
0.0
 10
4498.332083613705
 20
12796.87014914468
 30
0.0
 10
4515.230641088856
 20
12792.01116045601
 30
0.0
 10
4531.749876164095
 20
12787.29422591081
 30
0.0
 10
4547.736860809846
 20
12782.73154773475
 30
0.0
 10
4563.048306786136
 20
12778.40776524943
 30
0.0
 10
4577.533487415961
 20
12774.35429328968
 30
0.0
 10
4591.064344146451
 20
12770.58164905019
 30
0.0
 10
4603.500115416253
 20
12767.16270168846
 30
0.0
 10
4614.751466737932
 20
12764.0895057443
 30
0.0
 10
4624.68355316066
 20
12761.44253999443
 30
0.0
 10
4633.228605339754
 20
12759.18431732638
 30
0.0
 10
4640.277689532499
 20
12757.40194368356
 30
0.0
 10
4645.827517090266
 20
12756.03940308248
 30
0.0
 10
4649.628932425612
 20
12755.20806904652
 30
0.0
 10
4651.644289319487
 20
12754.82484924165
 30
0.0
 10
4651.845226529772
 20
12754.88236444613
 30
0.0
 10
4651.883386851846
 20
12754.89328725492
 30
0.0
  0
SPLINE
  5
94
330
1F
100
AcDbEntity
  8
0
  6
Continuous
 62
     7
370
    25
100
AcDbSpline
210
0.0
220
0.0
230
1.0
 70
     8
 71
     3
 72
     9
 73
     5
 74
     0
 42
0.00000001
 43
0.00000001
 40
0.0
 40
0.0
 40
0.0
 40
0.0
 40
0.2350969982967059
 40
0.9999999999999999
 40
0.9999999999999999
 40
0.9999999999999999
 40
0.9999999999999999
 10
4651.883386851846
 20
12754.89328725492
 30
0.0
 10
4653.058505979297
 20
12754.85593668119
 30
0.0
 10
4658.056949753419
 20
12754.69706364582
 30
0.0
 10
4663.032931566123
 20
12754.53683991277
 30
0.0
 10
4666.839074991081
 20
12754.41428429841
 30
0.0
  0
SPLINE
  5
95
330
1F
100
AcDbEntity
  8
0
  6
Continuous
 62
     7
370
    25
100
AcDbSpline
210
0.0
220
0.0
230
1.0
 70
     8
 71
     3
 72
    50
 73
    46
 74
     0
 42
0.00000001
 43
0.00000001
 40
0.0
 40
0.0
 40
0.0
 40
0.0
 40
0.1722397339968456
 40
0.196832453697156
 40
0.3691562460900326
 40
0.3936763406139404
 40
0.5655803426728542
 40
0.5905116707827334
 40
0.7639149175004052
 40
0.7873429583022392
 40
0.9509593605034791
 40
0.9742081782398583
 40
0.9743919756925445
 40
0.9756816151101716
 40
0.975849860867549
 40
0.9770744484637828
 40
0.9772224914034671
 40
0.9783608105149459
 40
0.978479429801708
 40
0.9795468776214471
 40
0.9796483375409244
 40
0.980649950581007
 40
0.9807358842769338
 40
0.9816726058177327
 40
0.9817309728769877
 40
0.9826307469656743
 40
0.9826581876318217
 40
0.9835179266564821
 40
0.98351839334378
 40
0.9835265580069062
 40
0.9843360665905855
 40
0.9843901964193948
 40
0.9851507633484853
 40
0.9853608685276978
 40
0.98603891125018
 40
0.9866382887146814
 40
0.9871781107110891
 40
0.9892331974775561
 40
0.9893818114334213
 40
0.9900127234920432
 40
0.9915816214184251
 40
0.9946491231857169
 40
0.9954396467013596
 40
0.9985543927200698
 40
1.0
 40
1.0
 40
1.0
 40
1.0
 10
4667.275132313132
 20
12754.47886359297
 30
0.0
 10
4668.480020484249
 20
12792.99608695639
 30
0.0
 10
4669.856944900283
 20
12837.0128733755
 30
0.0
 10
4672.559986548517
 20
12919.58377662933
 30
0.0
 10
4674.05296278109
 20
12969.09597350789
 30
0.0
 10
4676.752677359859
 20
13051.57624146673
 30
0.0
 10
4678.254219786373
 20
13101.06934268551
 30
0.0
 10
4680.97152788636
 20
13183.88253167576
 30
0.0
 10
4682.45427473913
 20
13233.46873806427
 30
0.0
 10
4685.119957594598
 20
13314.0920350294
 30
0.0
 10
4686.143486320172
 20
13361.1167534123
 30
0.0
 10
4688.009755194347
 20
13402.94854684648
 30
0.0
 10
4688.071375351017
 20
13408.4796330921
 30
0.0
 10
4688.086393489786
 20
13408.84722154004
 30
0.0
 10
4688.065309956662
 20
13409.44714317241
 30
0.0
 10
4688.067815344601
 20
13409.79249059635
 30
0.0
 10
4688.020280326983
 20
13410.35247435416
 30
0.0
 10
4688.0120404504
 20
13410.66678762156
 30
0.0
 10
4687.937715169726
 20
13411.1809852448
 30
0.0
 10
4687.914904080489
 20
13411.47156339023
 30
0.0
 10
4687.812880122613
 20
13411.94136359888
 30
0.0
 10
4687.779882071172
 20
13412.21137760596
 30
0.0
 10
4687.644860073332
 20
13412.63857040096
 30
0.0
 10
4687.603243205852
 20
13412.88058449324
 30
0.0
 10
4687.446195956868
 20
13413.26770263169
 30
0.0
 10
4687.385507527031
 20
13413.48968703787
 30
0.0
 10
4687.203923574505
 20
13413.82010685428
 30
0.0
 10
4687.12602223723
 20
13414.03893316863
 30
0.0
 10
4687.026613604809
 20
13414.17435957909
 30
0.0
 10
4686.923164090244
 20
13414.32845277463
 30
0.0
 10
4686.780067271228
 20
13414.5224078559
 30
0.0
 10
4686.642044608916
 20
13414.7099376042
 30
0.0
 10
4686.384652490917
 20
13414.95213435881
 30
0.0
 10
4686.319053303137
 20
13415.03556616322
 30
0.0
 10
4685.910643492336
 20
13415.33857366978
 30
0.0
 10
4685.98103369618
 20
13415.30548483016
 30
0.0
 10
4685.204003814572
 20
13415.73606813286
 30
0.0
 10
4685.712367802855
 20
13415.5163589858
 30
0.0
 10
4685.203359112863
 20
13415.71942751283
 30
0.0
 10
4685.308487337857
 20
13415.68267291423
 30
0.0
 10
4684.553716345554
 20
13415.96293334254
 30
0.0
 10
4684.750978164849
 20
13415.90512724294
 30
0.0
 10
4684.155728207525
 20
13416.11827192944
 30
0.0
 10
4683.930856657732
 20
13416.19677998632
 30
0.0
 10
4683.561620160179
 20
13416.32148997786
 30
0.0
 10
4683.444574191604
 20
13416.36102236929
 30
0.0
  0
SPLINE
  5
96
330
1F
100
AcDbEntity
  8
0
  6
Continuous
 62
     7
370
    25
100
AcDbSpline
210
0.0
220
0.0
230
1.0
 70
     8
 71
     3
 72
    47
 73
    43
 74
     0
 42
0.00000001
 43
0.00000001
 40
0.0
 40
0.0
 40
0.0
 40
0.0
 40
0.0008660945379547
 40
0.0016196189172308
 40
0.005432577394331
 40
0.007765135493813
 40
0.010031270913992
 40
0.0116145161561655
 40
0.0126526986608373
 40
0.0141341204671387
 40
0.0151699960933187
 40
0.0151789962462065
 40
0.0151949198730268
 40
0.016108286251434
 40
0.0162016406809943
 40
0.0170048083680355
 40
0.0171502594984001
 40
0.0179134633104168
 40
0.0181039417813735
 40
0.0188791897445143
 40
0.0191162930752555
 40
0.0198983825141962
 40
0.0201726671194297
 40
0.0209974512255127
 40
0.0213088218073464
 40
0.0221879376103523
 40
0.0225316915254651
 40
0.0234751191662124
 40
0.0238559987817384
 40
0.0248545339250228
 40
0.0252756370211419
 40
0.0263450343638577
 40
0.1583947022909845
 40
0.213101303671953
 40
0.3510254817359542
 40
0.4098211143069836
 40
0.5475863424237308
 40
0.606542652474145
 40
0.744768499725254
 40
0.8032692963837836
 40
0.9411503866286803
 40
1.0
 40
1.0
 40
1.0
 40
1.0
 10
4626.01423904372
 20
13433.06505335674
 30
0.0
 10
4625.939099661861
 20
13433.08405283445
 30
0.0
 10
4625.798587097753
 20
13433.11958234325
 30
0.0
 10
4625.410090621551
 20
13433.20570014856
 30
0.0
 10
4625.041005525718
 20
13433.30126893463
 30
0.0
 10
4624.503980293584
 20
13433.40772410761
 30
0.0
 10
4624.206593084186
 20
13433.46137746089
 30
0.0
 10
4624.038918559207
 20
13433.52232148834
 30
0.0
 10
4623.46735276492
 20
13433.53295700253
 30
0.0
 10
4623.554679745303
 20
13433.59773814311
 30
0.0
 10
4622.82774759221
 20
13433.51123712825
 30
0.0
 10
4622.749698603709
 20
13433.51098531212
 30
0.0
 10
4622.558659369339
 20
13433.46379011706
 30
0.0
 10
4622.3908606617
 20
13433.43836543461
 30
0.0
 10
4622.062981300949
 20
13433.30484109507
 30
0.0
 10
4621.861798593181
 20
13433.23157666092
 30
0.0
 10
4621.538616486455
 20
13433.04403823579
 30
0.0
 10
4621.329965397495
 20
13432.94404519629
 30
0.0
 10
4621.019516416544
 20
13432.71443159179
 30
0.0
 10
4620.804582359235
 20
13432.57176719541
 30
0.0
 10
4620.504775643579
 20
13432.30375106815
 30
0.0
 10
4620.281127091422
 20
13432.12247953098
 30
0.0
 10
4619.991265658547
 20
13431.81676960647
 30
0.0
 10
4619.758534108629
 20
13431.60263066296
 30
0.0
 10
4619.474086258514
 20
13431.25195851316
 30
0.0
 10
4619.236276543726
 20
13431.00344844768
 30
0.0
 10
4618.954322630487
 20
13430.60828167613
 30
0.0
 10
4618.718165995866
 20
13430.31872505459
 30
0.0
 10
4618.429775541759
 20
13429.88595956459
 30
0.0
 10
4618.196914434808
 20
13429.55717734593
 30
0.0
 10
4617.905255096762
 20
13429.08217611921
 30
0.0
 10
4602.115504326311
 20
13403.70986210826
 30
0.0
 10
4581.351830574742
 20
13367.1261778788
 30
0.0
 10
4544.224611319076
 20
13304.61399123309
 30
0.0
 10
4515.603317487833
 20
13256.16998711668
 30
0.0
 10
4477.500853408801
 20
13191.6765400042
 30
0.0
 10
4448.35030873512
 20
13142.48484853235
 30
0.0
 10
4410.200715775365
 20
13077.89833332246
 30
0.0
 10
4381.037432398947
 20
13028.67117036574
 30
0.0
 10
4342.929396027003
 20
12964.14918907677
 30
0.0
 10
4313.815494889506
 20
12915.00678218002
 30
0.0
 10
4291.402207211459
 20
12877.08028139926
 30
0.0
 10
4284.697542967454
 20
12865.73502686375
 30
0.0
  0
SPLINE
  5
97
330
1F
100
AcDbEntity
  8
0
  6
Continuous
 62
     7
370
    25
100
AcDbSpline
210
0.0
220
0.0
230
1.0
 70
     8
 71
     3
 72
     9
 73
     5
 74
     0
 42
0.00000001
 43
0.00000001
 40
0.0
 40
0.0
 40
0.0
 40
0.0
 40
0.0779787000102656
 40
1.0
 40
1.0
 40
1.0
 40
1.0
 10
4284.827238438881
 20
12865.51101930576
 30
0.0
 10
4285.162724813317
 20
12865.31216175993
 30
0.0
 10
4289.465007031299
 20
12862.7620096568
 30
0.0
 10
4293.760986308823
 20
12860.22945845043
 30
0.0
 10
4297.721970707014
 20
12857.89439229483
 30
0.0
  0
SPLINE
  5
98
330
1F
100
AcDbEntity
  8
0
  6
Continuous
 62
     7
370
    25
100
AcDbSpline
210
0.0
220
0.0
230
1.0
 70
     8
 71
     3
 72
    37
 73
    33
 74
     0
 42
0.00000001
 43
0.00000001
 40
0.0
 40
0.0
 40
0.0
 40
0.0
 40
0.0058165138029541
 40
0.0579975848086321
 40
0.07999853368752
 40
0.1265403122970435
 40
0.1559369949174772
 40
0.1945294026699643
 40
0.2351173315774908
 40
0.262212903720101
 40
0.3175815008139172
 40
0.3294441270351676
 40
0.3701130765046025
 40
0.3965133906349977
 40
0.4057928373219542
 40
0.4633636374404114
 40
0.5037019425125807
 40
0.5303196391443797
 40
0.5730658224404932
 40
0.5973442121164769
 40
0.618413215844857
 40
0.664201507754726
 40
0.7058270198329288
 40
0.7306113822360736
 40
0.7777288975837161
 40
0.7971138566015349
 40
0.8061209827697027
 40
0.8636444125701839
 40
0.8914918730619001
 40
0.9313118388660963
 40
0.9669705673936324
 40
1.0
 40
1.0
 40
1.0
 40
1.0
 10
4683.38892133531
 20
13416.22845441009
 30
0.0
 10
4683.457167959959
 20
13416.39051893928
 30
0.0
 10
4684.137668262222
 20
13418.00649572436
 30
0.0
 10
4685.020926572125
 20
13420.31026385752
 30
0.0
 10
4686.597182133462
 20
13423.48772396311
 30
0.0
 10
4687.808015030808
 20
13426.20571414468
 30
0.0
 10
4689.413385240533
 20
13429.01378758823
 30
0.0
 10
4690.876356606317
 20
13431.86918454385
 30
0.0
 10
4692.44636258615
 20
13434.23679475789
 30
0.0
 10
4694.226596297795
 20
13437.24144375925
 30
0.0
 10
4695.668682964067
 20
13439.09751393599
 30
0.0
 10
4697.309543639497
 20
13441.49649633403
 30
0.0
 10
4698.561222661897
 20
13442.83081609565
 30
0.0
 10
4699.698738903596
 20
13444.4534465376
 30
0.0
 10
4701.071020476932
 20
13445.95398124742
 30
0.0
 10
4702.753330200737
 20
13448.02431705565
 30
0.0
 10
4704.515894622117
 20
13449.56382765107
 30
0.0
 10
4706.194398771593
 20
13451.28754950938
 30
0.0
 10
4707.51174184959
 20
13452.10277720344
 30
0.0
 10
4708.714232122587
 20
13453.28074011386
 30
0.0
 10
4709.777359071346
 20
13453.93617937541
 30
0.0
 10
4711.24536910762
 20
13455.13834569313
 30
0.0
 10
4712.460268573225
 20
13455.52037311631
 30
0.0
 10
4713.589453393977
 20
13456.38871639301
 30
0.0
 10
4714.207169448567
 20
13456.46426324033
 30
0.0
 10
4714.908521458288
 20
13456.84845962277
 30
0.0
 10
4715.467168732498
 20
13456.83224944652
 30
0.0
 10
4716.028689462435
 20
13457.33263510959
 30
0.0
 10
4716.467108668371
 20
13457.06430506118
 30
0.0
 10
4716.732685775171
 20
13457.42964806183
 30
0.0
 10
4716.813576372738
 20
13457.12481650534
 30
0.0
 10
4716.826392450236
 20
13457.25472224193
 30
0.0
 10
4716.832555197368
 20
13457.31718879659
 30
0.0
  0
SPLINE
  5
99
330
1F
100
AcDbEntity
  8
0
  6
Continuous
 62
     7
370
    25
100
AcDbSpline
210
0.0
220
0.0
230
1.0
 70
     8
 71
     3
 72
     9
 73
     5
 74
     0
 42
0.00000001
 43
0.00000001
 40
0.0
 40
0.0
 40
0.0
 40
0.0
 40
0.307754328142252
 40
1.0
 40
1.0
 40
1.0
 40
1.0
 10
4716.769605063068
 20
13457.24233206616
 30
0.0
 10
4716.761860332599
 20
13457.22966571367
 30
0.0
 10
4716.736695031053
 20
13457.18850836398
 30
0.0
 10
4716.712476734348
 20
13457.25796901849
 30
0.0
 10
4716.695711723274
 20
13457.30605285594
 30
0.0
  0
SPLINE
  5
9A
330
1F
100
AcDbEntity
  8
0
  6
Continuous
 62
     7
370
    25
100
AcDbSpline
210
0.0
220
0.0
230
1.0
 70
     8
 71
     3
 72
     9
 73
     5
 74
     0
 42
0.00000001
 43
0.00000001
 40
0.0
 40
0.0
 40
0.0
 40
0.0
 40
0.9627889263812227
 40
1.0
 40
1.0
 40
1.0
 40
1.0
 10
4716.231440475601
 20
13457.39293378108
 30
0.0
 10
4716.27131836221
 20
13457.4334337352
 30
0.0
 10
4716.312737499381
 20
13457.47549898231
 30
0.0
 10
4716.346737617323
 20
13457.4117375485
 30
0.0
 10
4716.348002798214
 20
13457.40936491709
 30
0.0
  0
SPLINE
  5
9B
330
1F
100
AcDbEntity
  8
0
  6
Continuous
 62
     7
370
    25
100
AcDbSpline
210
0.0
220
0.0
230
1.0
 70
     8
 71
     3
 72
    29
 73
    25
 74
     0
 42
0.00000001
 43
0.00000001
 40
0.0
 40
0.0
 40
0.0
 40
0.0
 40
0.0000871895521311
 40
0.0003845991334623
 40
0.0009914931124313
 40
0.0011022894169455
 40
0.0013385529122073
 40
0.0018109078924098
 40
0.0020617305545721
 40
0.0025147680220472
 40
0.0029981410902632
 40
0.0032149454544715
 40
0.0034706637972207
 40
0.003917521501235
 40
0.0041950925280637
 40
0.0046250668714131
 40
0.005236547072937
 40
0.0053373209613291
 40
0.0056274447703159
 40
0.0060577880186717
 40
0.0061815301524369
 40
0.0067921213183963
 40
0.3280020204283992
 40
1.0
 40
1.0
 40
1.0
 40
1.0
 10
4716.470440406727
 20
13457.18508798634
 30
0.0
 10
4716.478712269365
 20
13457.16445643776
 30
0.0
 10
4716.515200026502
 20
13457.07344925267
 30
0.0
 10
4716.933532259706
 20
13457.06942045685
 30
0.0
 10
4717.101740123403
 20
13456.32862512484
 30
0.0
 10
4717.603804060611
 20
13456.01936764517
 30
0.0
 10
4717.983093547648
 20
13455.27675097042
 30
0.0
 10
4718.450967926297
 20
13454.86558029326
 30
0.0
 10
4718.90697171632
 20
13453.53504876335
 30
0.0
 10
4719.709649757102
 20
13452.54101050185
 30
0.0
 10
4720.265702336448
 20
13450.73677194048
 30
0.0
 10
4720.780644812818
 20
13449.61692844487
 30
0.0
 10
4721.124303383873
 20
13448.00088672619
 30
0.0
 10
4721.756935917097
 20
13446.61054002738
 30
0.0
 10
4722.200898603192
 20
13444.27667120557
 30
0.0
 10
4722.818323847733
 20
13442.03448341378
 30
0.0
 10
4723.077628797366
 20
13439.37449655621
 30
0.0
 10
4723.398220219639
 20
13437.3428329656
 30
0.0
 10
4723.450548511345
 20
13435.33203598143
 30
0.0
 10
4723.757331034241
 20
13433.52411174493
 30
0.0
 10
4723.801521315469
 20
13430.5446521689
 30
0.0
 10
4747.411823195082
 20
12633.69780601658
 30
0.0
 10
4655.364377648334
 20
9840.974160296333
 30
0.0
 10
4645.632181604349
 20
7216.012775685394
 30
0.0
 10
4639.047441170117
 20
5439.981005525116
 30
0.0
  0
SPLINE
  5
9C
330
1F
100
AcDbEntity
  8
0
  6
Continuous
 62
     7
370
    25
100
AcDbSpline
210
0.0
220
0.0
230
1.0
 70
     8
 71
     3
 72
    68
 73
    64
 74
     0
 42
0.00000001
 43
0.00000001
 40
0.0
 40
0.0
 40
0.0
 40
0.0
 40
0.6389925975994001
 40
0.966907023201481
 40
0.9677608716287319
 40
0.9679641985518805
 40
0.9687243947651211
 40
0.9690286483051342
 40
0.9691403478886714
 40
0.9700963344189135
 40
0.9707008288893467
 40
0.9711712198191118
 40
0.9719736099548144
 40
0.9722573777543644
 40
0.9725000162288522
 40
0.9733590213619945
 40
0.9741753625326758
 40
0.9744813688078583
 40
0.9750499557244396
 40
0.9756296984810865
 40
0.9759050932693613
 40
0.9768075407572948
 40
0.977379056002772
 40
0.9780162648971902
 40
0.9787085772646993
 40
0.9792483296363259
 40
0.9799486118910445
 40
0.9804854805016193
 40
0.9811558846114999
 40
0.9817221546714786
 40
0.9823635476697465
 40
0.9829507050666523
 40
0.9836066183646195
 40
0.984161932129243
 40
0.9849344768285139
 40
0.9853543011343963
 40
0.9864132274744544
 40
0.9865256853907235
 40
0.9867770505538169
 40
0.9876790399827386
 40
0.9881444755369334
 40
0.9888164333347655
 40
0.9895617264730903
 40
0.9899425319352005
 40
0.9903585138915842
 40
0.9910515953414086
 40
0.9914732049756027
 40
0.9921392890417722
 40
0.993069481534048
 40
0.9932087427309999
 40
0.9935797001528228
 40
0.9942645984901337
 40
0.9944580417695164
 40
0.9953112775969021
 40
0.9957305249273711
 40
0.9963514071758783
 40
0.9969419954075226
 40
0.9973881084828494
 40
0.9980996555195814
 40
0.998425018399485
 40
0.9992211125254765
 40
0.9994641782758453
 40
1.0
 40
1.0
 40
1.0
 40
1.0
 10
4698.655466992273
 20
5439.347742197278
 30
0.0
 10
4707.105619477644
 20
7202.387621649837
 30
0.0
 10
4719.892171021314
 20
9870.17383393345
 30
0.0
 10
4803.115522552825
 20
12516.11743950723
 30
0.0
 10
4783.40126033761
 20
13432.04567074227
 30
0.0
 10
4783.341450691136
 20
13437.09182812736
 30
0.0
 10
4782.931695284254
 20
13440.50177214011
 30
0.0
 10
4782.741908337688
 20
13443.75586425705
 30
0.0
 10
4782.14647475201
 20
13447.39447930028
 30
0.0
 10
4781.663435422727
 20
13451.90612210494
 30
0.0
 10
4780.383784541881
 20
13457.05591264464
 30
0.0
 10
4779.43764228087
 20
13461.90969279663
 30
0.0
 10
4778.193552460941
 20
13465.64351629891
 30
0.0
 10
4777.232052726798
 20
13468.95830976327
 30
0.0
 10
4775.854429985146
 20
13472.1577978468
 30
0.0
 10
4774.223068816002
 20
13476.75966615685
 30
0.0
 10
4771.949926686227
 20
13481.04416853257
 30
0.0
 10
4770.019222337221
 20
13484.82098761041
 30
0.0
 10
4767.93241435647
 20
13487.69121279969
 30
0.0
 10
4766.170140859921
 20
13490.74071165481
 30
0.0
 10
4763.504397192742
 20
13494.01580356055
 30
0.0
 10
4760.796614539601
 20
13497.38208799527
 30
0.0
 10
4757.116642904557
 20
13500.85269368367
 30
0.0
 10
4753.70810445859
 20
13503.99761430744
 30
0.0
 10
4750.004836768794
 20
13506.55086348744
 30
0.0
 10
4746.114631742094
 20
13509.20148414316
 30
0.0
 10
4742.256051664976
 20
13511.07016850169
 30
0.0
 10
4738.075478249451
 20
13513.06342558789
 30
0.0
 10
4733.977087708162
 20
13514.32311587779
 30
0.0
 10
4729.626439804636
 20
13515.63186920104
 30
0.0
 10
4725.308930394045
 20
13516.25988453762
 30
0.0
 10
4720.805406459343
 20
13516.89138446663
 30
0.0
 10
4716.427251462076
 20
13516.87247682517
 30
0.0
 10
4711.676454731427
 20
13516.80758205456
 30
0.0
 10
4707.432407723652
 20
13516.16834509157
 30
0.0
 10
4702.115718377047
 20
13515.29792458712
 30
0.0
 10
4698.373019645735
 20
13514.12916228664
 30
0.0
 10
4695.087529712138
 20
13513.13482247213
 30
0.0
 10
4692.267708747711
 20
13511.81945462629
 30
0.0
 10
4688.544126210602
 20
13510.54296329223
 30
0.0
 10
4684.064072308135
 20
13508.08505321285
 30
0.0
 10
4680.000334766903
 20
13505.92868857335
 30
0.0
 10
4676.333511607288
 20
13503.22991014154
 30
0.0
 10
4673.061876349062
 20
13501.15833549739
 30
0.0
 10
4670.105019948957
 20
13498.67790087058
 30
0.0
 10
4667.042825343588
 20
13496.30140681987
 30
0.0
 10
4663.739146229818
 20
13492.99429714665
 30
0.0
 10
4659.829086881138
 20
13489.471985304
 30
0.0
 10
4656.796514579104
 20
13485.8654201878
 30
0.0
 10
4654.157149637894
 20
13483.05123138988
 30
0.0
 10
4652.157825579216
 20
13480.40588867498
 30
0.0
 10
4649.965634738216
 20
13477.85422422728
 30
0.0
 10
4647.237873660114
 20
13473.85411380177
 30
0.0
 10
4644.787108783254
 20
13470.61287884191
 30
0.0
 10
4642.024681090496
 20
13465.97126166368
 30
0.0
 10
4639.4841473003
 20
13462.11648352391
 30
0.0
 10
4637.27278164672
 20
13457.82950768686
 30
0.0
 10
4634.7587926227
 20
13453.46204915914
 30
0.0
 10
4632.976937520483
 20
13449.46952353912
 30
0.0
 10
4630.565303569597
 20
13444.68092853935
 30
0.0
 10
4629.114546190596
 20
13440.88531710356
 30
0.0
 10
4627.245698057265
 20
13436.62403387681
 30
0.0
 10
4626.484407519234
 20
13434.42916104858
 30
0.0
 10
4625.960691293189
 20
13432.91923749532
 30
0.0
  0
SPLINE
  5
9D
330
1F
100
AcDbEntity
  8
0
  6
Continuous
 62
     7
370
    25
100
AcDbSpline
210
0.0
220
0.0
230
1.0
 70
     8
 71
     3
 72
    18
 73
    14
 74
     0
 42
0.00000001
 43
0.00000001
 40
0.0
 40
0.0
 40
0.0
 40
0.0
 40
0.0273311718331103
 40
0.122547837919454
 40
0.2099301140867049
 40
0.2993267637040642
 40
0.394153528066863
 40
0.4823926911023668
 40
0.5743330087063631
 40
0.6950519318021746
 40
0.8157918088185392
 40
0.9365344003149273
 40
1.0
 40
1.0
 40
1.0
 40
1.0
 10
4756.446293272131
 20
4940.313357625297
 30
0.0
 10
4757.486659336126
 20
4941.180736932243
 30
0.0
 10
4762.151465242213
 20
4945.069902730602
 30
0.0
 10
4769.571022409746
 20
4953.608157499894
 30
0.0
 10
4778.716317128466
 20
4965.624612547981
 30
0.0
 10
4787.044389039589
 20
4978.943359651533
 30
0.0
 10
4794.973957918767
 20
4993.483735326417
 30
0.0
 10
4801.012275261189
 20
5008.613780180177
 30
0.0
 10
4811.418860722604
 20
5028.121425398446
 30
0.0
 10
4798.442155140294
 20
5040.955540602423
 30
0.0
 10
4792.955076468431
 20
5058.518441838242
 30
0.0
 10
4786.717318693006
 20
5073.006858706665
 30
0.0
 10
4783.51084740099
 20
5082.212955386274
 30
0.0
 10
4782.406115726923
 20
5085.384749445933
 30
0.0
  0
LINE
  5
9E
330
1F
100
AcDbEntity
  8
0
  6
Continuous
 62
     7
370
    25
100
AcDbLine
 10
4782.0897581325
 20
5086.2700913364
 30
0.0
 11
4780.9900001292
 21
5089.3478168184
 31
0.0
  0
SPLINE
  5
9F
330
1F
100
AcDbEntity
  8
0
  6
Continuous
 62
     7
370
    25
100
AcDbSpline
210
0.0
220
0.0
230
1.0
 70
     8
 71
     3
 72
    10
 73
     6
 74
     0
 42
0.00000001
 43
0.00000001
 40
0.0
 40
0.0
 40
0.0
 40
0.0
 40
0.143205671290506
 40
0.7853301526822366
 40
1.0
 40
1.0
 40
1.0
 40
1.0
 10
4780.790490243486
 20
5089.906154795579
 30
0.0
 10
4780.310234055328
 20
5091.241711169139
 30
0.0
 10
4777.676541812739
 20
5098.565811404222
 30
0.0
 10
4774.561598088027
 20
5108.196346053394
 30
0.0
 10
4772.091192584985
 20
5116.66159167272
 30
0.0
 10
4771.472232404717
 20
5118.782559241849
 30
0.0
  0
LINE
  5
A0
330
1F
100
AcDbEntity
  8
0
  6
Continuous
 62
     7
370
    25
100
AcDbLine
 10
4771.4299329363
 20
5118.9262354481
 30
0.0
 11
4769.8857952728
 21
5124.1711203043
 31
0.0
  0
SPLINE
  5
A1
330
1F
100
AcDbEntity
  8
0
  6
Continuous
 62
     7
370
    25
100
AcDbSpline
210
0.0
220
0.0
230
1.0
 70
     8
 71
     3
 72
    10
 73
     6
 74
     0
 42
0.00000001
 43
0.00000001
 40
0.0
 40
0.0
 40
0.0
 40
0.0
 40
0.2052781842955294
 40
0.7481824152013178
 40
1.0
 40
1.0
 40
1.0
 40
1.0
 10
4769.865124602092
 20
5124.241331199475
 30
0.0
 10
4769.155293087319
 20
5126.628634154395
 30
0.0
 10
4766.568152817485
 20
5135.329695578717
 30
0.0
 10
4763.390076419237
 20
5147.273427157006
 30
0.0
 10
4761.082934389317
 20
5156.974425750631
 30
0.0
 10
4760.351887471664
 20
5160.048308948133
 30
0.0
  0
SPLINE
  5
A2
330
1F
100
AcDbEntity
  8
0
  6
Continuous
 62
     7
370
    25
100
AcDbSpline
210
0.0
220
0.0
230
1.0
 70
     8
 71
     3
 72
    10
 73
     6
 74
     0
 42
0.00000001
 43
0.00000001
 40
0.0
 40
0.0
 40
0.0
 40
0.0
 40
0.3242518852844842
 40
0.9298015391457116
 40
1.0
 40
1.0
 40
1.0
 40
1.0
 10
4760.347690613617
 20
5160.065741190504
 30
0.0
 10
4759.487172628213
 20
5163.598903213325
 30
0.0
 10
4757.019612735419
 20
5173.73034619318
 30
0.0
 10
4754.577076906294
 20
5184.839906727459
 30
0.0
 10
4753.09165427833
 20
5192.487461609268
 30
0.0
 10
4752.937344736163
 20
5193.281909378061
 30
0.0
  0
LINE
  5
A3
330
1F
100
AcDbEntity
  8
0
  6
Continuous
 62
     7
370
    25
100
AcDbLine
 10
4752.8402722654
 20
5193.7794450754
 30
0.0
 11
4752.4682700266
 21
5195.6861070959
 31
0.0
  0
SPLINE
  5
A4
330
1F
100
AcDbEntity
  8
0
  6
Continuous
 62
     7
370
    25
100
AcDbSpline
210
0.0
220
0.0
230
1.0
 70
     8
 71
     3
 72
     9
 73
     5
 74
     0
 42
0.00000001
 43
0.00000001
 40
0.0
 40
0.0
 40
0.0
 40
0.0
 40
0.4280082610564291
 40
1.0
 40
1.0
 40
1.0
 40
1.0
 10
4752.284141286214
 20
5196.629841406303
 30
0.0
 10
4751.301984611781
 20
5201.553941509856
 30
0.0
 10
4749.007270318163
 20
5213.058626235795
 30
0.0
 10
4747.012710083685
 20
5224.823846652845
 30
0.0
 10
4745.871838106739
 20
5231.553455538247
 30
0.0
  0
SPLINE
  5
A5
330
1F
100
AcDbEntity
  8
0
  6
Continuous
 62
     7
370
    25
100
AcDbSpline
210
0.0
220
0.0
230
1.0
 70
     8
 71
     3
 72
    10
 73
     6
 74
     0
 42
0.00000001
 43
0.00000001
 40
0.0
 40
0.0
 40
0.0
 40
0.0
 40
0.0011461261987224
 40
0.5977837496940341
 40
1.0
 40
1.0
 40
1.0
 40
1.0
 10
4745.748409177544
 20
5232.258224600661
 30
0.0
 10
4745.746069844065
 20
5232.271580831356
 30
0.0
 10
4744.525946317764
 20
5239.237775021266
 30
0.0
 10
4742.730784583978
 20
5251.086473509673
 30
0.0
 10
4741.061627009619
 20
5263.027440955201
 30
0.0
 10
4740.389494360051
 20
5267.835803095989
 30
0.0
  0
LINE
  5
A6
330
1F
100
AcDbEntity
  8
0
  6
Continuous
 62
     7
370
    25
100
AcDbLine
 10
4740.2762243913
 20
5268.6371722783
 30
0.0
 11
4739.9194273789
 21
5271.1614612242
 31
0.0
  0
SPLINE
  5
A7
330
1F
100
AcDbEntity
  8
0
  6
Continuous
 62
     7
370
    25
100
AcDbSpline
210
0.0
220
0.0
230
1.0
 70
     8
 71
     3
 72
    11
 73
     7
 74
     0
 42
0.00000001
 43
0.00000001
 40
0.0
 40
0.0
 40
0.0
 40
0.0
 40
0.0873992804365253
 40
0.2874205637848469
 40
0.9542617468011986
 40
1.0
 40
1.0
 40
1.0
 40
1.0
 10
4739.845691427062
 20
5271.683132767814
 30
0.0
 10
4739.697491278018
 20
5272.719021316386
 30
0.0
 10
4739.210121471557
 20
5276.125635983715
 30
0.0
 10
4737.76602545384
 20
5287.562751761363
 30
0.0
 10
4736.362056187147
 20
5298.48075284806
 30
0.0
 10
4735.43955256842
 20
5307.137037183943
 30
0.0
 10
4735.380339936192
 20
5307.692657097447
 30
0.0
  0
LINE
  5
A8
330
1F
100
AcDbEntity
  8
0
  6
Continuous
 62
     7
370
    25
100
AcDbLine
 10
4735.3462649572
 20
5308.0110119961
 30
0.0
 11
4735.2698821915
 21
5308.7246390724
 31
0.0
  0
LWPOLYLINE
  5
A9
330
1F
100
AcDbEntity
  8
0
  6
Continuous
 62
   144
370
    18
100
AcDbPolyline
 90
      126
 70
   128
 43
0.0
 10
4480.7703724224
 20
3981.3879162823
 10
4483.6170946285
 20
3980.5003415597
 10
4486.5363898427
 20
3979.6489398446
 10
4489.5183563761
 20
3978.8415184542
 10
4492.5509123034
 20
3978.0720559933
 10
4495.6461546342
 20
3977.3465808416
 10
4498.7980127937
 20
3976.6620681648
 10
4501.9985513678
 20
3976.0209342763
 10
4505.2496796325
 20
3975.4177592277
 10
4508.5574249127
 20
3974.8555462961
 10
4511.9138494207
 20
3974.3367125106
 10
4515.3208659929
 20
3973.8558368493
 10
4518.7765473763
 20
3973.4183331484
 10
4522.2688004185
 20
3973.0181718649
 10
4525.8176837059
 20
3972.6589802421
 10
4529.3951876347
 20
3972.3395405222
 10
4533.0232668374
 20
3972.0580524565
 10
4536.6939750437
 20
3971.8169240989
 10
4540.399339699
 20
3971.6185598965
 10
4544.1492461941
 20
3971.4551343802
 10
4547.9277541668
 20
3971.3314550127
 10
4551.7488887696
 20
3971.2481360691
 10
4555.6066094477
 20
3971.2021667287
 10
4559.4868813792
 20
3971.192924099
 10
4563.4097799407
 20
3971.2240418932
 10
4567.3552441721
 20
3971.2918935838
 10
4571.3353695996
 20
3971.4025079981
 10
4575.3399711596
 20
3971.5444360026
 10
4579.3731789444
 20
3971.7261087244
 10
4583.4289571461
 20
3971.944513911
 10
4587.5133512421
 20
3972.2026724321
 10
4591.6142560367
 20
3972.4945468433
 10
4595.743771803
 20
3972.82616454
 10
4599.8898126845
 20
3973.1915053124
 10
4604.0584144889
 20
3973.593581413
 10
4608.2416068597
 20
3974.0347850924
 10
4612.4413290926
 20
3974.509710416
 10
4616.6495918431
 20
3975.020755361
 10
4620.8804394272
 20
3975.5685399565
 10
4625.1198226062
 20
3976.1524341244
 10
4629.3757333618
 20
3976.7700563927
 10
4633.6341463658
 20
3977.4207810054
 10
4637.9071548588
 20
3978.1106432461
 10
4642.1826895109
 20
3978.8336121537
 10
4646.4667551866
 20
3979.5927035461
 10
4650.7533398131
 20
3980.3848980126
 10
4655.0424244025
 20
3981.2102012798
 10
4659.3400590034
 20
3982.0716213051
 10
4663.6322448354
 20
3982.9685531605
 10
4667.9288650036
 20
3983.8931778329
 10
4672.2180948212
 20
3984.8587267261
 10
4676.5117517667
 20
3985.8519648435
 10
4680.799952735
 20
3986.8807111981
 10
4685.0766404691
 20
3987.9419542395
 10
4689.3478889282
 20
3989.0387062477
 10
4693.6155823789
 20
3990.1655490502
 10
4697.8717792976
 20
3991.3248892691
 10
4702.108507042
 20
3992.5191256114
 10
4706.3416964802
 20
3993.7434534775
 10
4710.5633726843
 20
3995.0002780305
 10
4714.767497385
 20
3996.2865819936
 10
4718.9521696137
 20
3997.6077828095
 10
4723.1332940423
 20
3998.9590780127
 10
4727.2889015335
 20
4000.3422549255
 10
4731.4189956916
 20
4001.7573153446
 10
4735.5315324566
 20
4003.2018598334
 10
4739.6185617782
 20
4004.6782831687
 10
4743.6880395966
 20
4006.1841859141
 10
4747.7259504289
 20
4007.7189624118
 10
4751.7383538179
 20
4009.2856177559
 10
4755.7252343798
 20
4010.8841594696
 10
4759.6885269714
 20
4012.5091642146
 10
4763.6183313019
 20
4014.1684576289
 10
4767.510536267
 20
4015.8536028589
 10
4771.377216603
 20
4017.5706335603
 10
4775.2062889808
 20
4019.3135193897
 10
4779.0098557173
 20
4021.0882849639
 10
4782.7678395676
 20
4022.8913108293
 10
4786.4882247285
 20
4024.7201888473
 10
4790.1509332791
 20
4026.5712992276
 10
4793.7337155567
 20
4028.4271642338
 10
4797.2285873647
 20
4030.2901920046
 10
4800.6495799869
 20
4032.1609884781
 10
4803.9906375179
 20
4034.0365427778
 10
4807.2457008987
 20
4035.913842455
 10
4810.4268873464
 20
4037.7989119577
 10
4813.5141151107
 20
4039.6881295869
 10
4816.529383613
 20
4041.5797003282
 10
4819.464706629
 20
4043.4760313099
 10
4822.3140553838
 20
4045.3741023916
 10
4825.0774144935
 20
4047.2739210965
 10
4827.7627552819
 20
4049.1730804652
 10
4830.3681695721
 20
4051.0769943475
 10
4832.8895118882
 20
4052.9772391397
 10
4835.3309182121
 20
4054.8822413088
 10
4837.6802966219
 20
4056.7859738243
 10
4839.9535684916
 20
4058.6836349499
 10
4842.1408624958
 20
4060.5830343792
 10
4844.2440940199
 20
4062.4787618551
 10
4846.269301333
 20
4064.3738346544
 10
4848.2184115999
 20
4066.2628332005
 10
4850.0694389814
 20
4068.1475440865
 10
4851.8424588541
 20
4070.0316010255
 10
4853.5333172154
 20
4071.9065685682
 10
4855.1401225905
 20
4073.7778612942
 10
4856.6628559916
 20
4075.64548493
 10
4858.0954863577
 20
4077.5064257917
 10
4859.4539301405
 20
4079.3558720941
 10
4860.7142815438
 20
4081.2010335996
 10
4861.9004607803
 20
4083.0347077316
 10
4863.0025775367
 20
4084.8647099101
 10
4864.0165017209
 20
4086.6826090084
 10
4864.948271602
 20
4088.4914223032
 10
4865.7918584048
 20
4090.2881296544
 10
4866.5532814106
 20
4092.0757540655
 10
4867.2265213382
 20
4093.851272533
 10
4867.8176069627
 20
4095.6177051971
 10
4868.314452252
 20
4097.3690203673
 10
4868.7371158805
 20
4099.1088510272
 10
4869.0655319654
 20
4100.8335606004
 10
4869.3137281206
 20
4102.5437683865
 10
4869.4737150012
 20
4104.2418723627
 10
4869.5474413973
 20
4105.9224637311
 10
4869.5329680129
 20
4107.5909484263
 10
4869.4322102333
 20
4109.2419161912
 10
4869.3635324638
 20
4109.8416980797
  0
LWPOLYLINE
  5
AA
330
1F
100
AcDbEntity
  8
0
  6
Continuous
 62
   144
370
    18
100
AcDbPolyline
 90
       36
 70
   128
 43
0.0
 10
4437.0707561505
 20
4027.6991261074
 10
4437.0408927068
 20
4027.4862289615
 10
4436.8809058261
 20
4025.7881249853
 10
4436.8071794301
 20
4024.1075336169
 10
4436.8216528145
 20
4022.4390489217
 10
4436.91444516
 20
4020.7904834565
 10
4437.1014681712
 20
4019.1570268678
 10
4437.3747852471
 20
4017.5410958268
 10
4437.7283222528
 20
4015.9396665729
 10
4438.1821448956
 20
4014.3563642019
 10
4438.7123712897
 20
4012.7984027988
 10
4439.3368283495
 20
4011.2555502721
 10
4440.0475794741
 20
4009.730223293
 10
4440.8426853675
 20
4008.2278277964
 10
4441.7221363603
 20
4006.7483551647
 10
4442.6958373578
 20
4005.2840086442
 10
4443.7519921556
 20
4003.848011049
 10
4444.9004624092
 20
4002.4325440681
 10
4446.1412528658
 20
4001.0376062697
 10
4447.4584326573
 20
3999.6680022535
 10
4448.8740067866
 20
3998.3219511804
 10
4450.3799714925
 20
3997.0018438421
 10
4451.9623302803
 20
3995.7070688541
 10
4453.6430642424
 20
3994.4358410553
 10
4455.4062425107
 20
3993.1929650449
 10
4457.2738388814
 20
3991.9766463285
 10
4459.217824587
 20
3990.7856613942
 10
4461.2502975271
 20
3989.6260383532
 10
4463.3811456414
 20
3988.4899625014
 10
4465.5864750014
 20
3987.3846400219
 10
4467.8942975846
 20
3986.3112879568
 10
4470.2925443246
 20
3985.2638925663
 10
4472.7792638825
 20
3984.2478518834
 10
4475.3544700814
 20
3983.2631732728
 10
4478.0181779314
 20
3982.3098637414
 10
4480.7703724224
 20
3981.3879162823
  0
LWPOLYLINE
  5
AB
330
1F
100
AcDbEntity
  8
0
  6
Continuous
 62
   144
370
    18
100
AcDbPolyline
 90
       37
 70
   128
 43
0.0
 10
4483.6170946285
 20
3980.5003415597
 10
4480.7703724224
 20
3981.3879162823
 10
4478.0181779314
 20
3982.3098637414
 10
4475.3544700814
 20
3983.2631732728
 10
4472.7792638825
 20
3984.2478518834
 10
4470.2925443246
 20
3985.2638925663
 10
4467.8942975846
 20
3986.3112879568
 10
4465.5864750014
 20
3987.3846400219
 10
4463.3811456414
 20
3988.4899625014
 10
4461.2502975271
 20
3989.6260383532
 10
4459.217824587
 20
3990.7856613942
 10
4457.2738388814
 20
3991.9766463285
 10
4455.4062425107
 20
3993.1929650449
 10
4453.6430642424
 20
3994.4358410553
 10
4451.9623302803
 20
3995.7070688541
 10
4450.3799714925
 20
3997.0018438421
 10
4448.8740067866
 20
3998.3219511804
 10
4447.4584326573
 20
3999.6680022535
 10
4446.1412528658
 20
4001.0376062697
 10
4444.9004624092
 20
4002.4325440681
 10
4443.7519921556
 20
4003.848011049
 10
4442.6958373578
 20
4005.2840086442
 10
4441.7221363603
 20
4006.7483551647
 10
4440.8426853675
 20
4008.2278277964
 10
4440.0475794741
 20
4009.730223293
 10
4439.3368283495
 20
4011.2555502721
 10
4438.7123712897
 20
4012.7984027988
 10
4438.1821448956
 20
4014.3563642019
 10
4437.7283222528
 20
4015.9396665729
 10
4437.3747852471
 20
4017.5410958268
 10
4437.1014681712
 20
4019.1570268678
 10
4436.91444516
 20
4020.7904834565
 10
4436.8216528145
 20
4022.4390489217
 10
4436.8071794301
 20
4024.1075336169
 10
4436.8809058261
 20
4025.7881249853
 10
4437.0408927068
 20
4027.4862289615
 10
4437.0707519832
 20
4027.6990963982
  0
LWPOLYLINE
  5
AC
330
1F
100
AcDbEntity
  8
0
  6
Continuous
 62
   144
370
    18
100
AcDbPolyline
 90
      125
 70
   128
 43
0.0
 10
4869.3635358766
 20
4109.8416682744
 10
4869.4322102333
 20
4109.2419161912
 10
4869.5329680129
 20
4107.5909484263
 10
4869.5474413973
 20
4105.9224637311
 10
4869.4737150012
 20
4104.2418723627
 10
4869.3137281206
 20
4102.5437683865
 10
4869.0655319654
 20
4100.8335606004
 10
4868.7371158805
 20
4099.1088510272
 10
4868.314452252
 20
4097.3690203673
 10
4867.8176069627
 20
4095.6177051971
 10
4867.2265213382
 20
4093.851272533
 10
4866.5532814106
 20
4092.0757540655
 10
4865.7918584048
 20
4090.2881296544
 10
4864.948271602
 20
4088.4914223032
 10
4864.0165017209
 20
4086.6826090084
 10
4863.0025775367
 20
4084.8647099101
 10
4861.9004607803
 20
4083.0347077316
 10
4860.7142815438
 20
4081.2010335996
 10
4859.4539301405
 20
4079.3558720941
 10
4858.0954863577
 20
4077.5064257917
 10
4856.6628559916
 20
4075.64548493
 10
4855.1401225905
 20
4073.7778612942
 10
4853.5333172154
 20
4071.9065685682
 10
4851.8424588541
 20
4070.0316010255
 10
4850.0694389814
 20
4068.1475440865
 10
4848.2184115999
 20
4066.2628332005
 10
4846.269301333
 20
4064.3738346544
 10
4844.2440940199
 20
4062.4787618551
 10
4842.1408624958
 20
4060.5830343792
 10
4839.9535684916
 20
4058.6836349499
 10
4837.6802966219
 20
4056.7859738243
 10
4835.3309182121
 20
4054.8822413088
 10
4832.8895118882
 20
4052.9772391397
 10
4830.3681695721
 20
4051.0769943475
 10
4827.7627552819
 20
4049.1730804652
 10
4825.0774144935
 20
4047.2739210965
 10
4822.3140553838
 20
4045.3741023916
 10
4819.464706629
 20
4043.4760313099
 10
4816.529383613
 20
4041.5797003282
 10
4813.5141151107
 20
4039.6881295869
 10
4810.4268873464
 20
4037.7989119577
 10
4807.2457008987
 20
4035.913842455
 10
4803.9906375179
 20
4034.0365427778
 10
4800.6495799869
 20
4032.1609884781
 10
4797.2285873647
 20
4030.2901920046
 10
4793.7337155567
 20
4028.4271642338
 10
4790.1509332791
 20
4026.5712992276
 10
4786.4882247285
 20
4024.7201888473
 10
4782.7678395676
 20
4022.8913108293
 10
4779.0098557173
 20
4021.0882849639
 10
4775.2062889808
 20
4019.3135193897
 10
4771.377216603
 20
4017.5706335603
 10
4767.510536267
 20
4015.8536028589
 10
4763.6183313019
 20
4014.1684576289
 10
4759.6885269714
 20
4012.5091642146
 10
4755.7252343798
 20
4010.8841594696
 10
4751.7383538179
 20
4009.2856177559
 10
4747.7259504289
 20
4007.7189624118
 10
4743.6880395966
 20
4006.1841859141
 10
4739.6185617782
 20
4004.6782831687
 10
4735.5315324566
 20
4003.2018598334
 10
4731.4189956916
 20
4001.7573153446
 10
4727.2889015335
 20
4000.3422549255
 10
4723.1332940423
 20
3998.9590780127
 10
4718.9521696137
 20
3997.6077828095
 10
4714.767497385
 20
3996.2865819936
 10
4710.5633726843
 20
3995.0002780305
 10
4706.3416964802
 20
3993.7434534775
 10
4702.108507042
 20
3992.5191256114
 10
4697.8717792976
 20
3991.3248892691
 10
4693.6155823789
 20
3990.1655490502
 10
4689.3478889282
 20
3989.0387062477
 10
4685.0766404691
 20
3987.9419542395
 10
4680.799952735
 20
3986.8807111981
 10
4676.5117517667
 20
3985.8519648435
 10
4672.2180948212
 20
3984.8587267261
 10
4667.9288650036
 20
3983.8931778329
 10
4663.6322448354
 20
3982.9685531605
 10
4659.3400590034
 20
3982.0716213051
 10
4655.0424244025
 20
3981.2102012798
 10
4650.7533398131
 20
3980.3848980126
 10
4646.4667551866
 20
3979.5927035461
 10
4642.1826895109
 20
3978.8336121537
 10
4637.9071548588
 20
3978.1106432461
 10
4633.6341463658
 20
3977.4207810054
 10
4629.3757333618
 20
3976.7700563927
 10
4625.1198226062
 20
3976.1524341244
 10
4620.8804394272
 20
3975.5685399565
 10
4616.6495918431
 20
3975.020755361
 10
4612.4413290926
 20
3974.509710416
 10
4608.2416068597
 20
3974.0347850924
 10
4604.0584144889
 20
3973.593581413
 10
4599.8898126845
 20
3973.1915053124
 10
4595.743771803
 20
3972.82616454
 10
4591.6142560367
 20
3972.4945468433
 10
4587.5133512421
 20
3972.2026724321
 10
4583.4289571461
 20
3971.944513911
 10
4579.3731789444
 20
3971.7261087244
 10
4575.3399711596
 20
3971.5444360026
 10
4571.3353695996
 20
3971.4025079981
 10
4567.3552441721
 20
3971.2918935838
 10
4563.4097799407
 20
3971.2240418932
 10
4559.4868813792
 20
3971.192924099
 10
4555.6066094477
 20
3971.2021667287
 10
4551.7488887696
 20
3971.2481360691
 10
4547.9277541668
 20
3971.3314550127
 10
4544.1492461941
 20
3971.4551343802
 10
4540.399339699
 20
3971.6185598965
 10
4536.6939750437
 20
3971.8169240989
 10
4533.0232668374
 20
3972.0580524565
 10
4529.3951876347
 20
3972.3395405222
 10
4525.8176837059
 20
3972.6589802421
 10
4522.2688004185
 20
3973.0181718649
 10
4518.7765473763
 20
3973.4183331484
 10
4515.3208659929
 20
3973.8558368493
 10
4511.9138494207
 20
3974.3367125106
 10
4508.5574249127
 20
3974.8555462961
 10
4505.2496796325
 20
3975.4177592277
 10
4501.9985513678
 20
3976.0209342763
 10
4498.7980127937
 20
3976.6620681648
 10
4495.6461546342
 20
3977.3465808416
 10
4492.5509123034
 20
3978.0720559933
 10
4489.5183563761
 20
3978.8415184542
 10
4486.5363898427
 20
3979.6489398446
 10
4483.6170946285
 20
3980.5003415597
  0
ENDSEC
  0
SECTION
  2
OBJECTS
  0
DICTIONARY
  5
C
330
0
100
AcDbDictionary
281
     1
  3
ACAD_GROUP
350
D
  3
ACAD_LAYOUT
350
1A
  3
ACAD_MLINESTYLE
350
17
  3
ACAD_PLOTSETTINGS
350
19
  3
ACAD_PLOTSTYLENAME
350
E
  3
ACAD_SCALELIST
350
47
  3
DWGPROPS
350
AD
  0
DICTIONARY
  5
D
102
{ACAD_REACTORS
330
C
102
}
330
C
100
AcDbDictionary
281
     1
  0
DICTIONARY
  5
1A
102
{ACAD_REACTORS
330
C
102
}
330
C
100
AcDbDictionary
281
     1
  3
Layout1
350
1E
  3
Layout2
350
26
  3
Model
350
22
  0
DICTIONARY
  5
17
102
{ACAD_REACTORS
330
C
102
}
330
C
100
AcDbDictionary
281
     1
  3
Standard
350
18
  0
DICTIONARY
  5
19
102
{ACAD_REACTORS
330
C
102
}
330
C
100
AcDbDictionary
281
     1
  0
ACDBDICTIONARYWDFLT
  5
E
102
{ACAD_REACTORS
330
C
102
}
330
C
100
AcDbDictionary
281
     1
  3
Normal
350
F
100
AcDbDictionaryWithDefault
340
F
  0
DICTIONARY
  5
47
102
{ACAD_REACTORS
330
C
102
}
330
C
100
AcDbDictionary
281
     1
  3
A0
350
48
  3
A1
350
49
  3
A2
350
4A
  3
A3
350
4B
  3
A4
350
4C
  3
A5
350
4D
  3
A6
350
4E
  3
A7
350
4F
  3
A8
350
50
  3
A9
350
51
  3
B0
350
52
  3
B1
350
53
  3
B2
350
54
  3
B3
350
55
  3
B4
350
56
  3
B5
350
57
  3
B6
350
58
  3
B7
350
59
  3
B8
350
5A
  3
B9
350
5B
  3
C0
350
5C
  3
C1
350
5D
  3
C2
350
5E
  3
C3
350
5F
  3
C4
350
60
  3
C5
350
61
  3
C6
350
62
  3
C7
350
63
  3
C8
350
64
  3
C9
350
65
  3
D0
350
66
  3
D1
350
67
  3
D2
350
68
  0
XRECORD
  5
AD
102
{ACAD_REACTORS
330
C
102
}
330
C
100
AcDbXrecord
280
     1
  1
DWGPROPS COOKIE
  2

  3

  4

  6

  7

  8
9222
  9

300
=
301
=
302
=
303
=
304
=
305
=
306
=
307
=
308
=
309
=
 40
0.0
 41
2459916.292850648
 42
2459916.292850914
  1

 90
        0
  0
LAYOUT
  5
1E
102
{ACAD_REACTORS
330
1A
102
}
330
1A
100
AcDbPlotSettings
  1

  2
none_device
  4

  6

 40
0.0
 41
0.0
 42
0.0
 43
0.0
 44
0.0
 45
0.0
 46
0.0
 47
0.0
 48
0.0
 49
0.0
140
0.0
141
0.0
142
1.0
143
1.0
 70
   688
 72
     1
 73
     0
 74
     5
  7

 75
    16
147
1.0
148
0.0
149
0.0
100
AcDbLayout
  1
Layout1
 70
     1
 71
     1
 10
0.0
 20
0.0
 11
420.0
 21
297.0
 12
0.0
 22
0.0
 32
0.0
 14
1.0000000000E+20
 24
1.0000000000E+20
 34
1.0000000000E+20
 15
-1.0000000000E+20
 25
-1.0000000000E+20
 35
-1.0000000000E+20
146
0.0
 13
0.0
 23
0.0
 33
0.0
 16
1.0
 26
0.0
 36
0.0
 17
0.0
 27
1.0
 37
0.0
 76
     0
330
1B
  0
LAYOUT
  5
26
102
{ACAD_REACTORS
330
1A
102
}
330
1A
100
AcDbPlotSettings
  1

  2
none_device
  4

  6

 40
0.0
 41
0.0
 42
0.0
 43
0.0
 44
0.0
 45
0.0
 46
0.0
 47
0.0
 48
0.0
 49
0.0
140
0.0
141
0.0
142
1.0
143
1.0
 70
   688
 72
     1
 73
     0
 74
     5
  7

 75
    16
147
1.0
148
0.0
149
0.0
100
AcDbLayout
  1
Layout2
 70
     1
 71
     2
 10
0.0
 20
0.0
 11
0.0
 21
0.0
 12
0.0
 22
0.0
 32
0.0
 14
0.0
 24
0.0
 34
0.0
 15
0.0
 25
0.0
 35
0.0
146
0.0
 13
0.0
 23
0.0
 33
0.0
 16
1.0
 26
0.0
 36
0.0
 17
0.0
 27
1.0
 37
0.0
 76
     0
330
23
  0
LAYOUT
  5
22
102
{ACAD_REACTORS
330
1A
102
}
330
1A
100
AcDbPlotSettings
  1

  2
none_device
  4
Letter_(8.50_x_11.00_Inches)
  6

 40
6.35
 41
6.35
 42
6.35000508
 43
6.35000508
 44
215.9
 45
279.4
 46
0.0
 47
0.0
 48
0.0
 49
0.0
140
0.0
141
0.0
142
1.0
143
1.0
 70
  1712
 72
     1
 73
     0
 74
     0
  7

 75
     0
147
1.0
148
0.0
149
0.0
100
AcDbLayout
  1
Model
 70
     1
 71
     0
 10
0.0
 20
0.0
 11
10500.0
 21
14850.0
 12
0.0
 22
0.0
 32
0.0
 14
0.0
 24
0.0
 34
0.0
 15
10500.0
 25
14850.0
 35
0.0
146
0.0
 13
0.0
 23
0.0
 33
0.0
 16
1.0
 26
0.0
 36
0.0
 17
0.0
 27
1.0
 37
0.0
 76
     0
330
1F
331
29
  0
MLINESTYLE
  5
18
102
{ACAD_REACTORS
330
17
102
}
330
17
100
AcDbMlineStyle
  2
Standard
 70
     0
  3

 62
   256
 51
90.0
 52
90.0
 71
     2
 49
0.5
 62
   256
  6
BYLAYER
 49
-0.5
 62
   256
  6
BYLAYER
  0
ACDBPLACEHOLDER
  5
F
102
{ACAD_REACTORS
330
E
102
}
330
E
  0
SCALE
  5
48
102
{ACAD_REACTORS
330
47
102
}
330
47
100
AcDbScale
 70
     0
300
1:1
140
1.0
141
1.0
290
     1
  0
SCALE
  5
49
102
{ACAD_REACTORS
330
47
102
}
330
47
100
AcDbScale
 70
     0
300
1:2
140
1.0
141
2.0
290
     0
  0
SCALE
  5
4A
102
{ACAD_REACTORS
330
47
102
}
330
47
100
AcDbScale
 70
     0
300
1:4
140
1.0
141
4.0
290
     0
  0
SCALE
  5
4B
102
{ACAD_REACTORS
330
47
102
}
330
47
100
AcDbScale
 70
     0
300
1:5
140
1.0
141
5.0
290
     0
  0
SCALE
  5
4C
102
{ACAD_REACTORS
330
47
102
}
330
47
100
AcDbScale
 70
     0
300
1:8
140
1.0
141
8.0
290
     0
  0
SCALE
  5
4D
102
{ACAD_REACTORS
330
47
102
}
330
47
100
AcDbScale
 70
     0
300
1:10
140
1.0
141
10.0
290
     0
  0
SCALE
  5
4E
102
{ACAD_REACTORS
330
47
102
}
330
47
100
AcDbScale
 70
     0
300
1:16
140
1.0
141
16.0
290
     0
  0
SCALE
  5
4F
102
{ACAD_REACTORS
330
47
102
}
330
47
100
AcDbScale
 70
     0
300
1:20
140
1.0
141
20.0
290
     0
  0
SCALE
  5
50
102
{ACAD_REACTORS
330
47
102
}
330
47
100
AcDbScale
 70
     0
300
1:30
140
1.0
141
30.0
290
     0
  0
SCALE
  5
51
102
{ACAD_REACTORS
330
47
102
}
330
47
100
AcDbScale
 70
     0
300
1:40
140
1.0
141
40.0
290
     0
  0
SCALE
  5
52
102
{ACAD_REACTORS
330
47
102
}
330
47
100
AcDbScale
 70
     0
300
1:50
140
1.0
141
50.0
290
     0
  0
SCALE
  5
53
102
{ACAD_REACTORS
330
47
102
}
330
47
100
AcDbScale
 70
     0
300
1:100
140
1.0
141
100.0
290
     0
  0
SCALE
  5
54
102
{ACAD_REACTORS
330
47
102
}
330
47
100
AcDbScale
 70
     0
300
2:1
140
2.0
141
1.0
290
     0
  0
SCALE
  5
55
102
{ACAD_REACTORS
330
47
102
}
330
47
100
AcDbScale
 70
     0
300
4:1
140
4.0
141
1.0
290
     0
  0
SCALE
  5
56
102
{ACAD_REACTORS
330
47
102
}
330
47
100
AcDbScale
 70
     0
300
8:1
140
8.0
141
1.0
290
     0
  0
SCALE
  5
57
102
{ACAD_REACTORS
330
47
102
}
330
47
100
AcDbScale
 70
     0
300
10:1
140
10.0
141
1.0
290
     0
  0
SCALE
  5
58
102
{ACAD_REACTORS
330
47
102
}
330
47
100
AcDbScale
 70
     0
300
100:1
140
100.0
141
1.0
290
     0
  0
SCALE
  5
59
102
{ACAD_REACTORS
330
47
102
}
330
47
100
AcDbScale
 70
     0
300
1/128" = 1'-0"
140
0.0078125
141
12.0
290
     0
  0
SCALE
  5
5A
102
{ACAD_REACTORS
330
47
102
}
330
47
100
AcDbScale
 70
     0
300
1/64" = 1'-0"
140
0.015625
141
12.0
290
     0
  0
SCALE
  5
5B
102
{ACAD_REACTORS
330
47
102
}
330
47
100
AcDbScale
 70
     0
300
1/32" = 1'-0"
140
0.03125
141
12.0
290
     0
  0
SCALE
  5
5C
102
{ACAD_REACTORS
330
47
102
}
330
47
100
AcDbScale
 70
     0
300
1/16" = 1'-0"
140
0.0625
141
12.0
290
     0
  0
SCALE
  5
5D
102
{ACAD_REACTORS
330
47
102
}
330
47
100
AcDbScale
 70
     0
300
3/32" = 1'-0"
140
0.09375
141
12.0
290
     0
  0
SCALE
  5
5E
102
{ACAD_REACTORS
330
47
102
}
330
47
100
AcDbScale
 70
     0
300
1/8" = 1'-0"
140
0.125
141
12.0
290
     0
  0
SCALE
  5
5F
102
{ACAD_REACTORS
330
47
102
}
330
47
100
AcDbScale
 70
     0
300
3/16" = 1'-0"
140
0.1875
141
12.0
290
     0
  0
SCALE
  5
60
102
{ACAD_REACTORS
330
47
102
}
330
47
100
AcDbScale
 70
     0
300
1/4" = 1'-0"
140
0.25
141
12.0
290
     0
  0
SCALE
  5
61
102
{ACAD_REACTORS
330
47
102
}
330
47
100
AcDbScale
 70
     0
300
3/8" = 1'-0"
140
0.375
141
12.0
290
     0
  0
SCALE
  5
62
102
{ACAD_REACTORS
330
47
102
}
330
47
100
AcDbScale
 70
     0
300
1/2" = 1'-0"
140
0.5
141
12.0
290
     0
  0
SCALE
  5
63
102
{ACAD_REACTORS
330
47
102
}
330
47
100
AcDbScale
 70
     0
300
3/4" = 1'-0"
140
0.75
141
12.0
290
     0
  0
SCALE
  5
64
102
{ACAD_REACTORS
330
47
102
}
330
47
100
AcDbScale
 70
     0
300
1" = 1'-0"
140
1.0
141
12.0
290
     0
  0
SCALE
  5
65
102
{ACAD_REACTORS
330
47
102
}
330
47
100
AcDbScale
 70
     0
300
1-1/2" = 1'-0"
140
1.5
141
12.0
290
     0
  0
SCALE
  5
66
102
{ACAD_REACTORS
330
47
102
}
330
47
100
AcDbScale
 70
     0
300
3" = 1'-0"
140
3.0
141
12.0
290
     0
  0
SCALE
  5
67
102
{ACAD_REACTORS
330
47
102
}
330
47
100
AcDbScale
 70
     0
300
6" = 1'-0"
140
6.0
141
12.0
290
     0
  0
SCALE
  5
68
102
{ACAD_REACTORS
330
47
102
}
330
47
100
AcDbScale
 70
     0
300
1'-0" = 1'-0"
140
12.0
141
12.0
290
     0
  0
ENDSEC
  0
EOF
