  0
SECTION
  2
HEADER
  9
$ACADVER
  1
AC1015
  9
$ACADMAINTVER
 70
     6
  9
$DWGCODEPAGE
  3
DOS932
  9
$INSBASE
 10
0.0
 20
0.0
 30
0.0
  9
$EXTMIN
 10
0.0
 20
0.0
 30
0.0
  9
$EXTMAX
 10
105.0
 20
148.5
 30
0.0
  9
$LIMMIN
 10
0.0
 20
0.0
  9
$LIMMAX
 10
105.0
 20
148.5
  9
$ORTHOMODE
 70
     0
  9
$REGENMODE
 70
     1
  9
$FILLMODE
 70
     1
  9
$QTEXTMODE
 70
     0
  9
$MIRRTEXT
 70
     1
  9
$LTSCALE
 40
0.5
  9
$ATTMODE
 70
     1
  9
$TEXTSIZE
 40
1.75
  9
$TRACEWID
 40
1.0
  9
$TEXTSTYLE
  7
Standard
  9
$CLAYER
  8
0
  9
$CELTYPE
  6
ByLayer
  9
$CECOLOR
 62
   256
  9
$CELTSCALE
 40
1.0
  9
$DISPSILH
 70
     0
  9
$DIMSCALE
 40
1.0
  9
$DIMASZ
 40
1.651
  9
$DIMEXO
 40
0.5
  9
$DIMDLI
 40
3.75
  9
$DIMRND
 40
0.0
  9
$DIMDLE
 40
0.0
  9
$DIMEXE
 40
0.5
  9
$DIMTP
 40
0.0
  9
$DIMTM
 40
0.0
  9
$DIMTXT
 40
1.75
  9
$DIMCEN
 40
2.5
  9
$DIMTSZ
 40
0.0
  9
$DIMTOL
 70
     0
  9
$DIMLIM
 70
     0
  9
$DIMTIH
 70
     1
  9
$DIMTOH
 70
     1
  9
$DIMSE1
 70
     0
  9
$DIMSE2
 70
     0
  9
$DIMTAD
 70
     1
  9
$DIMZIN
 70
     1
  9
$DIMBLK
  1

  9
$DIMASO
 70
     1
  9
$DIMSHO
 70
     1
  9
$DIMPOST
  1

  9
$DIMAPOST
  1

  9
$DIMALT
 70
     0
  9
$DIMALTD
 70
     3
  9
$DIMALTF
 40
0.0393700787
  9
$DIMLFAC
 40
1.0
  9
$DIMTOFL
 70
     1
  9
$DIMTVP
 40
0.0
  9
$DIMTIX
 70
     0
  9
$DIMSOXD
 70
     0
  9
$DIMSAH
 70
     0
  9
$DIMBLK1
  1

  9
$DIMBLK2
  1

  9
$DIMSTYLE
  2
ISO-25
  9
$DIMCLRD
 70
     0
  9
$DIMCLRE
 70
     0
  9
$DIMCLRT
 70
     0
  9
$DIMTFAC
 40
1.0
  9
$DIMGAP
 40
0.762
  9
$DIMJUST
 70
     0
  9
$DIMSD1
 70
     0
  9
$DIMSD2
 70
     0
  9
$DIMTOLJ
 70
     0
  9
$DIMTZIN
 70
     1
  9
$DIMALTZ
 70
     0
  9
$DIMALTTZ
 70
     0
  9
$DIMUPT
 70
     0
  9
$DIMDEC
 70
     2
  9
$DIMTDEC
 70
     2
  9
$DIMALTU
 70
     2
  9
$DIMALTTD
 70
     3
  9
$DIMTXSTY
  7
Standard
  9
$DIMAUNIT
 70
     0
  9
$DIMADEC
 70
     2
  9
$DIMALTRND
 40
0.0
  9
$DIMAZIN
 70
     0
  9
$DIMDSEP
 70
    44
  9
$DIMATFIT
 70
     3
  9
$DIMFRAC
 70
     0
  9
$DIMLDRBLK
  1

  9
$DIMLUNIT
 70
     2
  9
$DIMLWD
 70
    -2
  9
$DIMLWE
 70
    -2
  9
$DIMTMOVE
 70
     0
  9
$LUNITS
 70
     2
  9
$LUPREC
 70
     2
  9
$SKETCHINC
 40
1.0
  9
$FILLETRAD
 40
10.0
  9
$AUNITS
 70
     0
  9
$AUPREC
 70
     2
  9
$MENU
  1
.
  9
$ELEVATION
 40
0.0
  9
$PELEVATION
 40
0.0
  9
$THICKNESS
 40
0.0
  9
$LIMCHECK
 70
     0
  9
$CHAMFERA
 40
0.0
  9
$CHAMFERB
 40
0.0
  9
$CHAMFERC
 40
0.0
  9
$CHAMFERD
 40
0.0
  9
$SKPOLY
 70
     0
  9
$TDCREATE
 40
2459916.721303808
  9
$TDUCREATE
 40
2459916.346303808
  9
$TDUPDATE
 40
2459916.721304086
  9
$TDUUPDATE
 40
2459916.346304086
  9
$TDINDWG
 40
0.0000000116
  9
$TDUSRTIMER
 40
0.0000000116
  9
$USRTIMER
 70
     1
  9
$ANGBASE
 50
0.0
  9
$ANGDIR
 70
     0
  9
$PDMODE
 70
     0
  9
$PDSIZE
 40
-1.0
  9
$PLINEWID
 40
0.0
  9
$SPLFRAME
 70
     0
  9
$SPLINETYPE
 70
     6
  9
$SPLINESEGS
 70
     8
  9
$HANDSEED
  5
B9
  9
$SURFTAB1
 70
     6
  9
$SURFTAB2
 70
     6
  9
$SURFTYPE
 70
     6
  9
$SURFU
 70
     6
  9
$SURFV
 70
     6
  9
$UCSBASE
  2

  9
$UCSNAME
  2

  9
$UCSORG
 10
0.0
 20
0.0
 30
0.0
  9
$UCSXDIR
 10
1.0
 20
0.0
 30
0.0
  9
$UCSYDIR
 10
0.0
 20
1.0
 30
0.0
  9
$UCSORTHOREF
  2

  9
$UCSORTHOVIEW
 70
     0
  9
$UCSORGTOP
 10
0.0
 20
0.0
 30
0.0
  9
$UCSORGBOTTOM
 10
0.0
 20
0.0
 30
0.0
  9
$UCSORGLEFT
 10
0.0
 20
0.0
 30
0.0
  9
$UCSORGRIGHT
 10
0.0
 20
0.0
 30
0.0
  9
$UCSORGFRONT
 10
0.0
 20
0.0
 30
0.0
  9
$UCSORGBACK
 10
0.0
 20
0.0
 30
0.0
  9
$PUCSBASE
  2

  9
$PUCSNAME
  2

  9
$PUCSORG
 10
0.0
 20
0.0
 30
0.0
  9
$PUCSXDIR
 10
1.0
 20
0.0
 30
0.0
  9
$PUCSYDIR
 10
0.0
 20
1.0
 30
0.0
  9
$PUCSORTHOREF
  2

  9
$PUCSORTHOVIEW
 70
     0
  9
$PUCSORGTOP
 10
0.0
 20
0.0
 30
0.0
  9
$PUCSORGBOTTOM
 10
0.0
 20
0.0
 30
0.0
  9
$PUCSORGLEFT
 10
0.0
 20
0.0
 30
0.0
  9
$PUCSORGRIGHT
 10
0.0
 20
0.0
 30
0.0
  9
$PUCSORGFRONT
 10
0.0
 20
0.0
 30
0.0
  9
$PUCSORGBACK
 10
0.0
 20
0.0
 30
0.0
  9
$USERI1
 70
     0
  9
$USERI2
 70
     0
  9
$USERI3
 70
     0
  9
$USERI4
 70
     0
  9
$USERI5
 70
     0
  9
$USERR1
 40
0.0
  9
$USERR2
 40
0.0
  9
$USERR3
 40
0.0
  9
$USERR4
 40
0.0
  9
$USERR5
 40
0.0
  9
$WORLDVIEW
 70
     1
  9
$SHADEDGE
 70
     3
  9
$SHADEDIF
 70
    70
  9
$TILEMODE
 70
     1
  9
$MAXACTVP
 70
    64
  9
$PINSBASE
 10
0.0
 20
0.0
 30
0.0
  9
$PLIMCHECK
 70
     0
  9
$PEXTMIN
 10
1.0000000000E+20
 20
1.0000000000E+20
 30
1.0000000000E+20
  9
$PEXTMAX
 10
-1.0000000000E+20
 20
-1.0000000000E+20
 30
-1.0000000000E+20
  9
$PLIMMIN
 10
0.0
 20
0.0
  9
$PLIMMAX
 10
420.0
 20
297.0
  9
$UNITMODE
 70
     0
  9
$VISRETAIN
 70
     1
  9
$PLINEGEN
 70
     0
  9
$PSLTSCALE
 70
     1
  9
$TREEDEPTH
 70
  3020
  9
$CMLSTYLE
  2
Standard
  9
$CMLJUST
 70
     0
  9
$CMLSCALE
 40
20.0
  9
$PROXYGRAPHICS
 70
     1
  9
$MEASUREMENT
 70
     1
  9
$CELWEIGHT
370
    -1
  9
$ENDCAPS
280
     0
  9
$JOINSTYLE
280
     0
  9
$LWDISPLAY
290
     1
  9
$INSUNITS
 70
     4
  9
$HYPERLINKBASE
  1

  9
$STYLESHEET
  1

  9
$XEDIT
290
     1
  9
$CEPSNTYPE
380
     0
  9
$PSTYLEMODE
290
     1
  9
$FINGERPRINTGUID
  2
{05b1a3e1-33f1-48c6-9224-8e8a1c962606}
  9
$VERSIONGUID
  2
{FAEB1C32-E019-11D5-929B-00C0DF256EC4}
  9
$EXTNAMES
290
     1
  9
$PSVPSCALE
 40
0.0
  9
$OLESTARTUP
290
     0
  0
ENDSEC
  0
SECTION
  2
CLASSES
  0
CLASS
  1
ACDBDICTIONARYWDFLT
  2
AcDbDictionaryWithDefault
  3
ObjectDBX Classes
 90
        0
280
     0
281
     0
  0
CLASS
  1
VISUALSTYLE
  2
AcDbVisualStyle
  3
ObjectDBX Classes
 90
     4095
280
     0
281
     0
  0
CLASS
  1
MATERIAL
  2
AcDbMaterial
  3
ObjectDBX Classes
 90
     1153
280
     0
281
     0
  0
CLASS
  1
SCALE
  2
AcDbScale
  3
ObjectDBX Classes
 90
     1153
280
     0
281
     0
  0
CLASS
  1
TABLESTYLE
  2
AcDbTableStyle
  3
ObjectDBX Classes
 90
     4095
280
     0
281
     0
  0
CLASS
  1
MLEADERSTYLE
  2
AcDbMLeaderStyle
  3
ACDB_MLEADERSTYLE_CLASS
 90
     4095
280
     0
281
     0
  0
CLASS
  1
SUN
  2
AcDbSun
  3
SCENEOE
 90
     1153
280
     0
281
     0
  0
CLASS
  1
ACDBPLACEHOLDER
  2
AcDbPlaceHolder
  3
ObjectDBX Classes
 90
        0
280
     0
281
     0
  0
CLASS
  1
LAYOUT
  2
AcDbLayout
  3
ObjectDBX Classes
 90
        0
280
     0
281
     0
  0
ENDSEC
  0
SECTION
  2
TABLES
  0
TABLE
  2
VPORT
  5
8
330
0
100
AcDbSymbolTable
 70
     1
  0
VPORT
  5
29
330
8
100
AcDbSymbolTableRecord
100
AcDbViewportTableRecord
  2
*Active
 70
     0
 10
0.0
 20
0.0
 11
1.0
 21
1.0
 12
52.5
 22
74.25
 13
0.0
 23
0.0
 14
10.0
 24
10.0
 15
10.0
 25
10.0
 16
0.0
 26
0.0
 36
1.0
 17
0.0
 27
0.0
 37
0.0
 40
148.5
 41
0.7070707071
 42
50.0
 43
0.0
 44
0.0
 50
0.0
 51
0.0
 71
     0
 72
  2000
 73
     1
 74
     3
 75
     0
 76
     0
 77
     0
 78
     0
281
     0
 65
     1
110
0.0
120
0.0
130
0.0
111
1.0
121
0.0
131
0.0
112
0.0
122
1.0
132
0.0
 79
     0
146
0.0
  0
ENDTAB
  0
TABLE
  2
LTYPE
  5
5
330
0
100
AcDbSymbolTable
 70
     6
  0
LTYPE
  5
14
330
5
100
AcDbSymbolTableRecord
100
AcDbLinetypeTableRecord
  2
ByBlock
 70
     0
  3

 72
    65
 73
     0
 40
0.0
  0
LTYPE
  5
15
330
5
100
AcDbSymbolTableRecord
100
AcDbLinetypeTableRecord
  2
ByLayer
 70
     0
  3

 72
    65
 73
     0
 40
0.0
  0
LTYPE
  5
16
330
5
100
AcDbSymbolTableRecord
100
AcDbLinetypeTableRecord
  2
Continuous
 70
     0
  3
Solid line
 72
    65
 73
     0
 40
0.0
  0
LTYPE
  5
6E
330
5
100
AcDbSymbolTableRecord
100
AcDbLinetypeTableRecord
  2
HIDDEN
 70
     0
  3
Hidden __ __ __ __ __ __ __ __ __ __ __ __ __ __
 72
    65
 73
     2
 40
1.905
 49
1.27
 74
     0
 49
-0.635
 74
     0
  0
LTYPE
  5
6F
330
5
100
AcDbSymbolTableRecord
100
AcDbLinetypeTableRecord
  2
PHANTOM
 70
     0
  3
Phantom ______  __  __  ______  __  __  ______
 72
    65
 73
     6
 40
12.7
 49
6.35
 74
     0
 49
-1.27
 74
     0
 49
1.27
 74
     0
 49
-1.27
 74
     0
 49
1.27
 74
     0
 49
-1.27
 74
     0
  0
LTYPE
  5
70
330
5
100
AcDbSymbolTableRecord
100
AcDbLinetypeTableRecord
  2
CENTER
 70
     0
  3
Center ____ _ ____ _ ____ _ ____ _ ____ _ ____
 72
    65
 73
     4
 40
10.16
 49
6.35
 74
     0
 49
-1.27
 74
     0
 49
1.27
 74
     0
 49
-1.27
 74
     0
  0
LTYPE
  5
71
330
5
100
AcDbSymbolTableRecord
100
AcDbLinetypeTableRecord
  2
CENTERX2
 70
     0
  3
Center (2x) ________  __  ________  __  _____
 72
    65
 73
     4
 40
20.32
 49
12.7
 74
     0
 49
-2.54
 74
     0
 49
2.54
 74
     0
 49
-2.54
 74
     0
  0
LTYPE
  5
72
330
5
100
AcDbSymbolTableRecord
100
AcDbLinetypeTableRecord
  2
DOT2
 70
     0
  3
Dot (.5x) ........................................
 72
    65
 73
     2
 40
0.635
 49
0.0
 74
     0
 49
-0.635
 74
     0
  0
ENDTAB
  0
TABLE
  2
LAYER
  5
2
330
0
100
AcDbSymbolTable
 70
     1
  0
LAYER
  5
10
330
2
100
AcDbSymbolTableRecord
100
AcDbLayerTableRecord
  2
0
 70
     0
 62
     7
  6
Continuous
370
    -3
390
F
  0
ENDTAB
  0
TABLE
  2
STYLE
  5
3
330
0
100
AcDbSymbolTable
 70
     2
  0
STYLE
  5
11
330
3
100
AcDbSymbolTableRecord
100
AcDbTextStyleTableRecord
  2
Standard
 70
     0
 40
0.0
 41
1.0
 50
0.0
 71
     0
 42
1.75
  3
txt
  4
bigfont
  0
STYLE
  5
76
330
3
100
AcDbSymbolTableRecord
100
AcDbTextStyleTableRecord
  2
SLDTEXTSTYLE0
 70
     0
 40
0.0
 41
0.7
 50
0.0
 71
     0
 42
1.75
  3
TXT
  4
bigfont
  0
ENDTAB
  0
TABLE
  2
VIEW
  5
6
330
0
100
AcDbSymbolTable
 70
     0
  0
ENDTAB
  0
TABLE
  2
UCS
  5
7
330
0
100
AcDbSymbolTable
 70
     0
  0
ENDTAB
  0
TABLE
  2
APPID
  5
9
330
0
100
AcDbSymbolTable
 70
     1
  0
APPID
  5
12
330
9
100
AcDbSymbolTableRecord
100
AcDbRegAppTableRecord
  2
ACAD
 70
     0
  0
ENDTAB
  0
TABLE
  2
DIMSTYLE
  5
A
330
0
100
AcDbSymbolTable
 70
     1
100
AcDbDimStyleTable
  0
DIMSTYLE
105
27
330
A
100
AcDbSymbolTableRecord
100
AcDbDimStyleTableRecord
  2
ISO-25
 70
     0
 41
2.5
 42
0.625
 43
3.75
 44
1.25
 73
     0
 74
     0
 77
     1
 78
     8
140
2.5
141
2.5
143
0.0393700787
147
0.625
171
     3
172
     1
178
     0
271
     2
272
     2
274
     3
278
    44
283
     0
284
     8
340
11
  0
ENDTAB
  0
TABLE
  2
BLOCK_RECORD
  5
1
330
0
100
AcDbSymbolTable
 70
     2
  0
BLOCK_RECORD
  5
1F
330
1
100
AcDbSymbolTableRecord
100
AcDbBlockTableRecord
  2
*Model_Space
340
22
  0
BLOCK_RECORD
  5
1B
330
1
100
AcDbSymbolTableRecord
100
AcDbBlockTableRecord
  2
*Paper_Space
340
1E
  0
BLOCK_RECORD
  5
23
330
1
100
AcDbSymbolTableRecord
100
AcDbBlockTableRecord
  2
*Paper_Space0
340
26
  0
BLOCK_RECORD
  5
73
330
1
100
AcDbSymbolTableRecord
100
AcDbBlockTableRecord
  2
SW_NOTE_0
340
0
102
{BLKREFS
331
79
102
}
  0
ENDTAB
  0
ENDSEC
  0
SECTION
  2
BLOCKS
  0
BLOCK
  5
20
330
1F
100
AcDbEntity
  8
0
100
AcDbBlockBegin
  2
*Model_Space
 70
     0
 10
0.0
 20
0.0
 30
0.0
  3
*Model_Space
  1

  0
ENDBLK
  5
21
330
1F
100
AcDbEntity
  8
0
100
AcDbBlockEnd
  0
BLOCK
  5
1C
330
1B
100
AcDbEntity
 67
     1
  8
0
100
AcDbBlockBegin
  2
*Paper_Space
 70
     0
 10
0.0
 20
0.0
 30
0.0
  3
*Paper_Space
  1

  0
ENDBLK
  5
1D
330
1B
100
AcDbEntity
 67
     1
  8
0
100
AcDbBlockEnd
  0
BLOCK
  5
24
330
23
100
AcDbEntity
  8
0
100
AcDbBlockBegin
  2
*Paper_Space0
 70
     0
 10
0.0
 20
0.0
 30
0.0
  3
*Paper_Space0
  1

  0
ENDBLK
  5
25
330
23
100
AcDbEntity
  8
0
100
AcDbBlockEnd
  0
BLOCK
  5
74
330
73
100
AcDbEntity
  8
0
100
AcDbBlockBegin
  2
SW_NOTE_0
 70
     0
 10
0.0
 20
0.0
 30
0.0
  3
SW_NOTE_0
  1

  0
MTEXT
  5
77
330
73
100
AcDbEntity
  8
0
  6
Continuous
 62
     0
370
     0
100
AcDbMText
 10
0.0
 20
3.4106583948
 30
0.0
 40
2.6458333333
 41
0.0
 71
     1
 72
     1
  1
HOA-D29K
  7
SLDTEXTSTYLE0
 73
     1
 44
1.0
  0
MTEXT
  5
78
330
73
100
AcDbEntity
  8
0
  6
Continuous
 62
     0
370
     0
100
AcDbMText
 10
0.0
 20
-0.6171194223
 30
0.0
 40
2.6458333333
 41
0.0
 71
     1
 72
     1
  1
HOA-D29O
  7
SLDTEXTSTYLE0
 73
     1
 44
1.0
  0
ENDBLK
  5
75
330
73
100
AcDbEntity
  8
0
100
AcDbBlockEnd
  0
ENDSEC
  0
SECTION
  2
ENTITIES
  0
INSERT
  5
79
330
1F
100
AcDbEntity
  8
0
  6
Continuous
 62
     7
370
     0
100
AcDbBlockReference
  2
SW_NOTE_0
 10
74.1428686894
 20
27.9618147659
 30
0.0
  0
SPLINE
  5
7A
330
1F
100
AcDbEntity
  8
0
  6
Continuous
 62
     7
370
    25
100
AcDbSpline
210
0.0
220
0.0
230
1.0
 70
     8
 71
     3
 72
    11
 73
     7
 74
     0
 42
0.00000001
 43
0.00000001
 40
0.0
 40
0.0
 40
0.0
 40
0.0
 40
0.1417391295441568
 40
0.4922716196175895
 40
0.8429203207067442
 40
1.0
 40
1.0
 40
1.0
 40
1.0
 10
45.22498038136754
 20
126.2057429409866
 30
0.0
 10
45.23233524752186
 20
126.2052002523415
 30
0.0
 10
45.25787930078011
 20
126.2033154501763
 30
0.0
 10
45.28290641220179
 20
126.2061981412742
 30
0.0
 10
45.30035948581903
 20
126.2115817773322
 30
0.0
 10
45.29897100667469
 20
126.2184067163251
 30
0.0
 10
45.29854144262602
 20
126.2205181981127
 30
0.0
  0
SPLINE
  5
7B
330
1F
100
AcDbEntity
  8
0
  6
Continuous
 62
     7
370
    25
100
AcDbSpline
210
0.0
220
0.0
230
1.0
 70
     8
 71
     3
 72
    35
 73
    31
 74
     0
 42
0.00000001
 43
0.00000001
 40
0.0
 40
0.0
 40
0.0
 40
0.0
 40
0.0198824805993253
 40
0.0567294958404357
 40
0.0935911192391657
 40
0.1304493833642672
 40
0.1672991481266317
 40
0.204152203765474
 40
0.240992799127916
 40
0.2778611448702486
 40
0.3147036356965152
 40
0.3515625336128503
 40
0.3884090253142377
 40
0.4252698065286182
 40
0.462123743348242
 40
0.4989791314470552
 40
0.5358329064119723
 40
0.5726808779804787
 40
0.6095416169112599
 40
0.6463796567324438
 40
0.6832304796169285
 40
0.7201012714294543
 40
0.7569570203786149
 40
0.7937921561506143
 40
0.8306629540482126
 40
0.8675137709614104
 40
0.9043518107825942
 40
0.9412125497133752
 40
0.9780605318822498
 40
1.0
 40
1.0
 40
1.0
 40
1.0
 10
41.66716728054342
 20
127.2553617691546
 30
0.0
 10
41.67411878263727
 20
127.2511067172413
 30
0.0
 10
41.6939530888823
 20
127.2389660314444
 30
0.0
 10
41.74438865740039
 20
127.2138377363943
 30
0.0
 10
41.81602779787951
 20
127.1809794732523
 30
0.0
 10
41.90327275618098
 20
127.1438941475729
 30
0.0
 10
42.00410345907655
 20
127.1034746780661
 30
0.0
 10
42.1177062513066
 20
127.0596910844507
 30
0.0
 10
42.24329551452364
 20
127.0132447324876
 30
0.0
 10
42.37938859358871
 20
126.9644798616712
 30
0.0
 10
42.52489510124634
 20
126.9137596733024
 30
0.0
 10
42.67843663921572
 20
126.8616958654162
 30
0.0
 10
42.83855511796503
 20
126.8088343100734
 30
0.0
 10
43.00373879629716
 20
126.7553378462992
 30
0.0
 10
43.17247848970784
 20
126.7020947515365
 30
0.0
 10
43.34314705218112
 20
126.6492684266358
 30
0.0
 10
43.51422451203918
 20
126.5977220580601
 30
0.0
 10
43.68406525455742
 20
126.5476030864768
 30
0.0
 10
43.85103521409364
 20
126.4994772420761
 30
0.0
 10
44.01368102405964
 20
126.453888829747
 30
0.0
 10
44.17040876676771
 20
126.4112089685756
 30
0.0
 10
44.31984829324106
 20
126.3716784374799
 30
0.0
 10
44.46047621966753
 20
126.336069307314
 30
0.0
 10
44.59109327450614
 20
126.304173212586
 30
0.0
 10
44.71037276995229
 20
126.2768253160345
 30
0.0
 10
44.81729364772708
 20
126.2538930725283
 30
0.0
 10
44.91091858046051
 20
126.235690496548
 30
0.0
 10
44.98966197434066
 20
126.2227090103814
 30
0.0
 10
45.04696697784726
 20
126.2150952957531
 30
0.0
 10
45.07145507072601
 20
126.2138938762994
 30
0.0
 10
45.0805940235188
 20
126.2134455067296
 30
0.0
  0
SPLINE
  5
7C
330
1F
100
AcDbEntity
  8
0
  6
Continuous
 62
     7
370
    25
100
AcDbSpline
210
0.0
220
0.0
230
1.0
 70
     8
 71
     3
 72
    11
 73
     7
 74
     0
 42
0.00000001
 43
0.00000001
 40
0.0
 40
0.0
 40
0.0
 40
0.0
 40
0.1406306841720318
 40
0.4904027912440071
 40
0.8401649606071201
 40
1.0
 40
1.0
 40
1.0
 40
1.0
 10
41.49000307488411
 20
127.3832177807449
 30
0.0
 10
41.48854509003674
 20
127.3818863490627
 30
0.0
 10
41.48346085224787
 20
127.3772434233943
 30
0.0
 10
41.49425101457189
 20
127.3634439424756
 30
0.0
 10
41.51300449469891
 20
127.3469150868943
 30
0.0
 10
41.53581998000151
 20
127.3337915573313
 30
0.0
 10
41.54297605136425
 20
127.3296753655063
 30
0.0
  0
SPLINE
  5
7D
330
1F
100
AcDbEntity
  8
0
  6
Continuous
 62
     7
370
    25
100
AcDbSpline
210
0.0
220
0.0
230
1.0
 70
     8
 71
     3
 72
    40
 73
    36
 74
     0
 42
0.00000001
 43
0.00000001
 40
0.0
 40
0.0
 40
0.0
 40
0.0
 40
0.0186947662599533
 40
0.0498000797526799
 40
0.0808984072833931
 40
0.1119965255418584
 40
0.1431130866223611
 40
0.1742144548504569
 40
0.2053111014763076
 40
0.2364206389872506
 40
0.2675298929670231
 40
0.298616224518667
 40
0.3297254772069385
 40
0.3608350147178814
 40
0.3919316613437321
 40
0.423033029571828
 40
0.4541495906523307
 40
0.4852477002260116
 40
0.5163460439403115
 40
0.547451357433038
 40
0.5785561163702498
 40
0.6096501569609439
 40
0.6407653629278006
 40
0.6718651064139399
 40
0.7029626099388288
 40
0.734072453097444
 40
0.7651794566680695
 40
0.796279287092773
 40
0.827381894894783
 40
0.8584739866871092
 40
0.8895894987675804
 40
0.9206831902608518
 40
0.9517907379328695
 40
0.9828878060158859
 40
1.0
 40
1.0
 40
1.0
 40
1.0
 10
41.61782039448374
 20
127.3050450256238
 30
0.0
 10
41.61888503779802
 20
127.307162388408
 30
0.0
 10
41.6217210894085
 20
127.3128027282792
 30
0.0
 10
41.6447231478447
 20
127.3163014951581
 30
0.0
 10
41.68476632907285
 20
127.3162131215042
 30
0.0
 10
41.74152026475991
 20
127.3104471534129
 30
0.0
 10
41.81323624326284
 20
127.2996889803691
 30
0.0
 10
41.89979872929456
 20
127.2841636110583
 30
0.0
 10
42.00007507927997
 20
127.263471271765
 30
0.0
 10
42.11332375591007
 20
127.2383785633901
 30
0.0
 10
42.23843468799911
 20
127.2086953010345
 30
0.0
 10
42.3742048744641
 20
127.1749056318277
 30
0.0
 10
42.5193815477614
 20
127.1373213593271
 30
0.0
 10
42.67263780890336
 20
127.0960878730213
 30
0.0
 10
42.83256635074014
 20
127.0520221824452
 30
0.0
 10
42.99754677867538
 20
127.0049443404015
 30
0.0
 10
43.16621408509386
 20
126.9558800867842
 30
0.0
 10
43.33688101820834
 20
126.9050367902063
 30
0.0
 10
43.5078973639276
 20
126.8526357268257
 30
0.0
 10
43.67779675277262
 20
126.7995729045279
 30
0.0
 10
43.84498840327697
 20
126.7462874412826
 30
0.0
 10
44.00776781495647
 20
126.6928569251792
 30
0.0
 10
44.16476367297113
 20
126.6404205068217
 30
0.0
 10
44.31456483047781
 20
126.5889642046591
 30
0.0
 10
44.45542728940462
 20
126.5391521529747
 30
0.0
 10
44.58651648772926
 20
126.4914712230177
 30
0.0
 10
44.70621531341847
 20
126.4463162455196
 30
0.0
 10
44.81361466820304
 20
126.4042600178862
 30
0.0
 10
44.90766883303752
 20
126.3653422652412
 30
0.0
 10
44.98739269798409
 20
126.3303098229139
 30
0.0
 10
45.0522237779625
 20
126.2992826902278
 30
0.0
 10
45.10162238719962
 20
126.2724721270355
 30
0.0
 10
45.13408315486367
 20
126.2505762061769
 30
0.0
 10
45.15046194783631
 20
126.2353316013197
 30
0.0
 10
45.1492672111878
 20
126.2293316736688
 30
0.0
 10
45.14884313157295
 20
126.2272019599696
 30
0.0
  0
SPLINE
  5
7E
330
1F
100
AcDbEntity
  8
0
  6
Continuous
 62
     7
370
    25
100
AcDbSpline
210
0.0
220
0.0
230
1.0
 70
     8
 71
     3
 72
     9
 73
     5
 74
     0
 42
0.00000001
 43
0.00000001
 40
0.0
 40
0.0
 40
0.0
 40
0.0
 40
0.4052040074714671
 40
1.0
 40
1.0
 40
1.0
 40
1.0
 10
45.0805940235188
 20
126.2134455067296
 30
0.0
 10
45.09967333791087
 20
126.2124300561702
 30
0.0
 10
45.14675903805271
 20
126.2099240331777
 30
0.0
 10
45.19580690604417
 20
126.207302323435
 30
0.0
 10
45.22498038136754
 20
126.2057429409866
 30
0.0
  0
SPLINE
  5
7F
330
1F
100
AcDbEntity
  8
0
  6
Continuous
 62
     7
370
    25
100
AcDbSpline
210
0.0
220
0.0
230
1.0
 70
     8
 71
     3
 72
     9
 73
     5
 74
     0
 42
0.00000001
 43
0.00000001
 40
0.0
 40
0.0
 40
0.0
 40
0.0
 40
0.4599034391909205
 40
1.0
 40
1.0
 40
1.0
 40
1.0
 10
41.54297605136425
 20
127.3296753655063
 30
0.0
 10
41.56167150234467
 20
127.3184804672585
 30
0.0
 10
41.60232232029314
 20
127.2941386222236
 30
0.0
 10
41.64442679731126
 20
127.2689604262223
 30
0.0
 10
41.66716728054342
 20
127.2553617691546
 30
0.0
  0
SPLINE
  5
80
330
1F
100
AcDbEntity
  8
0
  6
Continuous
 62
     7
370
    25
100
AcDbSpline
210
0.0
220
0.0
230
1.0
 70
     8
 71
     3
 72
   134
 73
   130
 74
     0
 42
0.00000001
 43
0.00000001
 40
0.0
 40
0.0
 40
0.0
 40
0.0
 40
0.0513819745615406
 40
0.0931794183226382
 40
0.1443401394965877
 40
0.1863582725809561
 40
0.2376154496535432
 40
0.2795340531684826
 40
0.3305936797831457
 40
0.3727103376226316
 40
0.4209763208486538
 40
0.4611659281966864
 40
0.4614954014797222
 40
0.4618674765382306
 40
0.4621979911911849
 40
0.4625281934111224
 40
0.4628668432300744
 40
0.4631463969604105
 40
0.4634862413106719
 40
0.4637238035368287
 40
0.4640923752229657
 40
0.4642713920955066
 40
0.4646707846201063
 40
0.4647926681337446
 40
0.4652231835758285
 40
0.4652946018512078
 40
0.4657635557621765
 40
0.4658729440337595
 40
0.4659188738619621
 40
0.4665495436373746
 40
0.4671005057531443
 40
0.4674930987372343
 40
0.4682977934144796
 40
0.4692572112869419
 40
0.4705489342905594
 40
0.4717853903135898
 40
0.4727563508323086
 40
0.4745811939319454
 40
0.4749521678671287
 40
0.4750771136103406
 40
0.4771393234764831
 40
0.4777075858943314
 40
0.4793248667630346
 40
0.4800942661708527
 40
0.4814978198324001
 40
0.4826315318671997
 40
0.483672207071569
 40
0.48481700195331
 40
0.4858461357196854
 40
0.4872232033010614
 40
0.4880130093192862
 40
0.4894494623697944
 40
0.4901831521570844
 40
0.4916912398733552
 40
0.4923502548783524
 40
0.4938918224907622
 40
0.4945207360667202
 40
0.4961800033136547
 40
0.4966853738883524
 40
0.4982796466243449
 40
0.4988513049965167
 40
0.5004616492276732
 40
0.5010191055618055
 40
0.5029302218435701
 40
0.5031766491934948
 40
0.5048319305249656
 40
0.5053411579344098
 40
0.5067871046570323
 40
0.5075120226112764
 40
0.5090558089779657
 40
0.5096811518743624
 40
0.5111079202711082
 40
0.5118480890721253
 40
0.5131985094863488
 40
0.5140197920863716
 40
0.5153549558037311
 40
0.51618765779756
 40
0.5174259534830932
 40
0.5183617218104801
 40
0.5194554640931993
 40
0.5205356963075338
 40
0.5213667820360272
 40
0.5227165394027365
 40
0.5233240378943674
 40
0.5249059609696655
 40
0.5250237077525474
 40
0.5254377588559745
 40
0.526842234562484
 40
0.5270981231568158
 40
0.5285956636837111
 40
0.5293048790915102
 40
0.5300449563900697
 40
0.5307863913405212
 40
0.5312140242146886
 40
0.5315532112017051
 40
0.5322583796284223
 40
0.5325348285053739
 40
0.5330316789596964
 40
0.5334799375867902
 40
0.5336199985380068
 40
0.5340577838668557
 40
0.5341339347868479
 40
0.5341453208455643
 40
0.5346205423166321
 40
0.5346971435625499
 40
0.5350850485298243
 40
0.5352143755266944
 40
0.53555698627882
 40
0.5357371089133991
 40
0.5360562767617609
 40
0.536278912695173
 40
0.5365846114555181
 40
0.5368547441925622
 40
0.5371591010716145
 40
0.5374737987137344
 40
0.5377740835153736
 40
0.5381352478825607
 40
0.5384321782178321
 40
0.5388373909127027
 40
0.591403656306764
 40
0.6272928737616863
 40
0.6831730160319975
 40
0.7204695017124901
 40
0.7764412144775933
 40
0.8136476450302383
 40
0.8694646285707764
 40
0.9068259400446557
 40
0.9625857915075405
 40
1.0
 40
1.0
 40
1.0
 40
1.0
 10
45.29854144262602
 20
126.2205181981127
 30
0.0
 10
45.30935793653605
 20
126.4629545338005
 30
0.0
 10
45.32897327089068
 20
126.9026043707798
 30
0.0
 10
45.35946262940197
 20
127.5812395353565
 30
0.0
 10
45.38779240084537
 20
128.2188110123392
 30
0.0
 10
45.41833917801825
 20
128.8977436409644
 30
0.0
 10
45.44682979889385
 20
129.5363477500402
 30
0.0
 10
45.47727381220536
 20
130.2142648350843
 30
0.0
 10
45.50545432429693
 20
130.8524987588656
 30
0.0
 10
45.53620043633942
 20
131.5172026064472
 30
0.0
 10
45.56027075190332
 20
132.1343490688076
 30
0.0
 10
45.58660373767248
 20
132.550866652069
 30
0.0
 10
45.59021562587052
 20
132.7440324137801
 30
0.0
 10
45.5904019109995
 20
132.7489157760434
 30
0.0
 10
45.59026307434946
 20
132.7537795186025
 30
0.0
 10
45.59027669027582
 20
132.7585241550713
 30
0.0
 10
45.58985049171712
 20
132.762915373659
 30
0.0
 10
45.58966624576941
 20
132.767480069682
 30
0.0
 10
45.58903350338883
 20
132.7713744404003
 30
0.0
 10
45.58859509572878
 20
132.7758576839153
 30
0.0
 10
45.5878193968487
 20
132.7791754105947
 30
0.0
 10
45.58701358833623
 20
132.7836464581418
 30
0.0
 10
45.58608568251451
 20
132.7863501187749
 30
0.0
 10
45.5849089899523
 20
132.7908134932299
 30
0.0
 10
45.58396897825261
 20
132.7929772264946
 30
0.0
 10
45.58238591636563
 20
132.7972695606854
 30
0.0
 10
45.58154724015994
 20
132.7987591807544
 30
0.0
 10
45.5803815289928
 20
132.8010013366848
 30
0.0
 10
45.57920961026497
 20
132.802497328106
 30
0.0
 10
45.57612058677985
 20
132.8070490301983
 30
0.0
 10
45.57448803545866
 20
132.8083463044253
 30
0.0
 10
45.57072172616254
 20
132.8126214752116
 30
0.0
 10
45.56873185451865
 20
132.8140889069972
 30
0.0
 10
45.56360664069478
 20
132.8178711564714
 30
0.0
 10
45.55960899849821
 20
132.8203874553602
 30
0.0
 10
45.55417488768657
 20
132.8232206574787
 30
0.0
 10
45.54801736545664
 20
132.8267655433121
 30
0.0
 10
45.54146291158275
 20
132.8297842413358
 30
0.0
 10
45.53730796348504
 20
132.8317840060578
 30
0.0
 10
45.53163564183752
 20
132.8342411487739
 30
0.0
 10
45.52586498102302
 20
132.8368468293648
 30
0.0
 10
45.5151446318745
 20
132.8412688001319
 30
0.0
 10
45.50753554815999
 20
132.8444506930064
 30
0.0
 10
45.49708464529865
 20
132.8485464206814
 30
0.0
 10
45.48766601748921
 20
132.8523704797707
 30
0.0
 10
45.47560373394542
 20
132.8567411857896
 30
0.0
 10
45.46542737456269
 20
132.8606513988153
 30
0.0
 10
45.45404376235245
 20
132.8647758234808
 30
0.0
 10
45.44183706471967
 20
132.8692583504845
 30
0.0
 10
45.42944899965398
 20
132.8735723803736
 30
0.0
 10
45.416099529756
 20
132.8783159125753
 30
0.0
 10
45.40411045371266
 20
132.8824193022867
 30
0.0
 10
45.38968057288854
 20
132.8873812038292
 30
0.0
 10
45.37725936159926
 20
132.8914340243538
 30
0.0
 10
45.36200301148989
 20
132.8966204943642
 30
0.0
 10
45.34956696626723
 20
132.9006180759256
 30
0.0
 10
45.33317538206549
 20
132.9059842311186
 30
0.0
 10
45.32056415703961
 20
132.9099314534475
 30
0.0
 10
45.30403179309177
 20
132.9152090821919
 30
0.0
 10
45.29192122241025
 20
132.9189608499848
 30
0.0
 10
45.27501318524567
 20
132.9243321462502
 30
0.0
 10
45.26258092302573
 20
132.9280786124116
 30
0.0
 10
45.2441301489369
 20
132.9337512082906
 30
0.0
 10
45.23197002611671
 20
132.9372318805848
 30
0.0
 10
45.21473951581743
 20
132.9423929075547
 30
0.0
 10
45.20402931692626
 20
132.9455080087129
 30
0.0
 10
45.18785844382624
 20
132.9501999730556
 30
0.0
 10
45.17622868207
 20
132.9534721278104
 30
0.0
 10
45.15989991126509
 20
132.9581924742957
 30
0.0
 10
45.14806428553272
 20
132.9613477231679
 30
0.0
 10
45.1325095850543
 20
132.9656920801136
 30
0.0
 10
45.1216105111852
 20
132.9685530578523
 30
0.0
 10
45.10698418393856
 20
132.9724897620232
 30
0.0
 10
45.09623995970873
 20
132.9751681989327
 30
0.0
 10
45.08228924042022
 20
132.9788860187614
 30
0.0
 10
45.0722473410836
 20
132.9812914941346
 30
0.0
 10
45.05935378057191
 20
132.9845573528995
 30
0.0
 10
45.05012911898805
 20
132.986706353934
 30
0.0
 10
45.03841524102624
 20
132.989505932569
 30
0.0
 10
45.02986164037244
 20
132.9913301969756
 30
0.0
 10
45.01980842622284
 20
132.993695710185
 30
0.0
 10
45.0115866887314
 20
132.9953333882279
 30
0.0
 10
45.00308599289676
 20
132.9971955601982
 30
0.0
 10
44.99547053634193
 20
132.99848006977
 30
0.0
 10
44.98836686116139
 20
132.9999503785301
 30
0.0
 10
44.98439797415659
 20
133.0005112555523
 30
0.0
 10
44.98009447895129
 20
133.0012577862979
 30
0.0
 10
44.97643087257951
 20
133.0017803935234
 30
0.0
 10
44.96927168864342
 20
133.0027500936219
 30
0.0
 10
44.96682761023602
 20
133.0028176193998
 30
0.0
 10
44.95994056449072
 20
133.0035679771732
 30
0.0
 10
44.95789383743399
 20
133.0034604589629
 30
0.0
 10
44.95368325055485
 20
133.0037282341037
 30
0.0
 10
44.95177468667396
 20
133.0036667079074
 30
0.0
 10
44.94805855132791
 20
133.0035483798182
 30
0.0
 10
44.94772457789936
 20
133.003251678755
 30
0.0
 10
44.94327274883891
 20
133.0028593488787
 30
0.0
 10
44.94228077761958
 20
133.0023786677266
 30
0.0
 10
44.93801938621007
 20
133.0016004309756
 30
0.0
 10
44.93601846993044
 20
133.0008825897025
 30
0.0
 10
44.93294203863697
 20
132.9998416071242
 30
0.0
 10
44.93188569645012
 20
132.9992857156851
 30
0.0
 10
44.9294631956252
 20
132.998301931392
 30
0.0
 10
44.92875528920663
 20
132.9974810213538
 30
0.0
 10
44.92473107348512
 20
132.9953099976993
 30
0.0
 10
44.92328320139917
 20
132.993970086791
 30
0.0
 10
44.91985335783427
 20
132.9916213675112
 30
0.0
 10
44.91802111128683
 20
132.9897798663273
 30
0.0
 10
44.91483084515568
 20
132.9872381158573
 30
0.0
 10
44.91276686485978
 20
132.9848422455687
 30
0.0
 10
44.90981507127177
 20
132.9820857970987
 30
0.0
 10
44.90746271187146
 20
132.9792289926527
 30
0.0
 10
44.90467819508293
 20
132.9761326639495
 30
0.0
 10
44.90218163474505
 20
132.9727757838015
 30
0.0
 10
44.89941405782736
 20
132.9694335610558
 30
0.0
 10
44.89686604559638
 20
132.965606368516
 30
0.0
 10
44.89416233832111
 20
132.961984606259
 30
0.0
 10
44.8915624920838
 20
132.9576788472897
 30
0.0
 10
44.75473809324964
 20
132.7463023184122
 30
0.0
 10
44.54340175535743
 20
132.3838229564812
 30
0.0
 10
44.18737828505876
 20
131.8051418196058
 30
0.0
 10
43.87005861779085
 20
131.2838269580353
 30
0.0
 10
43.50450080785375
 20
130.6847547429678
 30
0.0
 10
43.18299048489361
 20
130.1580897048052
 30
0.0
 10
42.81803133582972
 20
129.5595291904784
 30
0.0
 10
42.49669136152615
 20
129.0332963573883
 30
0.0
 10
42.13176748209644
 20
128.4349617159852
 30
0.0
 10
41.81019405655096
 20
127.9082345938802
 30
0.0
 10
41.5817394328884
 20
127.533637789695
 30
0.0
 10
41.49000307488411
 20
127.3832177807449
 30
0.0
  0
SPLINE
  5
81
330
1F
100
AcDbEntity
  8
0
  6
Continuous
 62
     7
370
    25
100
AcDbSpline
210
0.0
220
0.0
230
1.0
 70
     8
 71
     3
 72
    66
 73
    62
 74
     0
 42
0.00000001
 43
0.00000001
 40
0.0
 40
0.0
 40
0.0
 40
0.0
 40
0.0004155865834022
 40
0.0004778175497569
 40
0.0010549596036374
 40
0.001221461239678
 40
0.0016898446919955
 40
0.0019977846094004
 40
0.0023209809697383
 40
0.0028176661175245
 40
0.0029479767117386
 40
0.0032831975195326
 40
0.0035737206695427
 40
0.0037150796415614
 40
0.0041985037822529
 40
0.0047365975404191
 40
0.0048239181807207
 40
0.0049367878861915
 40
0.0054523849949856
 40
0.0060173526108004
 40
0.0060805538216621
 40
0.0061289170695125
 40
0.0067058910950949
 40
0.0070833056702429
 40
0.0073319607777441
 40
0.0079232147025236
 40
0.0079607717831845
 40
0.0081131011707424
 40
0.0085903616698211
 40
0.008702995280579
 40
0.0092281114393324
 40
0.0094450377216476
 40
0.0098658037471482
 40
0.0101955251181369
 40
0.0105037608726608
 40
0.0109750501024186
 40
0.0111423340603342
 40
0.0117056299484755
 40
0.0117833036900403
 40
0.011808196263515
 40
0.0124175894805973
 40
0.0127765740112319
 40
0.0130447124366051
 40
0.013371039467532
 40
0.0136675096802881
 40
0.0139613458904738
 40
0.0142883306681259
 40
0.0145252245245546
 40
0.0149107670386954
 40
0.0154999989856809
 40
0.0155351697875837
 40
0.0156125712258997
 40
0.0161629407092167
 40
0.0163669498928785
 40
0.0167963141252914
 40
0.0171801482763418
 40
0.0174360134748032
 40
0.0179476328877217
 40
0.0180887524881851
 40
0.864034064063659
 40
1.0
 40
1.0
 40
1.0
 40
1.0
 10
45.5482094447581
 20
132.8264917054803
 30
0.0
 10
45.55325848129026
 20
132.8384445568819
 30
0.0
 10
45.55906357308286
 20
132.8521872579155
 30
0.0
 10
45.5736524194318
 20
132.8797581238909
 30
0.0
 10
45.58429382054301
 20
132.9023958032581
 30
0.0
 10
45.60229273616471
 20
132.9314323175115
 30
0.0
 10
45.61599843719367
 20
132.9560702726782
 30
0.0
 10
45.63323466808361
 20
132.9794902923649
 30
0.0
 10
45.65082432824882
 20
133.0062581570726
 30
0.0
 10
45.66621761203875
 20
133.0233598350667
 30
0.0
 10
45.68185572283902
 20
133.043550233111
 30
0.0
 10
45.6945941502262
 20
133.0550157406402
 30
0.0
 10
45.70665093460983
 20
133.0702515478533
 30
0.0
 10
45.72069679830062
 20
133.0828327418054
 30
0.0
 10
45.73967826323772
 20
133.1026926403023
 30
0.0
 10
45.75601357502924
 20
133.1132113672757
 30
0.0
 10
45.76780543864476
 20
133.1228898916511
 30
0.0
 10
45.77834875366135
 20
133.1282979650129
 30
0.0
 10
45.79520765787683
 20
133.1429789442827
 30
0.0
 10
45.80875077361048
 20
133.1472386727976
 30
0.0
 10
45.81797515295447
 20
133.1524703572918
 30
0.0
 10
45.82590561468491
 20
133.1541950970865
 30
0.0
 10
45.83653999961446
 20
133.1621296541678
 30
0.0
 10
45.84757716041771
 20
133.1615788385421
 30
0.0
 10
45.85743485449645
 20
133.167258315459
 30
0.0
 10
45.86327176825679
 20
133.1646331710164
 30
0.0
 10
45.8681942633823
 20
133.1668850056459
 30
0.0
 10
45.87131540505261
 20
133.1660681967484
 30
0.0
 10
45.87612592299682
 20
133.1680086009509
 30
0.0
 10
45.88050570442706
 20
133.164848755337
 30
0.0
 10
45.88430729997014
 20
133.1676597957554
 30
0.0
 10
45.88778078711719
 20
133.1634010684585
 30
0.0
 10
45.89231969593333
 20
133.1655955862837
 30
0.0
 10
45.89546914437781
 20
133.1606858575441
 30
0.0
 10
45.90137308340706
 20
133.1618079630142
 30
0.0
 10
45.9046283378418
 20
133.1560356102685
 30
0.0
 10
45.91185510310984
 20
133.1549888771946
 30
0.0
 10
45.91648415779507
 20
133.1484315555803
 30
0.0
 10
45.92023708456631
 20
133.1462669617809
 30
0.0
 10
45.92421306260682
 20
133.1404327665322
 30
0.0
 10
45.93322033782412
 20
133.1365269497381
 30
0.0
 10
45.94077924250863
 20
133.1218860741509
 30
0.0
 10
45.94963533338985
 20
133.114202646403
 30
0.0
 10
45.95671417347312
 20
133.1007338481322
 30
0.0
 10
45.96437342398162
 20
133.0907757100304
 30
0.0
 10
45.97057856895368
 20
133.0744637728428
 30
0.0
 10
45.97880339179617
 20
133.0625516937457
 30
0.0
 10
45.9858123092889
 20
133.0431472243865
 30
0.0
 10
45.99551245888823
 20
133.0227090230246
 30
0.0
 10
46.00143419403982
 20
132.998303152437
 30
0.0
 10
46.00605185224738
 20
132.9838230447759
 30
0.0
 10
46.00906455410892
 20
132.9673132355462
 30
0.0
 10
46.01555432965818
 20
132.9494421468662
 30
0.0
 10
46.02014826434819
 20
132.9175459355103
 30
0.0
 10
46.02542333686988
 20
132.8925676028322
 30
0.0
 10
46.02742941266605
 20
132.8616652352324
 30
0.0
 10
46.03108362865847
 20
132.8307285444077
 30
0.0
 10
46.03097381461333
 20
132.8029256668124
 30
0.0
 10
46.87480825838792
 20
108.1818239808227
 30
0.0
 10
45.97135939830551
 20
76.67763375049412
 30
0.0
 10
46.00889204660111
 20
46.64941380970468
 30
0.0
 10
46.01408921861295
 20
42.4913852311568
 30
0.0
  0
SPLINE
  5
82
330
1F
100
AcDbEntity
  8
0
  6
Continuous
 62
     7
370
    25
100
AcDbSpline
210
0.0
220
0.0
230
1.0
 70
     8
 71
     3
 72
    69
 73
    65
 74
     0
 42
0.00000001
 43
0.00000001
 40
0.0
 40
0.0
 40
0.0
 40
0.0
 40
0.134292958870347
 40
0.9693967670687482
 40
0.9695994661526471
 40
0.9703803696515996
 40
0.9707458725669822
 40
0.9713687656657278
 40
0.9720040093448651
 40
0.9723578115942243
 40
0.9733503935268356
 40
0.9733515040429129
 40
0.9733520180153078
 40
0.9743527218268891
 40
0.9749125491336879
 40
0.9753637256236979
 40
0.9760094322049083
 40
0.9763901349625086
 40
0.9767843160736052
 40
0.9774332748110426
 40
0.9779742848883358
 40
0.9784974005514643
 40
0.9795003001416994
 40
0.9795850786433724
 40
0.9796246219526978
 40
0.9806884884116712
 40
0.9810769123368166
 40
0.9817976471423541
 40
0.9824204052003268
 40
0.982909643404299
 40
0.9837154320502823
 40
0.9840224335937553
 40
0.9850122550666545
 40
0.9851324489729862
 40
0.985660066774314
 40
0.9862344720820108
 40
0.9863727379525367
 40
0.9873272226312637
 40
0.9878163955942667
 40
0.9884109209851052
 40
0.9894551447184728
 40
0.9894843944517028
 40
0.9895233992559374
 40
0.9905494570580504
 40
0.9914379366060673
 40
0.9916005344775429
 40
0.9917289233854281
 40
0.9926296846992287
 40
0.9934054733082979
 40
0.9936423053683869
 40
0.994097473785541
 40
0.994640838900761
 40
0.9948480411531163
 40
0.9956291427501232
 40
0.9961312021691777
 40
0.9966102463315483
 40
0.9973407323435085
 40
0.9975870056659906
 40
0.9984834296238764
 40
0.9985630245373215
 40
0.9992218516161804
 40
0.9995411180765695
 40
0.9995734196375359
 40
1.0
 40
1.0
 40
1.0
 40
1.0
 10
46.61076192710332
 20
42.49133255470019
 30
0.0
 10
46.60457983933224
 20
46.66127284072654
 30
0.0
 10
46.5599542986529
 20
76.76208129820003
 30
0.0
 10
47.60850910559575
 20
106.7748250257494
 30
0.0
 10
46.62691393768412
 20
132.8175709355112
 30
0.0
 10
46.62703838354684
 20
132.8598142653331
 30
0.0
 10
46.62084358219301
 20
132.9138959128695
 30
0.0
 10
46.61758665425417
 20
132.9641593883437
 30
0.0
 10
46.60839086133065
 20
133.0118462524524
 30
0.0
 10
46.59994664951908
 20
133.0714830871074
 30
0.0
 10
46.58905731795826
 20
133.1093890566839
 30
0.0
 10
46.58267077254879
 20
133.1385581105704
 30
0.0
 10
46.57350206950071
 20
133.1663639895391
 30
0.0
 10
46.56192041248179
 20
133.211126740392
 30
0.0
 10
46.53896961439736
 20
133.2639262311978
 30
0.0
 10
46.52248554772323
 20
133.3087111780775
 30
0.0
 10
46.50297046077319
 20
133.3450764480738
 30
0.0
 10
46.48519081590607
 20
133.3815596564891
 30
0.0
 10
46.46296244192226
 20
133.4142094877068
 30
0.0
 10
46.44094028801613
 20
133.452813052671
 30
0.0
 10
46.41177699660152
 20
133.4892917801883
 30
0.0
 10
46.37695945255118
 20
133.5347634603216
 30
0.0
 10
46.3442796646269
 20
133.5635824841686
 30
0.0
 10
46.32363480988995
 20
133.5864014385267
 30
0.0
 10
46.29908691997286
 20
133.6067634529643
 30
0.0
 10
46.26814649522371
 20
133.6334695435676
 30
0.0
 10
46.21882305049235
 20
133.6643443632253
 30
0.0
 10
46.17874694406438
 20
133.6892183456185
 30
0.0
 10
46.13383307461856
 20
133.7087642642754
 30
0.0
 10
46.08639199359712
 20
133.7291595159733
 30
0.0
 10
46.04457352867933
 20
133.7402533874392
 30
0.0
 10
45.99004191209712
 20
133.754493336907
 30
0.0
 10
45.95188121347041
 20
133.7585275657272
 30
0.0
 10
45.90820712003389
 20
133.7634197704428
 30
0.0
 10
45.87529815352066
 20
133.7610740792707
 30
0.0
 10
45.84205651728616
 20
133.7636411352182
 30
0.0
 10
45.79719489400891
 20
133.7588477650514
 30
0.0
 10
45.7550474036271
 20
133.7544114448995
 30
0.0
 10
45.70084448581215
 20
133.7408354927023
 30
0.0
 10
45.64535603390443
 20
133.7266070473898
 30
0.0
 10
45.60276351149835
 20
133.7086899731352
 30
0.0
 10
45.57465623165471
 20
133.6976305185194
 30
0.0
 10
45.54818403938425
 20
133.6829876220445
 30
0.0
 10
45.49916199846794
 20
133.6611592573133
 30
0.0
 10
45.45061945502123
 20
133.6277119228945
 30
0.0
 10
45.42288391859605
 20
133.6100996554315
 30
0.0
 10
45.39664006659486
 20
133.5884622450029
 30
0.0
 10
45.35500058790914
 20
133.5588947394223
 30
0.0
 10
45.3153829853701
 20
133.5194906668698
 30
0.0
 10
45.28342908988159
 20
133.4912923487268
 30
0.0
 10
45.25909344549178
 20
133.4635260419219
 30
0.0
 10
45.23433835962107
 20
133.4385637132447
 30
0.0
 10
45.20605287339755
 20
133.4020977584285
 30
0.0
 10
45.17684820192167
 20
133.3684788144874
 30
0.0
 10
45.14692979991112
 20
133.3234351005956
 30
0.0
 10
45.11591998715128
 20
133.2814252549317
 30
0.0
 10
45.09351940607664
 20
133.2416811229447
 30
0.0
 10
45.06247954641712
 20
133.192497543676
 30
0.0
 10
45.04579201128251
 20
133.1573366864991
 30
0.0
 10
45.02123731117706
 20
133.1120584740832
 30
0.0
 10
45.00865305220221
 20
133.0803540719768
 30
0.0
 10
44.99422222118423
 20
133.0517353280369
 30
0.0
 10
44.98519106726521
 20
133.028438444968
 30
0.0
 10
44.97980867207891
 20
133.0147299823926
 30
0.0
 10
44.97480515380489
 20
133.0019864842602
 30
0.0
  0
SPLINE
  5
83
330
1F
100
AcDbEntity
  8
0
  6
Continuous
 62
     7
370
    25
100
AcDbSpline
210
0.0
220
0.0
230
1.0
 70
     8
 71
     3
 72
    16
 73
    12
 74
     0
 42
0.00000001
 43
0.00000001
 40
0.0
 40
0.0
 40
0.0
 40
0.0
 40
0.0447640526335078
 40
0.1743656860285118
 40
0.3039859459063053
 40
0.4335982573469861
 40
0.5631281588239454
 40
0.6926706826622397
 40
0.8221760182251981
 40
0.9517534416022893
 40
1.0
 40
1.0
 40
1.0
 40
1.0
 10
46.74681287493989
 20
42.4887291951357
 30
0.0
 10
46.74673221363926
 20
42.49020436541065
 30
0.0
 10
46.74641802039284
 20
42.49595047332246
 30
0.0
 10
46.74146697044585
 20
42.50589969770999
 30
0.0
 10
46.73183495497737
 20
42.51841298743366
 30
0.0
 10
46.71774831205506
 20
42.53058088456514
 30
0.0
 10
46.69979952630847
 20
42.54230519159015
 30
0.0
 10
46.67776063897786
 20
42.55343066496029
 30
0.0
 10
46.65221847126707
 20
42.56388938912328
 30
0.0
 10
46.62961850977022
 20
42.57165904973114
 30
0.0
 10
46.61479922536704
 20
42.57564656358957
 30
0.0
 10
46.61077851081978
 20
42.57672844140105
 30
0.0
  0
SPLINE
  5
84
330
1F
100
AcDbEntity
  8
0
  6
Continuous
 62
     7
370
    25
100
AcDbSpline
210
0.0
220
0.0
230
1.0
 70
     8
 71
     3
 72
    16
 73
    12
 74
     0
 42
0.00000001
 43
0.00000001
 40
0.0
 40
0.0
 40
0.0
 40
0.0
 40
0.0961820794756269
 40
0.2121416929380958
 40
0.3281013072786415
 40
0.4441418097060998
 40
0.5600794194927636
 40
0.6760502952595081
 40
0.7920099308020612
 40
0.9080433090565958
 40
1.0
 40
1.0
 40
1.0
 40
1.0
 10
46.01410746003528
 20
42.58452784136984
 30
0.0
 10
46.00472163797214
 20
42.58226194577099
 30
0.0
 10
45.9840200250215
 20
42.57726422757877
 30
0.0
 10
45.95567071892612
 20
42.56838169110494
 30
0.0
 10
45.92838698901286
 20
42.55830095765722
 30
0.0
 10
45.9048606068019
 20
42.5474380191154
 30
0.0
 10
45.88523216693888
 20
42.53595214736838
 30
0.0
 10
45.86923951515767
 20
42.52399733557073
 30
0.0
 10
45.8577583910952
 20
42.51161794575216
 30
0.0
 10
45.8504352857472
 20
42.4998564394453
 30
0.0
 10
45.84904274685516
 20
42.49220739245656
 30
0.0
 10
45.8484270767464
 20
42.48882559133179
 30
0.0
  0
SPLINE
  5
85
330
1F
100
AcDbEntity
  8
0
  6
Continuous
 62
     7
370
    25
100
AcDbSpline
210
0.0
220
0.0
230
1.0
 70
     8
 71
     3
 72
    41
 73
    37
 74
     0
 42
0.00000001
 43
0.00000001
 40
0.0
 40
0.0
 40
0.0
 40
0.0
 40
0.0063449989790413
 40
0.0367793599732207
 40
0.0672137022522681
 40
0.0976582727474268
 40
0.1280640739574477
 40
0.1585101445442018
 40
0.1889684120195972
 40
0.2193963604468848
 40
0.2498268408463365
 40
0.2802708001482646
 40
0.3107147594501928
 40
0.3411452398496445
 40
0.3715731882769321
 40
0.4020314557523274
 40
0.4324373428543811
 40
0.4629041159338536
 40
0.4933222319060276
 40
0.523756574185075
 40
0.5541909351792544
 40
0.5846090353890226
 40
0.6150757971005665
 40
0.6454816955545667
 40
0.67593996033223
 40
0.7063679087595112
 40
0.7367983957110585
 40
0.7672423542601835
 40
0.7976863110064583
 40
0.8281167946819579
 40
0.8585447495360538
 40
0.889003014313717
 40
0.9194490842620421
 40
0.9498777151406835
 40
0.9802958153504517
 40
1.0
 40
1.0
 40
1.0
 40
1.0
 10
45.60088717513721
 20
40.773641132634
 30
0.0
 10
45.60051524542277
 20
40.77226552349997
 30
0.0
 10
45.59835932122208
 20
40.76429168084211
 30
0.0
 10
45.60105797649142
 20
40.74963836453518
 30
0.0
 10
45.6091229330218
 20
40.72991452080163
 30
0.0
 10
45.62443207865508
 20
40.71052243297286
 30
0.0
 10
45.64621280787576
 20
40.69167051363741
 30
0.0
 10
45.6741399762935
 20
40.67350483348372
 30
0.0
 10
45.70808309114233
 20
40.65621359256004
 30
0.0
 10
45.7478058885663
 20
40.63999758693572
 30
0.0
 10
45.79262848725514
 20
40.62494158707531
 30
0.0
 10
45.84254882021087
 20
40.61129743178613
 30
0.0
 10
45.89662817213619
 20
40.59905885374357
 30
0.0
 10
45.95474540926698
 20
40.58849540171629
 30
0.0
 10
46.01604360547624
 20
40.57957145503558
 30
0.0
 10
46.08009561633354
 20
40.57246459864772
 30
0.0
 10
46.14627693432112
 20
40.5672316327468
 30
0.0
 10
46.21384503655356
 20
40.56386291367981
 30
0.0
 10
46.28225022257136
 20
40.56240776976068
 30
0.0
 10
46.35077629492843
 20
40.56297330932104
 30
0.0
 10
46.41880566226362
 20
40.56541824802408
 30
0.0
 10
46.48565364138924
 20
40.56985518837143
 30
0.0
 10
46.55066864480909
 20
40.57614681256383
 30
0.0
 10
46.61333331655972
 20
40.58422026921782
 30
0.0
 10
46.67290848454699
 20
40.59405263598347
 30
0.0
 10
46.7288069870403
 20
40.60556025114481
 30
0.0
 10
46.78069975278668
 20
40.61854897928704
 30
0.0
 10
46.82772098239527
 20
40.63301641078587
 30
0.0
 10
46.86989334624141
 20
40.64869081039046
 30
0.0
 10
46.90628278042095
 20
40.6655372771985
 30
0.0
 10
46.93703057972036
 20
40.68330658573278
 30
0.0
 10
46.96146788614521
 20
40.70188598815218
 30
0.0
 10
46.97962677839661
 20
40.72106815655388
 30
0.0
 10
46.99088333578224
 20
40.74066361912457
 30
0.0
 10
46.99599932192796
 20
40.75816544640059
 30
0.0
 10
46.9943116602676
 20
40.76905965453186
 30
0.0
 10
46.99364820294368
 20
40.77334240998149
 30
0.0
  0
SPLINE
  5
86
330
1F
100
AcDbEntity
  8
0
  6
Continuous
 62
     7
370
    25
100
AcDbSpline
210
0.0
220
0.0
230
1.0
 70
     8
 71
     3
 72
    13
 73
     9
 74
     0
 42
0.00000001
 43
0.00000001
 40
0.0
 40
0.0
 40
0.0
 40
0.0
 40
0.0199893183116269
 40
0.0308568239208683
 40
0.3440258412472676
 40
0.5154288850608871
 40
0.8315462777901813
 40
0.9999999999999999
 40
0.9999999999999999
 40
0.9999999999999999
 40
0.9999999999999999
 10
46.99364820294368
 20
40.77334240998149
 30
0.0
 10
46.9920090834892
 20
40.78475042867385
 30
0.0
 10
46.98947883110122
 20
40.8023605951932
 30
0.0
 10
46.96101628581359
 20
40.99929007912916
 30
0.0
 10
46.92057878063431
 20
41.28075622100071
 30
0.0
 10
46.8544213564008
 20
41.74102509524553
 30
0.0
 10
46.8006837176726
 20
42.11390756182165
 30
0.0
 10
46.76070935093998
 20
42.39204053077772
 30
0.0
 10
46.74681287493989
 20
42.4887291951357
 30
0.0
  0
SPLINE
  5
87
330
1F
100
AcDbEntity
  8
0
  6
Continuous
 62
     7
370
    25
100
AcDbSpline
210
0.0
220
0.0
230
1.0
 70
     8
 71
     3
 72
    13
 73
     9
 74
     0
 42
0.00000001
 43
0.00000001
 40
0.0
 40
0.0
 40
0.0
 40
0.0
 40
0.1011724914454927
 40
0.484568703659663
 40
0.586233133040552
 40
0.9691411216557653
 40
0.9754752482308063
 40
1.0
 40
1.0
 40
1.0
 40
1.0
 10
45.8484270767464
 20
42.48882559133179
 30
0.0
 10
45.84013263911325
 20
42.43121935258662
 30
0.0
 10
45.80040617953851
 20
42.15531253213934
 30
0.0
 10
45.75153361724659
 20
41.81786729654708
 30
0.0
 10
45.68053268970429
 20
41.3240881170183
 30
0.0
 10
45.63968711934542
 20
41.04080336454989
 30
0.0
 10
45.60547045845218
 20
40.8053395475844
 30
0.0
 10
45.60291672584303
 20
40.78767769463876
 30
0.0
 10
45.60088717513721
 20
40.773641132634
 30
0.0
  0
SPLINE
  5
88
330
1F
100
AcDbEntity
  8
0
  6
Continuous
 62
     7
370
    25
100
AcDbSpline
210
0.0
220
0.0
230
1.0
 70
     8
 71
     3
 72
    99
 73
    95
 74
     0
 42
0.00000001
 43
0.00000001
 40
0.0
 40
0.0
 40
0.0
 40
0.0
 40
0.0036503434178845
 40
0.0172402771531985
 40
0.0239884549676943
 40
0.0258655505245666
 40
0.0443109218035006
 40
0.0503639312718349
 40
0.0646408476188391
 40
0.0728295370522774
 40
0.0849510707900476
 40
0.0958492555833336
 40
0.1052563057191077
 40
0.1176083053292081
 40
0.1255637012359779
 40
0.1385495845548403
 40
0.145863356281906
 40
0.1587805409002736
 40
0.1661651762114359
 40
0.1782784551198697
 40
0.1864675459406976
 40
0.1981605405835009
 40
0.206772013850801
 40
0.2172726467772838
 40
0.2270840723007995
 40
0.2355769728395979
 40
0.2473999923802343
 40
0.2535307681865538
 40
0.2677229476645733
 40
0.2701467632432806
 40
0.2826798253359417
 40
0.2873949902314034
 40
0.2880653085229526
 40
0.3043113318709427
 40
0.3084038817616279
 40
0.3208513668616137
 40
0.3287639391860492
 40
0.3362244751720211
 40
0.3491457122802834
 40
0.3511759189400815
 40
0.3549266370183271
 40
0.3647399892942265
 40
0.3695429712635314
 40
0.3774666202128705
 40
0.3893843469056034
 40
0.3897629615645822
 40
0.3899712854925826
 40
0.4009269121849032
 40
0.4104271711535787
 40
0.4112749296252335
 40
0.4119823172665403
 40
0.4207256962149328
 40
0.4280833919193462
 40
0.4294262652203086
 40
0.4309256023484354
 40
0.4382612324625226
 40
0.4424057963619865
 40
0.4457718882974795
 40
0.4514938963078535
 40
0.4526766191567808
 40
0.4532076134058935
 40
0.4590001654597455
 40
0.4623405502221954
 40
0.4649736203745197
 40
0.4692872798062082
 40
0.4699190227366243
 40
0.4721209567512163
 40
0.4746523920024497
 40
0.4753925992706807
 40
0.4790285359237733
 40
0.4808358807553068
 40
0.4827092701025976
 40
0.4847175968733087
 40
0.5922108282491174
 40
0.6548115467995521
 40
0.7687439068259577
 40
0.830917506898531
 40
0.8797862191374328
 40
0.9771272686211027
 40
0.9777685889858932
 40
0.9797263705581207
 40
0.9800699381444694
 40
0.9815801947796488
 40
0.9832457331955087
 40
0.9836872868567025
 40
0.9861111753368099
 40
0.9873670481290129
 40
0.9893684509079466
 40
0.9923956590273211
 40
0.9932763246461737
 40
0.9956600581929183
 40
0.9976586023197707
 40
0.9986691564007336
 40
1.0
 40
1.0
 40
1.0
 40
1.0
 10
45.61055589922656
 20
38.09853982797153
 30
0.0
 10
45.6149382529311
 20
38.09730177532312
 30
0.0
 10
45.63563575554942
 20
38.0914545526525
 30
0.0
 10
45.66927794097452
 20
38.08505986143506
 30
0.0
 10
45.69730695844764
 20
38.07793220457948
 30
0.0
 10
45.7358763405674
 20
38.07113394820521
 30
0.0
 10
45.77144093658155
 20
38.06346484421441
 30
0.0
 10
45.82995491998012
 20
38.055509580106
 30
0.0
 10
45.87129309208428
 20
38.04858110679646
 30
0.0
 10
45.92576924349029
 20
38.04317119268331
 30
0.0
 10
45.9734679231537
 20
38.03702641439402
 30
0.0
 10
46.02620782280955
 20
38.03358996882393
 30
0.0
 10
46.07811229607201
 20
38.02878748305643
 30
0.0
 10
46.12734951454127
 20
38.02714917421785
 30
0.0
 10
46.18164230735603
 20
38.02384709074174
 30
0.0
 10
46.22879534866536
 20
38.02369765926544
 30
0.0
 10
46.28379865584959
 20
38.02199997629319
 30
0.0
 10
46.32971039680803
 20
38.02320850834556
 30
0.0
 10
46.3836872780887
 20
38.02306017682122
 30
0.0
 10
46.42911678084324
 20
38.02550944873069
 30
0.0
 10
46.48220853753209
 20
38.02680937879772
 30
0.0
 10
46.52789184696353
 20
38.03064340336111
 30
0.0
 10
46.57841435251672
 20
38.03328694849252
 30
0.0
 10
46.62330438371759
 20
38.03842289726559
 30
0.0
 10
46.66963624057795
 20
38.04213701443047
 30
0.0
 10
46.71454449382512
 20
38.04867344084864
 30
0.0
 10
46.75605757945515
 20
38.05313016804333
 30
0.0
 10
46.80166155290516
 20
38.06125320906568
 30
0.0
 10
46.83625093888847
 20
38.06596236672165
 30
0.0
 10
46.87566364573834
 20
38.07421265713232
 30
0.0
 10
46.90263199704304
 20
38.07963570660795
 30
0.0
 10
46.92694378206335
 20
38.08465134721724
 30
0.0
 10
46.95646974801593
 20
38.09069853152502
 30
0.0
 10
46.98091398187957
 20
38.09809397176929
 30
0.0
 10
47.02318961727589
 20
38.10823683362047
 30
0.0
 10
47.04906643005055
 20
38.11746841542851
 30
0.0
 10
47.0829824933834
 20
38.1268854576626
 30
0.0
 10
47.11033289489187
 20
38.13811891056744
 30
0.0
 10
47.13600354620672
 20
38.14625128409491
 30
0.0
 10
47.15247112841462
 20
38.153995597747
 30
0.0
 10
47.16677534570378
 20
38.16044911182113
 30
0.0
 10
47.18283542515089
 20
38.16812806673136
 30
0.0
 10
47.20419387018786
 20
38.17748046954384
 30
0.0
 10
47.22133216855601
 20
38.18855026417461
 30
0.0
 10
47.23754882508032
 20
38.19751522125178
 30
0.0
 10
47.24697446560238
 20
38.20301593575432
 30
0.0
 10
47.25592839955438
 20
38.2082715721527
 30
0.0
 10
47.26548925332592
 20
38.2182025146336
 30
0.0
 10
47.28177411170381
 20
38.22806154903006
 30
0.0
 10
47.28679668508085
 20
38.23343992784557
 30
0.0
 10
47.29176122585368
 20
38.23853283153949
 30
0.0
 10
47.29946101121061
 20
38.24687037187906
 30
0.0
 10
47.30800750272648
 20
38.25578699837278
 30
0.0
 10
47.31267117222226
 20
38.2608695429352
 30
0.0
 10
47.31768239432009
 20
38.26605425014356
 30
0.0
 10
47.32021143486043
 20
38.27275765844994
 30
0.0
 10
47.32545232344475
 20
38.28069883883718
 30
0.0
 10
47.32910821127819
 20
38.28781207113442
 30
0.0
 10
47.33354117791237
 20
38.29348971127619
 30
0.0
 10
47.33446139826794
 20
38.29760033319483
 30
0.0
 10
47.33571766289739
 20
38.30185085097878
 30
0.0
 10
47.33705842355871
 20
38.30754509168913
 30
0.0
 10
47.33883890304133
 20
38.31419372209042
 30
0.0
 10
47.34017447248766
 20
38.32048834612776
 30
0.0
 10
47.34137343243115
 20
38.32509503267089
 30
0.0
 10
47.34228463292894
 20
38.32980049109485
 30
0.0
 10
47.34331844939842
 20
38.33324647887384
 30
0.0
 10
47.34271847501687
 20
38.33683449524756
 30
0.0
 10
47.34254743442585
 20
38.34131148118507
 30
0.0
 10
47.34211620863884
 20
38.34580896124073
 30
0.0
 10
47.34184663274734
 20
38.35057023897339
 30
0.0
 10
47.34130736092133
 20
38.35530665494021
 30
0.0
 10
47.33286510310185
 20
38.43970213623614
 30
0.0
 10
47.27407788336453
 20
38.81748411452465
 30
0.0
 10
47.21512046300737
 20
39.2370259568834
 30
0.0
 10
47.15966599230314
 20
39.61853664333811
 30
0.0
 10
47.10826119467436
 20
39.97688814652765
 30
0.0
 10
47.06305265100707
 20
40.29080745994977
 30
0.0
 10
47.02013906019563
 20
40.59286009096349
 30
0.0
 10
47.00577636229585
 20
40.68919734371398
 30
0.0
 10
47.00548166426251
 20
40.69206514520176
 30
0.0
 10
47.00494725708669
 20
40.69517527572206
 30
0.0
 10
47.00479638755571
 20
40.69767681086655
 30
0.0
 10
47.00350707531007
 20
40.70035875998568
 30
0.0
 10
47.00224848437662
 20
40.70382485801267
 30
0.0
 10
47.00084142483497
 20
40.70699656527454
 30
0.0
 10
46.99924222092471
 20
40.71118251927744
 30
0.0
 10
46.99721402628781
 20
40.71551717916927
 30
0.0
 10
46.99570947790804
 20
40.71927747845853
 30
0.0
 10
46.99363923622813
 20
40.72337206340794
 30
0.0
 10
46.99262526727546
 20
40.72648999631863
 30
0.0
 10
46.98983116930872
 20
40.72979968012532
 30
0.0
 10
46.987985517532
 20
40.73235641526196
 30
0.0
 10
46.9869122185813
 20
40.73369448346271
 30
0.0
 10
46.98630215859417
 20
40.73445503751783
 30
0.0
  0
LWPOLYLINE
  5
89
330
1F
100
AcDbEntity
  8
0
  6
Continuous
 62
     7
370
    25
100
AcDbPolyline
 90
       45
 70
   128
 43
0.0
 10
45.6081966513
 20
40.7348920018
 10
45.6061279327
 20
40.7315466509
 10
45.603316123
 20
40.7267707299
 10
45.5997528793
 20
40.7206617026
 10
45.5948255352
 20
40.711688478
 10
45.594797767
 20
40.7116381862
 10
45.5947395873
 20
40.711525688
 10
45.5921133628
 20
40.7023259224
 10
45.5911819705
 20
40.6985760124
 10
45.5898874056
 20
40.6933625283
 10
45.5888880094
 20
40.688488052
 10
45.5884277496
 20
40.686284823
 10
45.5101269112
 20
40.1448962535
 10
45.4885735015
 20
39.9954039442
 10
45.4639682245
 20
39.8245985699
 10
45.3686166638
 20
39.1642996102
 10
45.3460817704
 20
39.0081026325
 10
45.2522792877
 20
38.3595732532
 10
45.2509334094
 20
38.3520685644
 10
45.2509404083
 20
38.3513027393
 10
45.2509532833
 20
38.3510817942
 10
45.2515164187
 20
38.3403268245
 10
45.2519291066
 20
38.3356165663
 10
45.2526410645
 20
38.3275680323
 10
45.2539931795
 20
38.3154803436
 10
45.2541263797
 20
38.3143381778
 10
45.2544193439
 20
38.3121110926
 10
45.260063841
 20
38.2984582516
 10
45.2677444087
 20
38.2810744683
 10
45.2684988327
 20
38.2793622515
 10
45.2692125786
 20
38.2778211816
 10
45.2830174243
 20
38.2599917702
 10
45.2941217978
 20
38.2460252867
 10
45.3073013346
 20
38.2344190828
 10
45.3282241407
 20
38.2163493097
 10
45.3498204508
 20
38.2022449284
 10
45.3713704209
 20
38.1883362431
 10
45.4102417385
 20
38.168529258
 10
45.4228338668
 20
38.1621140878
 10
45.4369738365
 20
38.156294975
 10
45.4824679882
 20
38.1377243672
 10
45.5121556483
 20
38.1277979099
 10
45.5497078206
 20
38.1152474716
 10
45.6105558992
 20
38.098539828
 10
45.6105558992
 20
38.098539828
  0
LINE
  5
8A
330
1F
100
AcDbEntity
  8
0
  6
Continuous
 62
     7
370
    25
100
AcDbLine
 10
50.7073583444
 20
38.1353539342
 30
0.0
 11
50.7073630627
 21
38.1353006239
 31
0.0
  0
SPLINE
  5
8B
330
1F
100
AcDbEntity
  8
0
  6
Continuous
 62
     7
370
    25
100
AcDbSpline
210
0.0
220
0.0
230
1.0
 70
     8
 71
     3
 72
    16
 73
    12
 74
     0
 42
0.00000001
 43
0.00000001
 40
0.0
 40
0.0
 40
0.0
 40
0.0
 40
0.0778800962904677
 40
0.2670762988275671
 40
0.4564623754750724
 40
0.495491896034797
 40
0.6396848175180435
 40
0.8202434991510972
 40
0.8245523425838795
 40
0.94654442571836
 40
1.0
 40
1.0
 40
1.0
 40
1.0
 10
45.25764700380022
 20
39.49867435540281
 30
0.0
 10
45.2512426338178
 20
39.50218141893747
 30
0.0
 10
45.22927995641117
 20
39.51420828579053
 30
0.0
 10
45.17109104791296
 20
39.5305020923755
 30
0.0
 10
45.11251973892065
 20
39.5438277422644
 30
0.0
 10
45.05090503192266
 20
39.55018493016469
 30
0.0
 10
44.99304437331818
 20
39.55776385889906
 30
0.0
 10
44.93451994146204
 20
39.56089488539828
 30
0.0
 10
44.88096950987134
 20
39.55968165168139
 30
0.0
 10
44.84959530741651
 20
39.5589905055258
 30
0.0
 10
44.81896665342541
 20
39.55834022849921
 30
0.0
 10
44.80963468335137
 20
39.55814210142011
 30
0.0
  0
LINE
  5
8C
330
1F
100
AcDbEntity
  8
0
  6
Continuous
 62
     7
370
    25
100
AcDbLine
 10
45.2576470038
 20
39.4986743554
 30
0.0
 11
44.8105349275
 21
39.5582236283
 31
0.0
  0
LINE
  5
8D
330
1F
100
AcDbEntity
  8
0
  6
Continuous
 62
     7
370
    25
100
AcDbLine
 10
44.8105349275
 20
39.5582236283
 30
0.0
 11
44.8096346834
 21
39.5581421014
 31
0.0
  0
SPLINE
  5
8E
330
1F
100
AcDbEntity
  8
0
  6
Continuous
 62
     7
370
    25
100
AcDbSpline
210
0.0
220
0.0
230
1.0
 70
     8
 71
     3
 72
    13
 73
     9
 74
     0
 42
0.00000001
 43
0.00000001
 40
0.0
 40
0.0
 40
0.0
 40
0.0
 40
0.0065208369875657
 40
0.4997787776031225
 40
0.5156845353947054
 40
0.5262315797983873
 40
0.5643367520641106
 40
1.0
 40
1.0
 40
1.0
 40
1.0
 10
45.33891884825854
 20
39.43131739061453
 30
0.0
 10
45.33895206619502
 20
39.43119113765049
 30
0.0
 10
45.34149800005517
 20
39.42151468780872
 30
0.0
 10
45.33610436088951
 20
39.41118108450402
 30
0.0
 10
45.32399539160653
 20
39.40172468312133
 30
0.0
 10
45.32240623519195
 20
39.40055901973594
 30
0.0
 10
45.31107236201043
 20
39.39174923472797
 30
0.0
 10
45.29963815203896
 20
39.38316966192699
 30
0.0
 10
45.28912359505006
 20
39.37528014377214
 30
0.0
  0
SPLINE
  5
8F
330
1F
100
AcDbEntity
  8
0
  6
Continuous
 62
     7
370
    25
100
AcDbSpline
210
0.0
220
0.0
230
1.0
 70
     8
 71
     3
 72
    13
 73
     9
 74
     0
 42
0.00000001
 43
0.00000001
 40
0.0
 40
0.0
 40
0.0
 40
0.0
 40
0.1015039892887693
 40
0.1926066289641233
 40
0.3062395517177509
 40
0.7441026504737716
 40
0.9945945723997024
 40
1.0
 40
1.0
 40
1.0
 40
1.0
 10
45.31774901756594
 20
39.43923327103921
 30
0.0
 10
45.31718814486124
 20
39.44135177440283
 30
0.0
 10
45.316123873381
 20
39.44537169316833
 30
0.0
 10
45.31444880087425
 20
39.4517641380645
 30
0.0
 10
45.31188826323807
 20
39.46519347157047
 30
0.0
 10
45.29401901401717
 20
39.48169320911317
 30
0.0
 10
45.26689885422508
 20
39.49390625505788
 30
0.0
 10
45.25783839176857
 20
39.49857572031944
 30
0.0
 10
45.25764700380022
 20
39.49867435540281
 30
0.0
  0
SPLINE
  5
90
330
1F
100
AcDbEntity
  8
0
  6
Continuous
 62
     7
370
    25
100
AcDbSpline
210
0.0
220
0.0
230
1.0
 70
     8
 71
     3
 72
    11
 73
     7
 74
     0
 42
0.00000001
 43
0.00000001
 40
0.0
 40
0.0
 40
0.0
 40
0.0
 40
0.0086534165768786
 40
0.5086316246296837
 40
0.9987489509234075
 40
1.0
 40
1.0
 40
1.0
 40
1.0
 10
45.2772511578145
 20
39.37020334502396
 30
0.0
 10
45.27721591002143
 20
39.37191844247084
 30
0.0
 10
45.27514411073941
 20
39.47272865922749
 30
0.0
 10
44.70843143354947
 20
39.35532510297549
 30
0.0
 10
45.21485273115678
 20
39.41708451732183
 30
0.0
 10
45.24398175872097
 20
39.35610083009927
 30
0.0
 10
45.24405592271862
 20
39.35594556250491
 30
0.0
  0
LINE
  5
91
330
1F
100
AcDbEntity
  8
0
  6
Continuous
 62
     7
370
    25
100
AcDbLine
 10
50.7074559724
 20
38.1352532208
 30
0.0
 11
50.7073583444
 21
38.1353539342
 31
0.0
  0
LINE
  5
92
330
1F
100
AcDbEntity
  8
0
  6
Continuous
 62
     7
370
    25
100
AcDbLine
 10
50.3643738742
 20
38.0389113622
 30
0.0
 11
50.7074559724
 21
38.1352532208
 31
0.0
  0
SPLINE
  5
93
330
1F
100
AcDbEntity
  8
0
  6
Continuous
 62
     7
370
    25
100
AcDbSpline
210
0.0
220
0.0
230
1.0
 70
     8
 71
     3
 72
    25
 73
    21
 74
     0
 42
0.00000001
 43
0.00000001
 40
0.0
 40
0.0
 40
0.0
 40
0.0
 40
0.0567388309451851
 40
0.1286760375394451
 40
0.1707763024130374
 40
0.2927734218659316
 40
0.366197951584323
 40
0.5642275032942197
 40
0.6124543084272213
 40
0.6209687417166706
 40
0.6361755005537727
 40
0.6589848541586664
 40
0.6864444090023327
 40
0.694613078224374
 40
0.7496584485265346
 40
0.8368124599989928
 40
0.8791321437620506
 40
0.9391736856402895
 40
0.9397396343396452
 40
1.0
 40
1.0
 40
1.0
 40
1.0
 10
44.97507512535614
 20
39.3995740558634
 30
0.0
 10
44.9700208820977
 20
39.39809248351165
 30
0.0
 10
44.958558538154
 20
39.39473247668079
 30
0.0
 10
44.94730704315583
 20
39.38697438404321
 30
0.0
 10
44.91439850807147
 20
39.39070685817659
 30
0.0
 10
44.88419048833054
 20
39.39114215742244
 30
0.0
 10
44.83577657317174
 20
39.39515359153682
 30
0.0
 10
44.77593546591203
 20
39.39095435187287
 30
0.0
 10
44.76839734739371
 20
39.40139955704782
 30
0.0
 10
44.76526653948969
 20
39.40397490851077
 30
0.0
 10
44.76322882547638
 20
39.40565340096973
 30
0.0
 10
44.76037078941566
 20
39.40800928487326
 30
0.0
 10
44.75780713363837
 20
39.41011271164164
 30
0.0
 10
44.75378921378631
 20
39.41337144410022
 30
0.0
 10
44.74731223284757
 20
39.41879460461701
 30
0.0
 10
44.73934501315798
 20
39.42544842208883
 30
0.0
 10
44.73071250567126
 20
39.43223367778815
 30
0.0
 10
44.72688907211943
 20
39.43601364395006
 30
0.0
 10
44.72071844807387
 20
39.44026597263835
 30
0.0
 10
44.71828590431839
 20
39.44248102205083
 30
0.0
 10
44.71587599377667
 20
39.44467546189085
 30
0.0
  0
SPLINE
  5
94
330
1F
100
AcDbEntity
  8
0
  6
Continuous
 62
     7
370
    25
100
AcDbSpline
210
0.0
220
0.0
230
1.0
 70
     8
 71
     3
 72
    14
 73
    10
 74
     0
 42
0.00000001
 43
0.00000001
 40
0.0
 40
0.0
 40
0.0
 40
0.0
 40
0.0000885199459251
 40
0.4051672456316446
 40
0.5033448431607872
 40
0.6213200388934211
 40
0.6996961042700992
 40
0.7021705581737244
 40
1.0
 40
1.0
 40
1.0
 40
1.0
 10
45.05397689117978
 20
39.42622782848321
 30
0.0
 10
45.05397689216736
 20
39.42623125191366
 30
0.0
 10
45.05398141249243
 20
39.44190073601737
 30
0.0
 10
45.02896174802896
 20
39.41613374395867
 30
0.0
 10
45.01390768231231
 20
39.41293644223082
 30
0.0
 10
45.00596557160637
 20
39.40996571238377
 30
0.0
 10
45.00076830568349
 20
39.40825700862185
 30
0.0
 10
44.99080727859466
 20
39.40488984248148
 30
0.0
 10
44.98290866032829
 20
39.40222095357319
 30
0.0
 10
44.97507512535614
 20
39.3995740558634
 30
0.0
  0
SPLINE
  5
95
330
1F
100
AcDbEntity
  8
0
  6
Continuous
 62
     7
370
    25
100
AcDbSpline
210
0.0
220
0.0
230
1.0
 70
     8
 71
     3
 72
     9
 73
     5
 74
     0
 42
0.00000001
 43
0.00000001
 40
0.0
 40
0.0
 40
0.0
 40
0.0
 40
0.5257513191376185
 40
1.0
 40
1.0
 40
1.0
 40
1.0
 10
49.87214956578276
 20
37.99440840320253
 30
0.0
 10
49.87213492581713
 20
37.99444011321495
 30
0.0
 10
49.872107080018
 20
37.99450042692462
 30
0.0
 10
49.87214732939173
 20
37.9945600806136
 30
0.0
 10
49.87216641760412
 20
37.9945883712969
 30
0.0
  0
SPLINE
  5
96
330
1F
100
AcDbEntity
  8
0
  6
Continuous
 62
     7
370
    25
100
AcDbSpline
210
0.0
220
0.0
230
1.0
 70
     8
 71
     3
 72
    24
 73
    20
 74
     0
 42
0.00000001
 43
0.00000001
 40
0.0
 40
0.0
 40
0.0
 40
0.0
 40
0.0436140204867613
 40
0.1266309231854336
 40
0.1634313327292505
 40
0.3274962511959992
 40
0.3604488286016685
 40
0.3980530109167633
 40
0.4970796168239264
 40
0.5722487359536002
 40
0.6506949316311286
 40
0.6549882347649219
 40
0.6664937102649882
 40
0.7213426724522528
 40
0.8307192391326998
 40
0.9316130239364298
 40
0.9748477976516957
 40
0.992398167914722
 40
1.0
 40
1.0
 40
1.0
 40
1.0
 10
44.81053492747673
 20
39.55822362827798
 30
0.0
 10
44.80237920882826
 20
39.55750474176676
 30
0.0
 10
44.77869952577748
 20
39.55541749409811
 30
0.0
 10
44.7482050348601
 20
39.55264505180634
 30
0.0
 10
44.69486212488039
 20
39.54826028232724
 30
0.0
 10
44.65358224728136
 20
39.54152085775267
 30
0.0
 10
44.62047642762415
 20
39.53232459849213
 30
0.0
 10
44.59627507339297
 20
39.52577936243245
 30
0.0
 10
44.56270960348894
 20
39.51840930544407
 30
0.0
 10
44.53782301225193
 20
39.5058618367749
 30
0.0
 10
44.51986534479082
 20
39.49860748645581
 30
0.0
 10
44.50968690593455
 20
39.49415808816654
 30
0.0
 10
44.50161387826207
 20
39.49088918061556
 30
0.0
 10
44.49361133483495
 20
39.48098326158001
 30
0.0
 10
44.46825429890198
 20
39.46764912053737
 30
0.0
 10
44.4654353440171
 20
39.45301534654503
 30
0.0
 10
44.46160259778532
 20
39.44397383786129
 30
0.0
 10
44.45843261474202
 20
39.44014844415431
 30
0.0
 10
44.45898589207187
 20
39.4387251634606
 30
0.0
 10
44.45915311088238
 20
39.43829500069815
 30
0.0
  0
SPLINE
  5
97
330
1F
100
AcDbEntity
  8
0
  6
Continuous
 62
     7
370
    25
100
AcDbSpline
210
0.0
220
0.0
230
1.0
 70
     8
 71
     3
 72
     9
 73
     5
 74
     0
 42
0.00000001
 43
0.00000001
 40
0.0
 40
0.0
 40
0.0
 40
0.0
 40
0.5222839421221078
 40
0.9999999999999999
 40
0.9999999999999999
 40
0.9999999999999999
 40
0.9999999999999999
 10
44.45001133329945
 20
39.34301908347009
 30
0.0
 10
44.449862440146
 20
39.34334333874173
 30
0.0
 10
44.44957735928971
 20
39.34396417971633
 30
0.0
 10
44.44998907679781
 20
39.34457839702741
 30
0.0
 10
44.45018576086274
 20
39.34487181849993
 30
0.0
  0
SPLINE
  5
98
330
1F
100
AcDbEntity
  8
0
  6
Continuous
 62
     7
370
    25
100
AcDbSpline
210
0.0
220
0.0
230
1.0
 70
     8
 71
     3
 72
    16
 73
    12
 74
     0
 42
0.00000001
 43
0.00000001
 40
0.0
 40
0.0
 40
0.0
 40
0.0
 40
0.0324990464844471
 40
0.4678217497427387
 40
0.8535418887306855
 40
0.8602197844824347
 40
0.87960719334266
 40
0.8984733484528866
 40
0.9298477297331003
 40
0.998671229054183
 40
1.0
 40
1.0
 40
1.0
 40
1.0
 10
50.75313432183857
 20
38.06474379527764
 30
0.0
 10
50.75416561250796
 20
38.07909842567371
 30
0.0
 10
50.76901097745344
 20
38.28573243605948
 30
0.0
 10
49.9749996755998
 20
37.76509258912837
 30
0.0
 10
50.94935608632294
 20
38.08631223552995
 30
0.0
 10
50.73441235002205
 20
38.08110825355488
 30
0.0
 10
50.74295117245352
 20
38.08993710308549
 30
0.0
 10
50.73637236965364
 20
38.09789967829709
 30
0.0
 10
50.73763376616543
 20
38.11428068507011
 30
0.0
 10
50.71606361436301
 20
38.12632405020228
 30
0.0
 10
50.7075201678515
 20
38.13518607648214
 30
0.0
 10
50.70735834438579
 20
38.1353539342435
 30
0.0
  0
LINE
  5
99
330
1F
100
AcDbEntity
  8
0
  6
Continuous
 62
     7
370
    25
100
AcDbLine
 10
50.7073583444
 20
38.1353539342
 30
0.0
 11
50.3643738742
 21
38.0389113622
 31
0.0
  0
SPLINE
  5
9A
330
1F
100
AcDbEntity
  8
0
  6
Continuous
 62
     7
370
    25
100
AcDbSpline
210
0.0
220
0.0
230
1.0
 70
     8
 71
     3
 72
    38
 73
    34
 74
     0
 42
0.00000001
 43
0.00000001
 40
0.0
 40
0.0
 40
0.0
 40
0.0
 40
0.0399670127277605
 40
0.0828172436710885
 40
0.1048215691716438
 40
0.1118461016269709
 40
0.1322061365784981
 40
0.1522238902162983
 40
0.1523960616493242
 40
0.1604565040887518
 40
0.1684217921169057
 40
0.2539389130971624
 40
0.2680139879366882
 40
0.2934137134374409
 40
0.3099667722806177
 40
0.3368372693071595
 40
0.4184500377313246
 40
0.43025727937716
 40
0.4997004870766862
 40
0.5435864488234264
 40
0.5813132776283304
 40
0.6090290078334484
 40
0.6453194404532625
 40
0.6641306341676574
 40
0.7497333748270778
 40
0.8289200951506431
 40
0.8352509013242911
 40
0.8473921667715615
 40
0.8700708346630984
 40
0.9089203238152402
 40
0.9181492933468655
 40
0.9997620617710307
 40
1.0
 40
1.0
 40
1.0
 40
1.0
 10
50.70745597243481
 20
38.13525322084605
 30
0.0
 10
50.69954383075915
 20
38.1390998123038
 30
0.0
 10
50.68314876591965
 20
38.14707048812664
 30
0.0
 10
50.66666773971382
 20
38.15808163554697
 30
0.0
 10
50.64619126219048
 20
38.16366561447319
 30
0.0
 10
50.63348312612235
 20
38.16781017288951
 30
0.0
 10
50.62054606337175
 20
38.17158571614737
 30
0.0
 10
50.61087361316742
 20
38.17522611429096
 30
0.0
 10
50.60255354813385
 20
38.1772883663765
 30
0.0
 10
50.59867077529848
 20
38.17873757728812
 30
0.0
 10
50.57146801851184
 20
38.18695613692979
 30
0.0
 10
50.53589990065808
 20
38.19410430913398
 30
0.0
 10
50.49045468849835
 20
38.19893020440167
 30
0.0
 10
50.4702706829079
 20
38.201245693857
 30
0.0
 10
50.44528954185373
 20
38.20395147166032
 30
0.0
 10
50.40062684212242
 20
38.20933991436329
 30
0.0
 10
50.35292287682025
 20
38.21150546471083
 30
0.0
 10
50.29020135669684
 20
38.20979288903294
 30
0.0
 10
50.24060783937199
 20
38.21054657723395
 30
0.0
 10
50.18592535841189
 20
38.20411821551782
 30
0.0
 10
50.14380803908205
 20
38.2017519307557
 30
0.0
 10
50.11056055087463
 20
38.19540494288212
 30
0.0
 10
50.08252841495636
 20
38.19094444587326
 30
0.0
 10
50.03482646051756
 20
38.18329437984397
 30
0.0
 10
49.98215424764224
 20
38.16854894516744
 30
0.0
 10
49.94984359398889
 20
38.15181138391345
 30
0.0
 10
49.92748248059273
 20
38.1428967472176
 30
0.0
 10
49.92300562416895
 20
38.13839538653922
 30
0.0
 10
49.91205245586264
 20
38.13078768447614
 30
0.0
 10
49.90269332754769
 20
38.12330293493834
 30
0.0
 10
49.88425269803476
 20
38.10977196509021
 30
0.0
 10
49.87876330963477
 20
38.09920927157236
 30
0.0
 10
49.88119229348952
 20
38.09004401644842
 30
0.0
 10
49.88119935449291
 20
38.09001737325056
 30
0.0
  0
LINE
  5
9B
330
1F
100
AcDbEntity
  8
0
  6
Continuous
 62
     7
370
    25
100
AcDbLine
 10
49.8868005301
 20
38.0454037951
 30
0.0
 11
49.8867785563
 21
38.0454247975
 31
0.0
  0
SPLINE
  5
9C
330
1F
100
AcDbEntity
  8
0
  6
Continuous
 62
     7
370
    25
100
AcDbSpline
210
0.0
220
0.0
230
1.0
 70
     8
 71
     3
 72
    21
 73
    17
 74
     0
 42
0.00000001
 43
0.00000001
 40
0.0
 40
0.0
 40
0.0
 40
0.0
 40
0.0082428994785546
 40
0.0378167301978314
 40
0.0598434591427732
 40
0.1096345021498959
 40
0.1355883037072483
 40
0.1602331727988727
 40
0.1676689220747886
 40
0.2421048310908941
 40
0.2628226888042192
 40
0.3403774701291161
 40
0.3599819697291843
 40
0.3602993362658029
 40
0.9989111485158015
 40
0.9999999999999999
 40
0.9999999999999999
 40
0.9999999999999999
 40
0.9999999999999999
 10
50.36437387420997
 20
38.03891136224803
 30
0.0
 10
50.36317396421994
 20
38.03898143916179
 30
0.0
 10
50.35766902357705
 20
38.03930293765242
 30
0.0
 10
50.34892045650128
 20
38.0397556138401
 30
0.0
 10
50.33413270065662
 20
38.04057530223017
 30
0.0
 10
50.31985775707241
 20
38.04134281364007
 30
0.0
 10
50.30521007376072
 20
38.04214459337435
 30
0.0
 10
50.29672013110349
 20
38.04257537605017
 30
0.0
 10
50.28124840881199
 20
38.04352985911964
 30
0.0
 10
50.26621169471832
 20
38.04423342715775
 30
0.0
 10
50.24104306826106
 20
38.04570281942678
 30
0.0
 10
50.22371074457596
 20
38.04611061120419
 30
0.0
 10
50.20964807499944
 20
38.0475951490421
 30
0.0
 10
50.11216777266628
 20
38.04535660779451
 30
0.0
 10
49.92012411119721
 20
38.08618817687733
 30
0.0
 10
49.9651237243714
 20
38.00379094250648
 30
0.0
 10
49.96520031940775
 20
38.00365069198615
 30
0.0
  0
SPLINE
  5
9D
330
1F
100
AcDbEntity
  8
0
  6
Continuous
 62
     7
370
    25
100
AcDbSpline
210
0.0
220
0.0
230
1.0
 70
     8
 71
     3
 72
    28
 73
    24
 74
     0
 42
0.00000001
 43
0.00000001
 40
0.0
 40
0.0
 40
0.0
 40
0.0
 40
0.0038453931967019
 40
0.6007109360350247
 40
0.6257620468442964
 40
0.6305400521508422
 40
0.6318090803973972
 40
0.6388277200983565
 40
0.6453608792881678
 40
0.6476011711230272
 40
0.7572013282660202
 40
0.7881106173823141
 40
0.8758717975708549
 40
0.8784101655213232
 40
0.8798699077171268
 40
0.8951758205244118
 40
0.9034635633244046
 40
0.9195524091900231
 40
0.9426602824243541
 40
0.9565086346427016
 40
0.9783476941359137
 40
0.9928708561209814
 40
1.0
 40
1.0
 40
1.0
 40
1.0
 10
50.0412698262378
 20
37.98245802895894
 30
0.0
 10
50.04135621087792
 20
37.98298068945001
 30
0.0
 10
50.05485085118323
 20
38.06462848377392
 30
0.0
 10
50.32470450316988
 20
38.05075043688673
 30
0.0
 10
50.1959547226738
 20
38.04717459607573
 30
0.0
 10
50.19473316247888
 20
38.04859441243255
 30
0.0
 10
50.19409562320087
 20
38.04914176582682
 30
0.0
 10
50.19330051566253
 20
38.04976040147673
 30
0.0
 10
50.19252710458905
 20
38.05042465098058
 30
0.0
 10
50.18617915874996
 20
38.05535090237596
 30
0.0
 10
50.17923964543157
 20
38.06136537440546
 30
0.0
 10
50.16769434485557
 20
38.07093725393404
 30
0.0
 10
50.16099279267792
 20
38.07595951301145
 30
0.0
 10
50.15689801635092
 20
38.07986450798726
 30
0.0
 10
50.15570089379363
 20
38.0806494399685
 30
0.0
 10
50.15460079860692
 20
38.08171873811342
 30
0.0
 10
50.15252831786196
 20
38.08337553190202
 30
0.0
 10
50.15015118848633
 20
38.08536928468804
 30
0.0
 10
50.14741557792902
 20
38.08758805221647
 30
0.0
 10
50.14447026626419
 20
38.09005627838582
 30
0.0
 10
50.14192905373367
 20
38.09216140132393
 30
0.0
 10
50.13959515600496
 20
38.09397150473689
 30
0.0
 10
50.13857998581032
 20
38.09488725445192
 30
0.0
 10
50.13824573529563
 20
38.09518877021272
 30
0.0
  0
SPLINE
  5
9E
330
1F
100
AcDbEntity
  8
0
  6
Continuous
 62
     7
370
    25
100
AcDbSpline
210
0.0
220
0.0
230
1.0
 70
     8
 71
     3
 72
    11
 73
     7
 74
     0
 42
0.00000001
 43
0.00000001
 40
0.0
 40
0.0
 40
0.0
 40
0.0
 40
0.0371723968255089
 40
0.4357388657212703
 40
0.8527765785419469
 40
1.0
 40
1.0
 40
1.0
 40
1.0
 10
50.47634539613803
 20
38.07039623256725
 30
0.0
 10
50.47641594699981
 20
38.07264139854623
 30
0.0
 10
50.47724295185053
 20
38.09895947756686
 30
0.0
 10
50.42227727658526
 20
38.04818969998429
 30
0.0
 10
50.39248491787914
 20
38.04919031649259
 30
0.0
 10
50.37019073136641
 20
38.04103832733912
 30
0.0
 10
50.36437387420997
 20
38.03891136224803
 30
0.0
  0
SPLINE
  5
9F
330
1F
100
AcDbEntity
  8
0
  6
Continuous
 62
     7
370
    25
100
AcDbSpline
210
0.0
220
0.0
230
1.0
 70
     8
 71
     3
 72
    34
 73
    30
 74
     0
 42
0.00000001
 43
0.00000001
 40
0.0
 40
0.0
 40
0.0
 40
0.0
 40
0.0003437601658278
 40
0.0466216686319589
 40
0.0892652258490328
 40
0.1510293920547021
 40
0.1784429735084107
 40
0.1834715753505941
 40
0.1893961057430286
 40
0.2282897840206547
 40
0.264871381668234
 40
0.3499443957508773
 40
0.3944804972205493
 40
0.4200599551492535
 40
0.4346421460501612
 40
0.4891562754312795
 40
0.5197150762646389
 40
0.6061433960358933
 40
0.6422962308971655
 40
0.6592435756616197
 40
0.695321051423434
 40
0.716519944720194
 40
0.7844988619454266
 40
0.870927181716681
 40
0.9109495262044499
 40
0.9170520633870991
 40
0.9560725347557644
 40
0.9704116505123134
 40
1.0
 40
1.0
 40
1.0
 40
1.0
 10
45.28912359505006
 20
39.37528014377214
 30
0.0
 10
45.28903673493338
 20
39.37525081521254
 30
0.0
 10
45.2772565347248
 20
39.371273197898
 30
0.0
 10
45.25947142324964
 20
39.36263611693089
 30
0.0
 10
45.22940807030209
 20
39.34784585215895
 30
0.0
 10
45.18607989132847
 20
39.33948969526416
 30
0.0
 10
45.16260682015701
 20
39.33104217178978
 30
0.0
 10
45.14939035108801
 20
39.32902488561916
 30
0.0
 10
45.13273520030233
 20
39.32618626779415
 30
0.0
 10
45.10495337721868
 20
39.32182693162719
 30
0.0
 10
45.05203677067691
 20
39.31228100675182
 30
0.0
 10
44.98848542156752
 20
39.30693272766511
 30
0.0
 10
44.92834360898377
 20
39.30615247055371
 30
0.0
 10
44.89559782511277
 20
39.30550959722179
 30
0.0
 10
44.85893392644147
 20
39.30435313240307
 30
0.0
 10
44.82088409998509
 20
39.30756700350543
 30
0.0
 10
44.7547513441127
 20
39.30938168932919
 30
0.0
 10
44.69768122590857
 20
39.31594190622827
 30
0.0
 10
44.65369741911684
 20
39.325089255604
 30
0.0
 10
44.62539723318427
 20
39.33083554402671
 30
0.0
 10
44.5992788434103
 20
39.33474929415094
 30
0.0
 10
44.56840151230976
 20
39.34579267148757
 30
0.0
 10
44.51796136987846
 20
39.35909163012378
 30
0.0
 10
44.47941823228476
 20
39.37862196430678
 30
0.0
 10
44.46635761519958
 20
39.39305632845299
 30
0.0
 10
44.45683277070886
 20
39.40222187868623
 30
0.0
 10
44.44704781649423
 20
39.40845879216667
 30
0.0
 10
44.44589051454585
 20
39.41783320305274
 30
0.0
 10
44.44438872318236
 20
39.42274972594652
 30
0.0
 10
44.44337715724123
 20
39.42606136245541
 30
0.0
  0
SPLINE
  5
A0
330
1F
100
AcDbEntity
  8
0
  6
Continuous
 62
     7
370
    25
100
AcDbSpline
210
0.0
220
0.0
230
1.0
 70
     8
 71
     3
 72
    38
 73
    34
 74
     0
 42
0.00000001
 43
0.00000001
 40
0.0
 40
0.0
 40
0.0
 40
0.0
 40
0.000012751675271
 40
0.0153014791917937
 40
0.0337528286382527
 40
0.0652125826908041
 40
0.0731876066542166
 40
0.0982382679459602
 40
0.1080200839963086
 40
0.1298107922738548
 40
0.1415995868637291
 40
0.197816806641649
 40
0.3007921722578342
 40
0.3285311232177738
 40
0.4036691683033757
 40
0.4136710516148586
 40
0.4334546849164385
 40
0.4574726791936011
 40
0.4877915218517413
 40
0.5033413211337799
 40
0.5467597718501148
 40
0.5748360825862064
 40
0.6014832230550476
 40
0.6035860916724056
 40
0.6497768945392087
 40
0.6991920589293222
 40
0.7110979664147847
 40
0.7938975802444815
 40
0.7974176423775837
 40
0.8971229230087803
 40
0.912185447273311
 40
0.9560926062556709
 40
1.0
 40
1.0
 40
1.0
 40
1.0
 10
50.76138611824481
 20
38.08145555701205
 30
0.0
 10
50.76138644636389
 20
38.08145431713452
 30
0.0
 10
50.76178017559501
 20
38.0799665157334
 30
0.0
 10
50.75846493183042
 20
38.07672392490553
 30
0.0
 10
50.75628334907587
 20
38.07042380843487
 30
0.0
 10
50.75329138191137
 20
38.06483031225538
 30
0.0
 10
50.74989189709763
 20
38.05863037723729
 30
0.0
 10
50.74978555000056
 20
38.0543536703719
 30
0.0
 10
50.74209624316807
 20
38.04926673966526
 30
0.0
 10
50.73720100834385
 20
38.04529387033241
 30
0.0
 10
50.72621247917726
 20
38.03713475896167
 30
0.0
 10
50.70810420918179
 20
38.02134564662686
 30
0.0
 10
50.6728778548651
 20
38.00548469689429
 30
0.0
 10
50.6202997994604
 20
37.99248247222754
 30
0.0
 10
50.59650445913281
 20
37.98342667242922
 30
0.0
 10
50.56543355671362
 20
37.97852995480122
 30
0.0
 10
50.54981648167735
 20
37.97589338760682
 30
0.0
 10
50.52813489387568
 20
37.97232270862015
 30
0.0
 10
50.50755939530356
 20
37.9690557571506
 30
0.0
 10
50.48207161295669
 20
37.96437337166171
 30
0.0
 10
50.45258889816507
 20
37.96283731883568
 30
0.0
 10
50.42113398342065
 20
37.96017993912203
 30
0.0
 10
50.40331375357482
 20
37.95781338483906
 30
0.0
 10
50.37814446664839
 20
37.95732163508921
 30
0.0
 10
50.34547031682712
 20
37.95687776977562
 30
0.0
 10
50.30926102840152
 20
37.95481851097474
 30
0.0
 10
50.26128810432522
 20
37.9570921651488
 30
0.0
 10
50.22859407315656
 20
37.95833402345657
 30
0.0
 10
50.16667754942515
 20
37.9609087017531
 30
0.0
 10
50.12795291504541
 20
37.96524761458808
 30
0.0
 10
50.08424295222896
 20
37.97410879341759
 30
0.0
 10
50.05541190673704
 20
37.97966623315021
 30
0.0
 10
50.03095834609726
 20
37.98446965067813
 30
0.0
 10
50.0187315330905
 20
37.98687136586278
 30
0.0
  0
SPLINE
  5
A1
330
1F
100
AcDbEntity
  8
0
  6
Continuous
 62
     7
370
    25
100
AcDbSpline
210
0.0
220
0.0
230
1.0
 70
     8
 71
     3
 72
    20
 73
    16
 74
     0
 42
0.00000001
 43
0.00000001
 40
0.0
 40
0.0
 40
0.0
 40
0.0
 40
0.0005625043565936
 40
0.0451572046130662
 40
0.2613192603984548
 40
0.268008693298049
 40
0.3079081281755479
 40
0.3712961246523863
 40
0.4343625641496828
 40
0.514550039958701
 40
0.7638091058291409
 40
0.7684379618614466
 40
0.8036855588258565
 40
0.9925646999856845
 40
1.0
 40
1.0
 40
1.0
 40
1.0
 10
50.0187315330905
 20
37.98687136586278
 30
0.0
 10
50.01870282281055
 20
37.98689130762658
 30
0.0
 10
50.016397994465
 20
37.98849220955316
 30
0.0
 10
49.98750966495063
 20
37.9948609920306
 30
0.0
 10
49.961841067753
 20
38.0019538593956
 30
0.0
 10
49.94474541132394
 20
38.01074820390515
 30
0.0
 10
49.93759564905867
 20
38.01442685913134
 30
0.0
 10
49.92666036649337
 20
38.01997270563298
 30
0.0
 10
49.91317925997264
 20
38.0268830442488
 30
0.0
 10
49.88634160588746
 20
38.03976304996196
 30
0.0
 10
49.87207530028822
 20
38.05242686641406
 30
0.0
 10
49.86920966658646
 20
38.06349668869136
 30
0.0
 10
49.86689842898505
 20
38.07225456218907
 30
0.0
 10
49.86424885871248
 20
38.08111296891264
 30
0.0
 10
49.86250683960884
 20
38.08863365047645
 30
0.0
 10
49.86244086160647
 20
38.0889184920979
 30
0.0
  0
LINE
  5
A2
330
1F
100
AcDbEntity
  8
0
  6
Continuous
 62
     7
370
    25
100
AcDbLine
 10
43.2890619534
 20
37.4958588566
 30
0.0
 11
43.2888737934
 21
37.4957952698
 31
0.0
  0
SPLINE
  5
A3
330
1F
100
AcDbEntity
  8
0
  6
Continuous
 62
     7
370
    25
100
AcDbSpline
210
0.0
220
0.0
230
1.0
 70
     8
 71
     3
 72
    38
 73
    34
 74
     0
 42
0.00000001
 43
0.00000001
 40
0.0
 40
0.0
 40
0.0
 40
0.0
 40
0.0052025359258184
 40
0.0384128898776503
 40
0.0716079969929533
 40
0.1048183509447852
 40
0.1380544086835528
 40
0.1713269890524292
 40
0.2046279006230683
 40
0.2380094014135784
 40
0.2714656665043713
 40
0.3050123580502161
 40
0.3386801139471317
 40
0.3724810537605576
 40
0.4064360855563559
 40
0.4405964197703784
 40
0.4749582585179301
 40
0.5095830562886726
 40
0.5444916153121677
 40
0.5797177202282264
 40
0.6153009561112033
 40
0.65088419199418
 40
0.6861102969102388
 40
0.7210188559337339
 40
0.7556436537044765
 40
0.7900054924520282
 40
0.8241658266660506
 40
0.8581208584618489
 40
0.8919217982752748
 40
0.9255895541721904
 40
0.9591362457180352
 40
0.9925925108088282
 40
1.0
 40
1.0
 40
1.0
 40
1.0
 10
51.29492251276328
 20
38.31832843752566
 30
0.0
 10
51.29515002915475
 20
38.32185219201778
 30
0.0
 10
51.29682989493864
 20
38.34786981019312
 30
0.0
 10
51.2896134195444
 20
38.39638054970358
 30
0.0
 10
51.27262423644632
 20
38.46368893657766
 30
0.0
 10
51.24391390120888
 20
38.53070971562075
 30
0.0
 10
51.20479454098338
 20
38.59732970441188
 30
0.0
 10
51.15498302511443
 20
38.6634159925445
 30
0.0
 10
51.09452393328736
 20
38.72885346277649
 30
0.0
 10
51.02353633768258
 20
38.79352860044956
 30
0.0
 10
50.9419655426197
 20
38.857324985652
 30
0.0
 10
50.8498920552633
 20
38.92012113212485
 30
0.0
 10
50.74721554578197
 20
38.98178020978242
 30
0.0
 10
50.63418971455123
 20
39.04221374689146
 30
0.0
 10
50.51076820687424
 20
39.10130520897156
 30
0.0
 10
50.37693902284586
 20
39.15892068617907
 30
0.0
 10
50.23264955276434
 20
39.21494186892237
 30
0.0
 10
50.07798253954197
 20
39.26924345673605
 30
0.0
 10
49.9131108831426
 20
39.32175447692065
 30
0.0
 10
49.73792859220621
 20
39.37230616310418
 30
0.0
 10
49.55317576295791
 20
39.42059102525138
 30
0.0
 10
49.36056799775528
 20
39.46622139422781
 30
0.0
 10
49.16168695976712
 20
39.50876432756632
 30
0.0
 10
48.95769299615464
 20
39.54805438417831
 30
0.0
 10
48.74914514282263
 20
39.58414743018128
 30
0.0
 10
48.53631180411971
 20
39.61700516051155
 30
0.0
 10
48.31963159377859
 20
39.64662108585117
 30
0.0
 10
48.09950344773351
 20
39.67303486200281
 30
0.0
 10
47.87636825911088
 20
39.69624573862549
 30
0.0
 10
47.6506669073209
 20
39.71637560037615
 30
0.0
 10
47.42255111190005
 20
39.73302773146791
 30
0.0
 10
47.25252251375843
 20
39.74375926256481
 30
0.0
 10
47.15815039514524
 20
39.74795496087663
 30
0.0
 10
47.14104329226497
 20
39.7487155270664
 30
0.0
  0
SPLINE
  5
A4
330
1F
100
AcDbEntity
  8
0
  6
Continuous
 62
     7
370
    25
100
AcDbSpline
210
0.0
220
0.0
230
1.0
 70
     8
 71
     3
 72
    37
 73
    33
 74
     0
 42
0.00000001
 43
0.00000001
 40
0.0
 40
0.0
 40
0.0
 40
0.0
 40
0.0166069551624622
 40
0.0499088990968735
 40
0.0832391992357701
 40
0.1166501597157676
 40
0.1501359504766965
 40
0.1837122474954191
 40
0.2174097157063701
 40
0.2512404853706927
 40
0.2852254830059395
 40
0.3194121858685395
 40
0.3538074611131473
 40
0.3884628158021451
 40
0.423402182167579
 40
0.4586593746647263
 40
0.49427401330238
 40
0.5298886519400337
 40
0.5651458444371809
 40
0.6000852108026148
 40
0.6347405654916126
 40
0.6691327290920245
 40
0.7033232103280472
 40
0.737308207963294
 40
0.7711389776276166
 40
0.8048364458385676
 40
0.8384127428572902
 40
0.871898533618219
 40
0.9053094940982166
 40
0.9386397942371132
 40
0.9719417381715245
 40
1.0
 40
1.0
 40
1.0
 40
1.0
 10
45.453002803463
 20
39.74866424822706
 30
0.0
 10
45.414746872647
 20
39.74685519843994
 30
0.0
 10
45.29977628518684
 20
39.74141845929037
 30
0.0
 10
45.1101398518318
 20
39.72902256073924
 30
0.0
 10
44.88443975676016
 20
39.71165785240387
 30
0.0
 10
44.66147075137697
 20
39.69107852734172
 30
0.0
 10
44.44151273756417
 20
39.66747312261662
 30
0.0
 10
44.22501820174829
 20
39.64080956477377
 30
0.0
 10
44.0124466624374
 20
39.61107497974905
 30
0.0
 10
43.80411904503961
 20
39.57833316841506
 30
0.0
 10
43.60039296873614
 20
39.54259456314342
 30
0.0
 10
43.40190884346443
 20
39.50377199545533
 30
0.0
 10
43.20868328115569
 20
39.46201560926524
 30
0.0
 10
43.02154721107417
 20
39.41718381956412
 30
0.0
 10
42.84055457677726
 20
39.3694102844539
 30
0.0
 10
42.66633680929154
 20
39.31864100708354
 30
0.0
 10
42.49993891562563
 20
39.26509633196007
 30
0.0
 10
42.34270077926927
 20
39.20927190401247
 30
0.0
 10
42.19611330701247
 20
39.15162654330252
 30
0.0
 10
42.06074672573906
 20
39.09249650408121
 30
0.0
 10
41.93640750362626
 20
39.03204398208759
 30
0.0
 10
41.8232292716631
 20
38.97034669890524
 30
0.0
 10
41.72122792395182
 20
38.90753213274539
 30
0.0
 10
41.63028943093251
 20
38.84371491545468
 30
0.0
 10
41.55033103510286
 20
38.77902688074334
 30
0.0
 10
41.48124762783451
 20
38.71358117675329
 30
0.0
 10
41.42323624458879
 20
38.64747638711365
 30
0.0
 10
41.37615268500049
 20
38.58084330078708
 30
0.0
 10
41.33991276897746
 20
38.51380574066572
 30
0.0
 10
41.31477292229065
 20
38.44647558065849
 30
0.0
 10
41.30020811110731
 20
38.38249175325122
 30
0.0
 10
41.29921412985407
 20
38.34095672757434
 30
0.0
 10
41.29875961074173
 20
38.32196395186563
 30
0.0
  0
SPLINE
  5
A5
330
1F
100
AcDbEntity
  8
0
  6
Continuous
 62
     7
370
    25
100
AcDbSpline
210
0.0
220
0.0
230
1.0
 70
     8
 71
     3
 72
    14
 73
    10
 74
     0
 42
0.00000001
 43
0.00000001
 40
0.0
 40
0.0
 40
0.0
 40
0.0
 40
0.1727067105214687
 40
0.2181108306511954
 40
0.3409219898883775
 40
0.6698794331099389
 40
0.7917129087750144
 40
0.9939393774536249
 40
1.0
 40
1.0
 40
1.0
 40
1.0
 10
43.28906195343354
 20
37.49585885657468
 30
0.0
 10
43.27963000915792
 20
37.49181378440359
 30
0.0
 10
43.26771843262218
 20
37.48670527386212
 30
0.0
 10
43.24914487056207
 20
37.47870912975353
 30
0.0
 10
43.22073242897886
 20
37.46733406400288
 30
0.0
 10
43.19976477721932
 20
37.45167791666248
 30
0.0
 10
43.19411007348941
 20
37.43332885680053
 30
0.0
 10
43.18394816534767
 20
37.42414969835204
 30
0.0
 10
43.18553168247594
 20
37.41827389967421
 30
0.0
 10
43.18557775878127
 20
37.41810292893505
 30
0.0
  0
SPLINE
  5
A6
330
1F
100
AcDbEntity
  8
0
  6
Continuous
 62
     7
370
    25
100
AcDbSpline
210
0.0
220
0.0
230
1.0
 70
     8
 71
     3
 72
     9
 73
     5
 74
     0
 42
0.00000001
 43
0.00000001
 40
0.0
 40
0.0
 40
0.0
 40
0.0
 40
0.5266329989304621
 40
0.9999999999999999
 40
0.9999999999999999
 40
0.9999999999999999
 40
0.9999999999999999
 10
43.17645434343591
 20
37.32251954364805
 30
0.0
 10
43.17638019080501
 20
37.3226799275298
 30
0.0
 10
43.17623938566926
 20
37.32298447335598
 30
0.0
 10
43.17644309989704
 20
37.32328565612136
 30
0.0
 10
43.17653953149011
 20
37.32342822610378
 30
0.0
  0
SPLINE
  5
A7
330
1F
100
AcDbEntity
  8
0
  6
Continuous
 62
     7
370
    25
100
AcDbSpline
210
0.0
220
0.0
230
1.0
 70
     8
 71
     3
 72
    26
 73
    22
 74
     0
 42
0.00000001
 43
0.00000001
 40
0.0
 40
0.0
 40
0.0
 40
0.0
 40
0.0019349893519632
 40
0.0292172612405854
 40
0.0869249700681498
 40
0.1765927945374919
 40
0.200612853786057
 40
0.2039023828085099
 40
0.2240929335707
 40
0.2675846144964834
 40
0.3616361956317722
 40
0.3953364932215354
 40
0.4555938369895606
 40
0.5466738839300249
 40
0.636341696510295
 40
0.6560010184704529
 40
0.7255444016798582
 40
0.8058196678610702
 40
0.8152124204363103
 40
0.90632407177982
 40
1.0
 40
1.0
 40
1.0
 40
1.0
 10
44.04634344937549
 20
37.4108620275952
 30
0.0
 10
44.04629145812282
 20
37.41105924310184
 30
0.0
 10
44.04550641917151
 20
37.41403708738423
 30
0.0
 10
44.04292044648707
 20
37.42289312713778
 30
0.0
 10
44.04085069134013
 20
37.44073009119258
 30
0.0
 10
44.02379580131306
 20
37.45802473814183
 30
0.0
 10
44.002885723843
 20
37.46834098549331
 30
0.0
 10
43.9942500824811
 20
37.47250196238302
 30
0.0
 10
43.98267287047103
 20
37.47847279225991
 30
0.0
 10
43.9567814113386
 20
37.49273104668026
 30
0.0
 10
43.91495767166407
 20
37.50612537774805
 30
0.0
 10
43.85868420505082
 20
37.51626943924092
 30
0.0
 10
43.80683430539769
 20
37.52801320790158
 30
0.0
 10
43.72514702409487
 20
37.53574259900945
 30
0.0
 10
43.65483287836139
 20
37.54008421553033
 30
0.0
 10
43.59204983353222
 20
37.53818152414516
 30
0.0
 10
43.53148767239117
 20
37.53857771687689
 30
0.0
 10
43.47895770636446
 20
37.5320412835539
 30
0.0
 10
43.41782962930671
 20
37.52684088806443
 30
0.0
 10
43.35844465551117
 20
37.51591817522721
 30
0.0
 10
43.31240249478947
 20
37.50260686930064
 30
0.0
 10
43.28906195343354
 20
37.49585885657468
 30
0.0
  0
SPLINE
  5
A8
330
1F
100
AcDbEntity
  8
0
  6
Continuous
 62
     7
370
    25
100
AcDbSpline
210
0.0
220
0.0
230
1.0
 70
     8
 71
     3
 72
    23
 73
    19
 74
     0
 42
0.00000001
 43
0.00000001
 40
0.0
 40
0.0
 40
0.0
 40
0.0
 40
0.0069421631179457
 40
0.0602440080738426
 40
0.0722960189483595
 40
0.0762885383753926
 40
0.0832306991170652
 40
0.1568351159146928
 40
0.1808278156807331
 40
0.222686649332637
 40
0.3181425852675401
 40
0.4288082071270929
 40
0.4645391796271684
 40
0.5312037771955508
 40
0.6810717117614746
 40
0.7856097132400306
 40
0.8314550632210537
 40
1.0
 40
1.0
 40
1.0
 40
1.0
 10
43.4982095061293
 20
37.37771819871576
 30
0.0
 10
43.49808865993457
 20
37.37782538468503
 30
0.0
 10
43.49703995810964
 20
37.37875554323767
 30
0.0
 10
43.49526512243578
 20
37.37982031197571
 30
0.0
 10
43.49441180319806
 20
37.38092591319939
 30
0.0
 10
43.49386955210292
 20
37.38126554646518
 30
0.0
 10
43.49252177653869
 20
37.38258432843323
 30
0.0
 10
43.4904151006619
 20
37.38416893826959
 30
0.0
 10
43.48780760297522
 20
37.38630427971259
 30
0.0
 10
43.48478333115304
 20
37.38877328015267
 30
0.0
 10
43.48015677232286
 20
37.39257129139688
 30
0.0
 10
43.47567551729353
 20
37.39627858537349
 30
0.0
 10
43.47170872868469
 20
37.39954261273515
 30
0.0
 10
43.46702490696584
 20
37.40340851813254
 30
0.0
 10
43.46103409898531
 20
37.40832585028188
 30
0.0
 10
43.4555497396545
 20
37.41293644346188
 30
0.0
 10
43.4494444618449
 20
37.41780505631951
 30
0.0
 10
43.44552778740236
 20
37.42109711242845
 30
0.0
 10
43.44244865701693
 20
37.42368519324656
 30
0.0
  0
SPLINE
  5
A9
330
1F
100
AcDbEntity
  8
0
  6
Continuous
 62
     7
370
    25
100
AcDbSpline
210
0.0
220
0.0
230
1.0
 70
     8
 71
     3
 72
    15
 73
    11
 74
     0
 42
0.00000001
 43
0.00000001
 40
0.0
 40
0.0
 40
0.0
 40
0.0
 40
0.000030438204236
 40
0.0230190840172364
 40
0.0330767022009061
 40
0.4942924892984363
 40
0.8552864765071282
 40
0.8694372883124175
 40
0.9886648915319244
 40
1.0
 40
1.0
 40
1.0
 40
1.0
 10
43.78054949946207
 20
37.40523765936477
 30
0.0
 10
43.78054950195965
 20
37.40524104174944
 30
0.0
 10
43.78055139077513
 20
37.40779899150117
 30
0.0
 10
43.77602007073257
 20
37.40327074232118
 30
0.0
 10
43.74208820247873
 20
37.39702806647725
 30
0.0
 10
43.6931271015759
 20
37.35353035931167
 30
0.0
 10
43.58362085501363
 20
37.37161350200834
 30
0.0
 10
43.5287094285592
 20
37.37523350504512
 30
0.0
 10
43.50295265948994
 20
37.37300227979355
 30
0.0
 10
43.49858839960183
 20
37.37734148078979
 30
0.0
 10
43.4982095061293
 20
37.37771819871576
 30
0.0
  0
SPLINE
  5
AA
330
1F
100
AcDbEntity
  8
0
  6
Continuous
 62
     7
370
    25
100
AcDbSpline
210
0.0
220
0.0
230
1.0
 70
     8
 71
     3
 72
    32
 73
    28
 74
     0
 42
0.00000001
 43
0.00000001
 40
0.0
 40
0.0
 40
0.0
 40
0.0
 40
0.0001020741573334
 40
0.0711952317971108
 40
0.1434602757395149
 40
0.1786791693912303
 40
0.218023953451274
 40
0.2926590934752791
 40
0.3614011286896696
 40
0.3648571011984627
 40
0.4360109763038229
 40
0.5068288069581081
 40
0.5780212992267079
 40
0.6235607991727371
 40
0.6255621456124978
 40
0.6502627576293464
 40
0.7248265512798288
 40
0.7993903463427864
 40
0.8021167073288724
 40
0.8191378483409724
 40
0.8447710775125518
 40
0.8716318111447754
 40
0.9427637002033494
 40
0.9588679979714836
 40
0.9696888094750843
 40
0.9898573628925726
 40
1.0
 40
1.0
 40
1.0
 40
1.0
 10
44.06557915222638
 20
37.40998938979027
 30
0.0
 10
44.06558277859269
 20
37.40997569622053
 30
0.0
 10
44.06811211605669
 20
37.40042463161621
 30
0.0
 10
44.05242475886197
 20
37.38126811037175
 30
0.0
 10
44.02775695057101
 20
37.35804234574822
 30
0.0
 10
43.98626286745976
 20
37.34222365289098
 30
0.0
 10
43.95072379676007
 20
37.32497221746646
 30
0.0
 10
43.88574223143874
 20
37.30823029413847
 30
0.0
 10
43.82472546954865
 20
37.29943455475706
 30
0.0
 10
43.76652396283064
 20
37.29010268845573
 30
0.0
 10
43.69939623894475
 20
37.28539772105081
 30
0.0
 10
43.60117417880183
 20
37.28308811576836
 30
0.0
 10
43.51284706415476
 20
37.28581097963686
 30
0.0
 10
43.46275317237448
 20
37.29271202800996
 30
0.0
 10
43.43116161496717
 20
37.29596074013548
 30
0.0
 10
43.38670890267395
 20
37.30056908418349
 30
0.0
 10
43.32199016557984
 20
37.31500737051871
 30
0.0
 10
43.26956442985872
 20
37.32917805163945
 30
0.0
 10
43.24712958006697
 20
37.34008066976893
 30
0.0
 10
43.23689431089907
 20
37.34541763728667
 30
0.0
 10
43.22099659803043
 20
37.35356066700402
 30
0.0
 10
43.19119497659719
 20
37.3677688284974
 30
0.0
 10
43.1751360737579
 20
37.38289865552588
 30
0.0
 10
43.17226557476118
 20
37.39605995393491
 30
0.0
 10
43.17070267515983
 20
37.40238058080799
 30
0.0
 10
43.16911675447697
 20
37.40789552805362
 30
0.0
 10
43.16805383779903
 20
37.4119621419903
 30
0.0
 10
43.16769816789781
 20
37.4133228998062
 30
0.0
  0
SPLINE
  5
AB
330
1F
100
AcDbEntity
  8
0
  6
Continuous
 62
     7
370
    25
100
AcDbSpline
210
0.0
220
0.0
230
1.0
 70
     8
 71
     3
 72
    74
 73
    70
 74
     0
 42
0.00000001
 43
0.00000001
 40
0.0
 40
0.0
 40
0.0
 40
0.0
 40
0.0023213564249783
 40
0.0171397199348395
 40
0.0319512803505093
 40
0.0467696438603705
 40
0.0615994763253336
 40
0.0764456050818109
 40
0.0913043751382574
 40
0.1061991038706265
 40
0.1211271922167099
 40
0.1360956285844919
 40
0.1511180835142217
 40
0.1661999647208101
 40
0.1813506013225401
 40
0.1965928432672035
 40
0.2119249959496764
 40
0.2273744801848178
 40
0.2429505778670606
 40
0.2586683636045979
 40
0.2745455001426744
 40
0.290422636680751
 40
0.3061404224182882
 40
0.321716520100531
 40
0.3371660043356725
 40
0.3524981570181454
 40
0.3677403989628088
 40
0.3828910355645388
 40
0.3979729167711272
 40
0.4129953717008569
 40
0.4279638080686389
 40
0.4428918964147224
 40
0.4577866251470914
 40
0.4726453952035379
 40
0.4874915239600153
 40
0.5023213564249783
 40
0.5171397199348394
 40
0.5319512803505093
 40
0.5467696438603705
 40
0.5615994763253336
 40
0.576445605081811
 40
0.5913043751382575
 40
0.6061991038706265
 40
0.6211271922167099
 40
0.636095628584492
 40
0.6511180835142217
 40
0.6661999647208101
 40
0.6813506013225402
 40
0.6965928432672036
 40
0.7119249959496765
 40
0.7273744801848179
 40
0.7429505778670608
 40
0.7586683636045979
 40
0.7745455001426744
 40
0.790422636680751
 40
0.8061404224182882
 40
0.821716520100531
 40
0.8371660043356725
 40
0.8524981570181454
 40
0.8677403989628087
 40
0.8828910355645387
 40
0.8979729167711272
 40
0.912995371700857
 40
0.927963808068639
 40
0.9428918964147224
 40
0.9577866251470915
 40
0.972645395203538
 40
0.9874915239600154
 40
1.0
 40
1.0
 40
1.0
 40
1.0
 10
41.29872230745212
 20
38.13055741812593
 30
0.0
 10
41.29849479106065
 20
38.12703366363382
 30
0.0
 10
41.29681492527676
 20
38.10101604545848
 30
0.0
 10
41.30403140067099
 20
38.05250530594802
 30
0.0
 10
41.32102058376908
 20
37.98519691907394
 30
0.0
 10
41.34973091900652
 20
37.91817614003084
 30
0.0
 10
41.38885027923202
 20
37.85155615123973
 30
0.0
 10
41.43866179510098
 20
37.78546986310711
 30
0.0
 10
41.49912088692805
 20
37.7200323928751
 30
0.0
 10
41.57010848253283
 20
37.65535725520203
 30
0.0
 10
41.6516792775957
 20
37.5915608699996
 30
0.0
 10
41.7437527649521
 20
37.52876472352676
 30
0.0
 10
41.84642927443343
 20
37.46710564586917
 30
0.0
 10
41.95945510566419
 20
37.40667210876017
 30
0.0
 10
42.08287661334109
 20
37.34758064667992
 30
0.0
 10
42.21670579736979
 20
37.28996516947297
 30
0.0
 10
42.36099526745011
 20
37.23394398672753
 30
0.0
 10
42.51566228067698
 20
37.17964239892193
 30
0.0
 10
42.68053393705934
 20
37.12713137870684
 30
0.0
 10
42.85571622806014
 20
37.07657969263869
 30
0.0
 10
43.04046905706525
 20
37.02829483005587
 30
0.0
 10
43.23307682317425
 20
36.98266446270304
 30
0.0
 10
43.43195785782299
 20
36.94012152338245
 30
0.0
 10
43.63595183373013
 20
36.90083148879454
 30
0.0
 10
43.84449964173572
 20
36.86473836159598
 30
0.0
 10
44.05733314775694
 20
36.83188093099178
 30
0.0
 10
44.27401273938273
 20
36.8022638973148
 30
0.0
 10
44.49414317496152
 20
36.77585422252548
 30
0.0
 10
44.71726987783406
 20
36.75262814493183
 30
0.0
 10
44.94300271222357
 20
36.73255467961938
 30
0.0
 10
45.1710016181693
 20
36.7156931582563
 30
0.0
 10
45.40081555251393
 20
36.70199391562758
 30
0.0
 10
45.63201795110631
 20
36.69146210308957
 30
0.0
 10
45.86422141127486
 20
36.68406246323318
 30
0.0
 10
46.09701694525497
 20
36.67981900731249
 30
0.0
 10
46.3300204571349
 20
36.67870055481468
 30
0.0
 10
46.56276595599464
 20
36.68070449940007
 30
0.0
 10
46.79487728484649
 20
36.68582159595812
 30
0.0
 10
47.02597944950802
 20
36.69404357741519
 30
0.0
 10
47.25569579249647
 20
36.7053630924307
 30
0.0
 10
47.48356435187781
 20
36.71976228981482
 30
0.0
 10
47.70918909598432
 20
36.73725515148791
 30
0.0
 10
47.93217839340547
 20
36.75780001584832
 30
0.0
 10
48.15213080158068
 20
36.78141474952446
 30
0.0
 10
48.36862740530788
 20
36.80807556183063
 30
0.0
 10
48.58119628741269
 20
36.83781177051694
 30
0.0
 10
48.78953250691027
 20
36.8705498243071
 30
0.0
 10
48.99323416502997
 20
36.90630324702368
 30
0.0
 10
49.19183946454807
 20
36.94507559809766
 30
0.0
 10
49.38494038103804
 20
36.98688220686777
 30
0.0
 10
49.57210486518884
 20
37.03169915645874
 30
0.0
 10
49.75308827337797
 20
37.07947635303407
 30
0.0
 10
49.92730854681438
 20
37.13024463589502
 30
0.0
 10
50.09370576033479
 20
37.18378958094043
 30
0.0
 10
50.25094407917992
 20
37.2396139364657
 30
0.0
 10
50.39753150310133
 20
37.29725931635799
 30
0.0
 10
50.53289809714902
 20
37.35638935050972
 30
0.0
 10
50.65723731588136
 20
37.4168418738449
 30
0.0
 10
50.77041554874014
 20
37.47853915667181
 30
0.0
 10
50.87241689621371
 20
37.54135372292601
 30
0.0
 10
50.96335538929616
 20
37.60517094019165
 30
0.0
 10
51.04331378510901
 20
37.66985897490966
 30
0.0
 10
51.11239719238183
 20
37.73530467889793
 30
0.0
 10
51.17040857562636
 20
37.80140946853805
 30
0.0
 10
51.21749213521498
 20
37.86804255486449
 30
0.0
 10
51.25373205123792
 20
37.93508011498589
 30
0.0
 10
51.27887189792475
 20
38.00241027499311
 30
0.0
 10
51.29343670910809
 20
38.06639410240038
 30
0.0
 10
51.29443069036133
 20
38.10792912807726
 30
0.0
 10
51.29488520947367
 20
38.12692190378597
 30
0.0
  0
LINE
  5
AC
330
1F
100
AcDbEntity
  8
0
  6
Continuous
 62
     7
370
    25
100
AcDbLine
 10
51.2948852095
 20
38.1269219038
 30
0.0
 11
51.2949225128
 21
38.3183284375
 31
0.0
  0
LINE
  5
AD
330
1F
100
AcDbEntity
  8
0
  6
Continuous
 62
     7
370
    25
100
AcDbLine
 10
45.3388416477
 20
39.4305830144
 30
0.0
 11
45.3389188483
 21
39.4313173906
 31
0.0
  0
LINE
  5
AE
330
1F
100
AcDbEntity
  8
0
  6
Continuous
 62
     7
370
    25
100
AcDbLine
 10
45.3214851962
 20
39.3998311006
 30
0.0
 11
45.3177490176
 21
39.439233271
 31
0.0
  0
LINE
  5
AF
330
1F
100
AcDbEntity
  8
0
  6
Continuous
 62
     7
370
    25
100
AcDbLine
 10
49.8811993545
 20
38.0900173733
 30
0.0
 11
49.8777897863
 21
38.0540162082
 31
0.0
  0
LINE
  5
B0
330
1F
100
AcDbEntity
  8
0
  6
Continuous
 62
     7
370
    25
100
AcDbLine
 10
49.8722265523
 20
37.9952305768
 30
0.0
 11
49.8721523299
 21
37.9944379228
 31
0.0
  0
LINE
  5
B1
330
1F
100
AcDbEntity
  8
0
  6
Continuous
 62
     7
370
    25
100
AcDbLine
 10
44.4591531109
 20
39.4382950007
 30
0.0
 11
44.4557791866
 21
39.4031606229
 31
0.0
  0
SPLINE
  5
B2
330
1F
100
AcDbEntity
  8
0
  6
Continuous
 62
     7
370
    25
100
AcDbSpline
210
0.0
220
0.0
230
1.0
 70
     8
 71
     3
 72
     9
 73
     5
 74
     0
 42
0.00000001
 43
0.00000001
 40
0.0
 40
0.0
 40
0.0
 40
0.0
 40
0.605480343580823
 40
0.9999999999999999
 40
0.9999999999999999
 40
0.9999999999999999
 40
0.9999999999999999
 10
44.45096725726402
 20
39.35305157153137
 30
0.0
 10
44.45077266819941
 20
39.35103729269743
 30
0.0
 10
44.45045128854327
 20
39.34771054748548
 30
0.0
 10
44.4501357998072
 20
39.34434633243566
 30
0.0
 10
44.45001133329945
 20
39.34301908347009
 30
0.0
  0
LINE
  5
B3
330
1F
100
AcDbEntity
  8
0
  6
Continuous
 62
     7
370
    25
100
AcDbLine
 10
41.2987596107
 20
38.3219639519
 30
0.0
 11
41.2987223075
 21
38.1305574181
 31
0.0
  0
LINE
  5
B4
330
1F
100
AcDbEntity
  8
0
  6
Continuous
 62
     7
370
    25
100
AcDbLine
 10
44.065570796
 20
37.4099094743
 30
0.0
 11
44.0655791522
 21
37.4099893898
 31
0.0
  0
LINE
  5
B5
330
1F
100
AcDbEntity
  8
0
  6
Continuous
 62
     7
370
    25
100
AcDbLine
 10
44.0492419719
 20
37.3798057603
 30
0.0
 11
44.0463434494
 21
37.4108620276
 31
0.0
  0
LINE
  5
B6
330
1F
100
AcDbEntity
  8
0
  6
Continuous
 62
     7
370
    25
100
AcDbLine
 10
43.1855777588
 20
37.4181029289
 30
0.0
 11
43.1821618876
 21
37.3823511395
 31
0.0
  0
LINE
  5
B7
330
1F
100
AcDbEntity
  8
0
  6
Continuous
 62
     7
370
    25
100
AcDbLine
 10
43.1768198583
 20
37.3264184116
 30
0.0
 11
43.1764543434
 21
37.3225195436
 31
0.0
  0
ENDSEC
  0
SECTION
  2
OBJECTS
  0
DICTIONARY
  5
C
330
0
100
AcDbDictionary
281
     1
  3
ACAD_GROUP
350
D
  3
ACAD_LAYOUT
350
1A
  3
ACAD_MLINESTYLE
350
17
  3
ACAD_PLOTSETTINGS
350
19
  3
ACAD_PLOTSTYLENAME
350
E
  3
ACAD_SCALELIST
350
47
  3
DWGPROPS
350
B8
  0
DICTIONARY
  5
D
102
{ACAD_REACTORS
330
C
102
}
330
C
100
AcDbDictionary
281
     1
  0
DICTIONARY
  5
1A
102
{ACAD_REACTORS
330
C
102
}
330
C
100
AcDbDictionary
281
     1
  3
Layout1
350
1E
  3
Layout2
350
26
  3
Model
350
22
  0
DICTIONARY
  5
17
102
{ACAD_REACTORS
330
C
102
}
330
C
100
AcDbDictionary
281
     1
  3
Standard
350
18
  0
DICTIONARY
  5
19
102
{ACAD_REACTORS
330
C
102
}
330
C
100
AcDbDictionary
281
     1
  0
ACDBDICTIONARYWDFLT
  5
E
102
{ACAD_REACTORS
330
C
102
}
330
C
100
AcDbDictionary
281
     1
  3
Normal
350
F
100
AcDbDictionaryWithDefault
340
F
  0
DICTIONARY
  5
47
102
{ACAD_REACTORS
330
C
102
}
330
C
100
AcDbDictionary
281
     1
  3
A0
350
48
  3
A1
350
49
  3
A2
350
4A
  3
A3
350
4B
  3
A4
350
4C
  3
A5
350
4D
  3
A6
350
4E
  3
A7
350
4F
  3
A8
350
50
  3
A9
350
51
  3
B0
350
52
  3
B1
350
53
  3
B2
350
54
  3
B3
350
55
  3
B4
350
56
  3
B5
350
57
  3
B6
350
58
  3
B7
350
59
  3
B8
350
5A
  3
B9
350
5B
  3
C0
350
5C
  3
C1
350
5D
  3
C2
350
5E
  3
C3
350
5F
  3
C4
350
60
  3
C5
350
61
  3
C6
350
62
  3
C7
350
63
  3
C8
350
64
  3
C9
350
65
  3
D0
350
66
  3
D1
350
67
  3
D2
350
68
  0
XRECORD
  5
B8
102
{ACAD_REACTORS
330
C
102
}
330
C
100
AcDbXrecord
280
     1
  1
DWGPROPS COOKIE
  2

  3

  4

  6

  7

  8
9222
  9

300
=
301
=
302
=
303
=
304
=
305
=
306
=
307
=
308
=
309
=
 40
0.0
 41
2459916.346303808
 42
2459916.346304086
  1

 90
        0
  0
LAYOUT
  5
1E
102
{ACAD_REACTORS
330
1A
102
}
330
1A
100
AcDbPlotSettings
  1

  2
none_device
  4

  6

 40
0.0
 41
0.0
 42
0.0
 43
0.0
 44
0.0
 45
0.0
 46
0.0
 47
0.0
 48
0.0
 49
0.0
140
0.0
141
0.0
142
1.0
143
1.0
 70
   688
 72
     1
 73
     0
 74
     5
  7

 75
    16
147
1.0
148
0.0
149
0.0
100
AcDbLayout
  1
Layout1
 70
     1
 71
     1
 10
0.0
 20
0.0
 11
420.0
 21
297.0
 12
0.0
 22
0.0
 32
0.0
 14
1.0000000000E+20
 24
1.0000000000E+20
 34
1.0000000000E+20
 15
-1.0000000000E+20
 25
-1.0000000000E+20
 35
-1.0000000000E+20
146
0.0
 13
0.0
 23
0.0
 33
0.0
 16
1.0
 26
0.0
 36
0.0
 17
0.0
 27
1.0
 37
0.0
 76
     0
330
1B
  0
LAYOUT
  5
26
102
{ACAD_REACTORS
330
1A
102
}
330
1A
100
AcDbPlotSettings
  1

  2
none_device
  4

  6

 40
0.0
 41
0.0
 42
0.0
 43
0.0
 44
0.0
 45
0.0
 46
0.0
 47
0.0
 48
0.0
 49
0.0
140
0.0
141
0.0
142
1.0
143
1.0
 70
   688
 72
     1
 73
     0
 74
     5
  7

 75
    16
147
1.0
148
0.0
149
0.0
100
AcDbLayout
  1
Layout2
 70
     1
 71
     2
 10
0.0
 20
0.0
 11
0.0
 21
0.0
 12
0.0
 22
0.0
 32
0.0
 14
0.0
 24
0.0
 34
0.0
 15
0.0
 25
0.0
 35
0.0
146
0.0
 13
0.0
 23
0.0
 33
0.0
 16
1.0
 26
0.0
 36
0.0
 17
0.0
 27
1.0
 37
0.0
 76
     0
330
23
  0
LAYOUT
  5
22
102
{ACAD_REACTORS
330
1A
102
}
330
1A
100
AcDbPlotSettings
  1

  2
none_device
  4
Letter_(8.50_x_11.00_Inches)
  6

 40
6.35
 41
6.35
 42
6.35000508
 43
6.35000508
 44
215.9
 45
279.4
 46
0.0
 47
0.0
 48
0.0
 49
0.0
140
0.0
141
0.0
142
1.0
143
1.0
 70
  1712
 72
     1
 73
     0
 74
     0
  7

 75
     0
147
1.0
148
0.0
149
0.0
100
AcDbLayout
  1
Model
 70
     1
 71
     0
 10
0.0
 20
0.0
 11
105.0
 21
148.5
 12
0.0
 22
0.0
 32
0.0
 14
0.0
 24
0.0
 34
0.0
 15
105.0
 25
148.5
 35
0.0
146
0.0
 13
0.0
 23
0.0
 33
0.0
 16
1.0
 26
0.0
 36
0.0
 17
0.0
 27
1.0
 37
0.0
 76
     0
330
1F
331
29
  0
MLINESTYLE
  5
18
102
{ACAD_REACTORS
330
17
102
}
330
17
100
AcDbMlineStyle
  2
Standard
 70
     0
  3

 62
   256
 51
90.0
 52
90.0
 71
     2
 49
0.5
 62
   256
  6
BYLAYER
 49
-0.5
 62
   256
  6
BYLAYER
  0
ACDBPLACEHOLDER
  5
F
102
{ACAD_REACTORS
330
E
102
}
330
E
  0
SCALE
  5
48
102
{ACAD_REACTORS
330
47
102
}
330
47
100
AcDbScale
 70
     0
300
1:1
140
1.0
141
1.0
290
     1
  0
SCALE
  5
49
102
{ACAD_REACTORS
330
47
102
}
330
47
100
AcDbScale
 70
     0
300
1:2
140
1.0
141
2.0
290
     0
  0
SCALE
  5
4A
102
{ACAD_REACTORS
330
47
102
}
330
47
100
AcDbScale
 70
     0
300
1:4
140
1.0
141
4.0
290
     0
  0
SCALE
  5
4B
102
{ACAD_REACTORS
330
47
102
}
330
47
100
AcDbScale
 70
     0
300
1:5
140
1.0
141
5.0
290
     0
  0
SCALE
  5
4C
102
{ACAD_REACTORS
330
47
102
}
330
47
100
AcDbScale
 70
     0
300
1:8
140
1.0
141
8.0
290
     0
  0
SCALE
  5
4D
102
{ACAD_REACTORS
330
47
102
}
330
47
100
AcDbScale
 70
     0
300
1:10
140
1.0
141
10.0
290
     0
  0
SCALE
  5
4E
102
{ACAD_REACTORS
330
47
102
}
330
47
100
AcDbScale
 70
     0
300
1:16
140
1.0
141
16.0
290
     0
  0
SCALE
  5
4F
102
{ACAD_REACTORS
330
47
102
}
330
47
100
AcDbScale
 70
     0
300
1:20
140
1.0
141
20.0
290
     0
  0
SCALE
  5
50
102
{ACAD_REACTORS
330
47
102
}
330
47
100
AcDbScale
 70
     0
300
1:30
140
1.0
141
30.0
290
     0
  0
SCALE
  5
51
102
{ACAD_REACTORS
330
47
102
}
330
47
100
AcDbScale
 70
     0
300
1:40
140
1.0
141
40.0
290
     0
  0
SCALE
  5
52
102
{ACAD_REACTORS
330
47
102
}
330
47
100
AcDbScale
 70
     0
300
1:50
140
1.0
141
50.0
290
     0
  0
SCALE
  5
53
102
{ACAD_REACTORS
330
47
102
}
330
47
100
AcDbScale
 70
     0
300
1:100
140
1.0
141
100.0
290
     0
  0
SCALE
  5
54
102
{ACAD_REACTORS
330
47
102
}
330
47
100
AcDbScale
 70
     0
300
2:1
140
2.0
141
1.0
290
     0
  0
SCALE
  5
55
102
{ACAD_REACTORS
330
47
102
}
330
47
100
AcDbScale
 70
     0
300
4:1
140
4.0
141
1.0
290
     0
  0
SCALE
  5
56
102
{ACAD_REACTORS
330
47
102
}
330
47
100
AcDbScale
 70
     0
300
8:1
140
8.0
141
1.0
290
     0
  0
SCALE
  5
57
102
{ACAD_REACTORS
330
47
102
}
330
47
100
AcDbScale
 70
     0
300
10:1
140
10.0
141
1.0
290
     0
  0
SCALE
  5
58
102
{ACAD_REACTORS
330
47
102
}
330
47
100
AcDbScale
 70
     0
300
100:1
140
100.0
141
1.0
290
     0
  0
SCALE
  5
59
102
{ACAD_REACTORS
330
47
102
}
330
47
100
AcDbScale
 70
     0
300
1/128" = 1'-0"
140
0.0078125
141
12.0
290
     0
  0
SCALE
  5
5A
102
{ACAD_REACTORS
330
47
102
}
330
47
100
AcDbScale
 70
     0
300
1/64" = 1'-0"
140
0.015625
141
12.0
290
     0
  0
SCALE
  5
5B
102
{ACAD_REACTORS
330
47
102
}
330
47
100
AcDbScale
 70
     0
300
1/32" = 1'-0"
140
0.03125
141
12.0
290
     0
  0
SCALE
  5
5C
102
{ACAD_REACTORS
330
47
102
}
330
47
100
AcDbScale
 70
     0
300
1/16" = 1'-0"
140
0.0625
141
12.0
290
     0
  0
SCALE
  5
5D
102
{ACAD_REACTORS
330
47
102
}
330
47
100
AcDbScale
 70
     0
300
3/32" = 1'-0"
140
0.09375
141
12.0
290
     0
  0
SCALE
  5
5E
102
{ACAD_REACTORS
330
47
102
}
330
47
100
AcDbScale
 70
     0
300
1/8" = 1'-0"
140
0.125
141
12.0
290
     0
  0
SCALE
  5
5F
102
{ACAD_REACTORS
330
47
102
}
330
47
100
AcDbScale
 70
     0
300
3/16" = 1'-0"
140
0.1875
141
12.0
290
     0
  0
SCALE
  5
60
102
{ACAD_REACTORS
330
47
102
}
330
47
100
AcDbScale
 70
     0
300
1/4" = 1'-0"
140
0.25
141
12.0
290
     0
  0
SCALE
  5
61
102
{ACAD_REACTORS
330
47
102
}
330
47
100
AcDbScale
 70
     0
300
3/8" = 1'-0"
140
0.375
141
12.0
290
     0
  0
SCALE
  5
62
102
{ACAD_REACTORS
330
47
102
}
330
47
100
AcDbScale
 70
     0
300
1/2" = 1'-0"
140
0.5
141
12.0
290
     0
  0
SCALE
  5
63
102
{ACAD_REACTORS
330
47
102
}
330
47
100
AcDbScale
 70
     0
300
3/4" = 1'-0"
140
0.75
141
12.0
290
     0
  0
SCALE
  5
64
102
{ACAD_REACTORS
330
47
102
}
330
47
100
AcDbScale
 70
     0
300
1" = 1'-0"
140
1.0
141
12.0
290
     0
  0
SCALE
  5
65
102
{ACAD_REACTORS
330
47
102
}
330
47
100
AcDbScale
 70
     0
300
1-1/2" = 1'-0"
140
1.5
141
12.0
290
     0
  0
SCALE
  5
66
102
{ACAD_REACTORS
330
47
102
}
330
47
100
AcDbScale
 70
     0
300
3" = 1'-0"
140
3.0
141
12.0
290
     0
  0
SCALE
  5
67
102
{ACAD_REACTORS
330
47
102
}
330
47
100
AcDbScale
 70
     0
300
6" = 1'-0"
140
6.0
141
12.0
290
     0
  0
SCALE
  5
68
102
{ACAD_REACTORS
330
47
102
}
330
47
100
AcDbScale
 70
     0
300
1'-0" = 1'-0"
140
12.0
141
12.0
290
     0
  0
ENDSEC
  0
EOF
