  0
SECTION
  2
HEADER
  9
$ACADVER
  1
AC1015
  9
$ACADMAINTVER
 70
     6
  9
$DWGCODEPAGE
  3
DOS932
  9
$INSBASE
 10
0.0
 20
0.0
 30
0.0
  9
$EXTMIN
 10
0.0
 20
0.0
 30
0.0
  9
$EXTMAX
 10
105.0
 20
148.5
 30
0.0
  9
$LIMMIN
 10
0.0
 20
0.0
  9
$LIMMAX
 10
105.0
 20
148.5
  9
$ORTHOMODE
 70
     0
  9
$REGENMODE
 70
     1
  9
$FILLMODE
 70
     1
  9
$QTEXTMODE
 70
     0
  9
$MIRRTEXT
 70
     1
  9
$LTSCALE
 40
0.5
  9
$ATTMODE
 70
     1
  9
$TEXTSIZE
 40
1.75
  9
$TRACEWID
 40
1.0
  9
$TEXTSTYLE
  7
Standard
  9
$CLAYER
  8
0
  9
$CELTYPE
  6
ByLayer
  9
$CECOLOR
 62
   256
  9
$CELTSCALE
 40
1.0
  9
$DISPSILH
 70
     0
  9
$DIMSCALE
 40
1.0
  9
$DIMASZ
 40
1.651
  9
$DIMEXO
 40
0.5
  9
$DIMDLI
 40
3.75
  9
$DIMRND
 40
0.0
  9
$DIMDLE
 40
0.0
  9
$DIMEXE
 40
0.5
  9
$DIMTP
 40
0.0
  9
$DIMTM
 40
0.0
  9
$DIMTXT
 40
1.75
  9
$DIMCEN
 40
2.5
  9
$DIMTSZ
 40
0.0
  9
$DIMTOL
 70
     0
  9
$DIMLIM
 70
     0
  9
$DIMTIH
 70
     1
  9
$DIMTOH
 70
     1
  9
$DIMSE1
 70
     0
  9
$DIMSE2
 70
     0
  9
$DIMTAD
 70
     1
  9
$DIMZIN
 70
     1
  9
$DIMBLK
  1

  9
$DIMASO
 70
     1
  9
$DIMSHO
 70
     1
  9
$DIMPOST
  1

  9
$DIMAPOST
  1

  9
$DIMALT
 70
     0
  9
$DIMALTD
 70
     3
  9
$DIMALTF
 40
0.0393700787
  9
$DIMLFAC
 40
1.0
  9
$DIMTOFL
 70
     1
  9
$DIMTVP
 40
0.0
  9
$DIMTIX
 70
     0
  9
$DIMSOXD
 70
     0
  9
$DIMSAH
 70
     0
  9
$DIMBLK1
  1

  9
$DIMBLK2
  1

  9
$DIMSTYLE
  2
ISO-25
  9
$DIMCLRD
 70
     0
  9
$DIMCLRE
 70
     0
  9
$DIMCLRT
 70
     0
  9
$DIMTFAC
 40
1.0
  9
$DIMGAP
 40
0.762
  9
$DIMJUST
 70
     0
  9
$DIMSD1
 70
     0
  9
$DIMSD2
 70
     0
  9
$DIMTOLJ
 70
     0
  9
$DIMTZIN
 70
     1
  9
$DIMALTZ
 70
     0
  9
$DIMALTTZ
 70
     0
  9
$DIMUPT
 70
     0
  9
$DIMDEC
 70
     2
  9
$DIMTDEC
 70
     2
  9
$DIMALTU
 70
     2
  9
$DIMALTTD
 70
     3
  9
$DIMTXSTY
  7
Standard
  9
$DIMAUNIT
 70
     0
  9
$DIMADEC
 70
     2
  9
$DIMALTRND
 40
0.0
  9
$DIMAZIN
 70
     0
  9
$DIMDSEP
 70
    44
  9
$DIMATFIT
 70
     3
  9
$DIMFRAC
 70
     0
  9
$DIMLDRBLK
  1

  9
$DIMLUNIT
 70
     2
  9
$DIMLWD
 70
    -2
  9
$DIMLWE
 70
    -2
  9
$DIMTMOVE
 70
     0
  9
$LUNITS
 70
     2
  9
$LUPREC
 70
     2
  9
$SKETCHINC
 40
1.0
  9
$FILLETRAD
 40
10.0
  9
$AUNITS
 70
     0
  9
$AUPREC
 70
     2
  9
$MENU
  1
.
  9
$ELEVATION
 40
0.0
  9
$PELEVATION
 40
0.0
  9
$THICKNESS
 40
0.0
  9
$LIMCHECK
 70
     0
  9
$CHAMFERA
 40
0.0
  9
$CHAMFERB
 40
0.0
  9
$CHAMFERC
 40
0.0
  9
$CHAMFERD
 40
0.0
  9
$SKPOLY
 70
     0
  9
$TDCREATE
 40
2459920.601232211
  9
$TDUCREATE
 40
2459920.226232211
  9
$TDUPDATE
 40
2459920.601232546
  9
$TDUUPDATE
 40
2459920.226232546
  9
$TDINDWG
 40
0.0000000116
  9
$TDUSRTIMER
 40
0.0000000116
  9
$USRTIMER
 70
     1
  9
$ANGBASE
 50
0.0
  9
$ANGDIR
 70
     0
  9
$PDMODE
 70
     0
  9
$PDSIZE
 40
-1.0
  9
$PLINEWID
 40
0.0
  9
$SPLFRAME
 70
     0
  9
$SPLINETYPE
 70
     6
  9
$SPLINESEGS
 70
     8
  9
$HANDSEED
  5
AB
  9
$SURFTAB1
 70
     6
  9
$SURFTAB2
 70
     6
  9
$SURFTYPE
 70
     6
  9
$SURFU
 70
     6
  9
$SURFV
 70
     6
  9
$UCSBASE
  2

  9
$UCSNAME
  2

  9
$UCSORG
 10
0.0
 20
0.0
 30
0.0
  9
$UCSXDIR
 10
1.0
 20
0.0
 30
0.0
  9
$UCSYDIR
 10
0.0
 20
1.0
 30
0.0
  9
$UCSORTHOREF
  2

  9
$UCSORTHOVIEW
 70
     0
  9
$UCSORGTOP
 10
0.0
 20
0.0
 30
0.0
  9
$UCSORGBOTTOM
 10
0.0
 20
0.0
 30
0.0
  9
$UCSORGLEFT
 10
0.0
 20
0.0
 30
0.0
  9
$UCSORGRIGHT
 10
0.0
 20
0.0
 30
0.0
  9
$UCSORGFRONT
 10
0.0
 20
0.0
 30
0.0
  9
$UCSORGBACK
 10
0.0
 20
0.0
 30
0.0
  9
$PUCSBASE
  2

  9
$PUCSNAME
  2

  9
$PUCSORG
 10
0.0
 20
0.0
 30
0.0
  9
$PUCSXDIR
 10
1.0
 20
0.0
 30
0.0
  9
$PUCSYDIR
 10
0.0
 20
1.0
 30
0.0
  9
$PUCSORTHOREF
  2

  9
$PUCSORTHOVIEW
 70
     0
  9
$PUCSORGTOP
 10
0.0
 20
0.0
 30
0.0
  9
$PUCSORGBOTTOM
 10
0.0
 20
0.0
 30
0.0
  9
$PUCSORGLEFT
 10
0.0
 20
0.0
 30
0.0
  9
$PUCSORGRIGHT
 10
0.0
 20
0.0
 30
0.0
  9
$PUCSORGFRONT
 10
0.0
 20
0.0
 30
0.0
  9
$PUCSORGBACK
 10
0.0
 20
0.0
 30
0.0
  9
$USERI1
 70
     0
  9
$USERI2
 70
     0
  9
$USERI3
 70
     0
  9
$USERI4
 70
     0
  9
$USERI5
 70
     0
  9
$USERR1
 40
0.0
  9
$USERR2
 40
0.0
  9
$USERR3
 40
0.0
  9
$USERR4
 40
0.0
  9
$USERR5
 40
0.0
  9
$WORLDVIEW
 70
     1
  9
$SHADEDGE
 70
     3
  9
$SHADEDIF
 70
    70
  9
$TILEMODE
 70
     1
  9
$MAXACTVP
 70
    64
  9
$PINSBASE
 10
0.0
 20
0.0
 30
0.0
  9
$PLIMCHECK
 70
     0
  9
$PEXTMIN
 10
1.0000000000E+20
 20
1.0000000000E+20
 30
1.0000000000E+20
  9
$PEXTMAX
 10
-1.0000000000E+20
 20
-1.0000000000E+20
 30
-1.0000000000E+20
  9
$PLIMMIN
 10
0.0
 20
0.0
  9
$PLIMMAX
 10
420.0
 20
297.0
  9
$UNITMODE
 70
     0
  9
$VISRETAIN
 70
     1
  9
$PLINEGEN
 70
     0
  9
$PSLTSCALE
 70
     1
  9
$TREEDEPTH
 70
  3020
  9
$CMLSTYLE
  2
Standard
  9
$CMLJUST
 70
     0
  9
$CMLSCALE
 40
20.0
  9
$PROXYGRAPHICS
 70
     1
  9
$MEASUREMENT
 70
     1
  9
$CELWEIGHT
370
    -1
  9
$ENDCAPS
280
     0
  9
$JOINSTYLE
280
     0
  9
$LWDISPLAY
290
     1
  9
$INSUNITS
 70
     4
  9
$HYPERLINKBASE
  1

  9
$STYLESHEET
  1

  9
$XEDIT
290
     1
  9
$CEPSNTYPE
380
     0
  9
$PSTYLEMODE
290
     1
  9
$FINGERPRINTGUID
  2
{2c86db51-2e82-47a2-b887-c8e58178e2c1}
  9
$VERSIONGUID
  2
{FAEB1C32-E019-11D5-929B-00C0DF256EC4}
  9
$EXTNAMES
290
     1
  9
$PSVPSCALE
 40
0.0
  9
$OLESTARTUP
290
     0
  0
ENDSEC
  0
SECTION
  2
CLASSES
  0
CLASS
  1
ACDBDICTIONARYWDFLT
  2
AcDbDictionaryWithDefault
  3
ObjectDBX Classes
 90
        0
280
     0
281
     0
  0
CLASS
  1
VISUALSTYLE
  2
AcDbVisualStyle
  3
ObjectDBX Classes
 90
     4095
280
     0
281
     0
  0
CLASS
  1
MATERIAL
  2
AcDbMaterial
  3
ObjectDBX Classes
 90
     1153
280
     0
281
     0
  0
CLASS
  1
SCALE
  2
AcDbScale
  3
ObjectDBX Classes
 90
     1153
280
     0
281
     0
  0
CLASS
  1
TABLESTYLE
  2
AcDbTableStyle
  3
ObjectDBX Classes
 90
     4095
280
     0
281
     0
  0
CLASS
  1
MLEADERSTYLE
  2
AcDbMLeaderStyle
  3
ACDB_MLEADERSTYLE_CLASS
 90
     4095
280
     0
281
     0
  0
CLASS
  1
SUN
  2
AcDbSun
  3
SCENEOE
 90
     1153
280
     0
281
     0
  0
CLASS
  1
ACDBPLACEHOLDER
  2
AcDbPlaceHolder
  3
ObjectDBX Classes
 90
        0
280
     0
281
     0
  0
CLASS
  1
LAYOUT
  2
AcDbLayout
  3
ObjectDBX Classes
 90
        0
280
     0
281
     0
  0
ENDSEC
  0
SECTION
  2
TABLES
  0
TABLE
  2
VPORT
  5
8
330
0
100
AcDbSymbolTable
 70
     1
  0
VPORT
  5
29
330
8
100
AcDbSymbolTableRecord
100
AcDbViewportTableRecord
  2
*Active
 70
     0
 10
0.0
 20
0.0
 11
1.0
 21
1.0
 12
52.5
 22
74.25
 13
0.0
 23
0.0
 14
10.0
 24
10.0
 15
10.0
 25
10.0
 16
0.0
 26
0.0
 36
1.0
 17
0.0
 27
0.0
 37
0.0
 40
148.5
 41
0.7070707071
 42
50.0
 43
0.0
 44
0.0
 50
0.0
 51
0.0
 71
     0
 72
  2000
 73
     1
 74
     3
 75
     0
 76
     0
 77
     0
 78
     0
281
     0
 65
     1
110
0.0
120
0.0
130
0.0
111
1.0
121
0.0
131
0.0
112
0.0
122
1.0
132
0.0
 79
     0
146
0.0
  0
ENDTAB
  0
TABLE
  2
LTYPE
  5
5
330
0
100
AcDbSymbolTable
 70
     6
  0
LTYPE
  5
14
330
5
100
AcDbSymbolTableRecord
100
AcDbLinetypeTableRecord
  2
ByBlock
 70
     0
  3

 72
    65
 73
     0
 40
0.0
  0
LTYPE
  5
15
330
5
100
AcDbSymbolTableRecord
100
AcDbLinetypeTableRecord
  2
ByLayer
 70
     0
  3

 72
    65
 73
     0
 40
0.0
  0
LTYPE
  5
16
330
5
100
AcDbSymbolTableRecord
100
AcDbLinetypeTableRecord
  2
Continuous
 70
     0
  3
Solid line
 72
    65
 73
     0
 40
0.0
  0
LTYPE
  5
6E
330
5
100
AcDbSymbolTableRecord
100
AcDbLinetypeTableRecord
  2
HIDDEN
 70
     0
  3
Hidden __ __ __ __ __ __ __ __ __ __ __ __ __ __
 72
    65
 73
     2
 40
1.905
 49
1.27
 74
     0
 49
-0.635
 74
     0
  0
LTYPE
  5
6F
330
5
100
AcDbSymbolTableRecord
100
AcDbLinetypeTableRecord
  2
PHANTOM
 70
     0
  3
Phantom ______  __  __  ______  __  __  ______
 72
    65
 73
     6
 40
12.7
 49
6.35
 74
     0
 49
-1.27
 74
     0
 49
1.27
 74
     0
 49
-1.27
 74
     0
 49
1.27
 74
     0
 49
-1.27
 74
     0
  0
LTYPE
  5
70
330
5
100
AcDbSymbolTableRecord
100
AcDbLinetypeTableRecord
  2
CENTER
 70
     0
  3
Center ____ _ ____ _ ____ _ ____ _ ____ _ ____
 72
    65
 73
     4
 40
10.16
 49
6.35
 74
     0
 49
-1.27
 74
     0
 49
1.27
 74
     0
 49
-1.27
 74
     0
  0
LTYPE
  5
71
330
5
100
AcDbSymbolTableRecord
100
AcDbLinetypeTableRecord
  2
CENTERX2
 70
     0
  3
Center (2x) ________  __  ________  __  _____
 72
    65
 73
     4
 40
20.32
 49
12.7
 74
     0
 49
-2.54
 74
     0
 49
2.54
 74
     0
 49
-2.54
 74
     0
  0
LTYPE
  5
72
330
5
100
AcDbSymbolTableRecord
100
AcDbLinetypeTableRecord
  2
DOT2
 70
     0
  3
Dot (.5x) ........................................
 72
    65
 73
     2
 40
0.635
 49
0.0
 74
     0
 49
-0.635
 74
     0
  0
ENDTAB
  0
TABLE
  2
LAYER
  5
2
330
0
100
AcDbSymbolTable
 70
     1
  0
LAYER
  5
10
330
2
100
AcDbSymbolTableRecord
100
AcDbLayerTableRecord
  2
0
 70
     0
 62
     7
  6
Continuous
370
    -3
390
F
  0
ENDTAB
  0
TABLE
  2
STYLE
  5
3
330
0
100
AcDbSymbolTable
 70
     2
  0
STYLE
  5
11
330
3
100
AcDbSymbolTableRecord
100
AcDbTextStyleTableRecord
  2
Standard
 70
     0
 40
0.0
 41
1.0
 50
0.0
 71
     0
 42
1.75
  3
txt
  4
bigfont
  0
STYLE
  5
76
330
3
100
AcDbSymbolTableRecord
100
AcDbTextStyleTableRecord
  2
SLDTEXTSTYLE0
 70
     0
 40
0.0
 41
0.7
 50
0.0
 71
     0
 42
1.75
  3
TXT
  4
bigfont
  0
ENDTAB
  0
TABLE
  2
VIEW
  5
6
330
0
100
AcDbSymbolTable
 70
     0
  0
ENDTAB
  0
TABLE
  2
UCS
  5
7
330
0
100
AcDbSymbolTable
 70
     0
  0
ENDTAB
  0
TABLE
  2
APPID
  5
9
330
0
100
AcDbSymbolTable
 70
     1
  0
APPID
  5
12
330
9
100
AcDbSymbolTableRecord
100
AcDbRegAppTableRecord
  2
ACAD
 70
     0
  0
ENDTAB
  0
TABLE
  2
DIMSTYLE
  5
A
330
0
100
AcDbSymbolTable
 70
     1
100
AcDbDimStyleTable
  0
DIMSTYLE
105
27
330
A
100
AcDbSymbolTableRecord
100
AcDbDimStyleTableRecord
  2
ISO-25
 70
     0
 41
2.5
 42
0.625
 43
3.75
 44
1.25
 73
     0
 74
     0
 77
     1
 78
     8
140
2.5
141
2.5
143
0.0393700787
147
0.625
171
     3
172
     1
178
     0
271
     2
272
     2
274
     3
278
    44
283
     0
284
     8
340
11
  0
ENDTAB
  0
TABLE
  2
BLOCK_RECORD
  5
1
330
0
100
AcDbSymbolTable
 70
     2
  0
BLOCK_RECORD
  5
1F
330
1
100
AcDbSymbolTableRecord
100
AcDbBlockTableRecord
  2
*Model_Space
340
22
  0
BLOCK_RECORD
  5
1B
330
1
100
AcDbSymbolTableRecord
100
AcDbBlockTableRecord
  2
*Paper_Space
340
1E
  0
BLOCK_RECORD
  5
23
330
1
100
AcDbSymbolTableRecord
100
AcDbBlockTableRecord
  2
*Paper_Space0
340
26
  0
BLOCK_RECORD
  5
73
330
1
100
AcDbSymbolTableRecord
100
AcDbBlockTableRecord
  2
SW_NOTE_0
340
0
102
{BLKREFS
331
79
102
}
  0
ENDTAB
  0
ENDSEC
  0
SECTION
  2
BLOCKS
  0
BLOCK
  5
20
330
1F
100
AcDbEntity
  8
0
100
AcDbBlockBegin
  2
*Model_Space
 70
     0
 10
0.0
 20
0.0
 30
0.0
  3
*Model_Space
  1

  0
ENDBLK
  5
21
330
1F
100
AcDbEntity
  8
0
100
AcDbBlockEnd
  0
BLOCK
  5
1C
330
1B
100
AcDbEntity
 67
     1
  8
0
100
AcDbBlockBegin
  2
*Paper_Space
 70
     0
 10
0.0
 20
0.0
 30
0.0
  3
*Paper_Space
  1

  0
ENDBLK
  5
1D
330
1B
100
AcDbEntity
 67
     1
  8
0
100
AcDbBlockEnd
  0
BLOCK
  5
24
330
23
100
AcDbEntity
  8
0
100
AcDbBlockBegin
  2
*Paper_Space0
 70
     0
 10
0.0
 20
0.0
 30
0.0
  3
*Paper_Space0
  1

  0
ENDBLK
  5
25
330
23
100
AcDbEntity
  8
0
100
AcDbBlockEnd
  0
BLOCK
  5
74
330
73
100
AcDbEntity
  8
0
100
AcDbBlockBegin
  2
SW_NOTE_0
 70
     0
 10
0.0
 20
0.0
 30
0.0
  3
SW_NOTE_0
  1

  0
MTEXT
  5
77
330
73
100
AcDbEntity
  8
0
  6
Continuous
 62
     0
370
     0
100
AcDbMText
 10
0.0
 20
3.4106583948
 30
0.0
 40
2.6458333333
 41
0.0
 71
     1
 72
     1
  1
HOA-D30K
  7
SLDTEXTSTYLE0
 73
     1
 44
1.0
  0
MTEXT
  5
78
330
73
100
AcDbEntity
  8
0
  6
Continuous
 62
     0
370
     0
100
AcDbMText
 10
0.0
 20
-0.6171194223
 30
0.0
 40
2.6458333333
 41
0.0
 71
     1
 72
     1
  1
HOA-D30O
  7
SLDTEXTSTYLE0
 73
     1
 44
1.0
  0
ENDBLK
  5
75
330
73
100
AcDbEntity
  8
0
100
AcDbBlockEnd
  0
ENDSEC
  0
SECTION
  2
ENTITIES
  0
INSERT
  5
79
330
1F
100
AcDbEntity
  8
0
  6
Continuous
 62
     7
370
     0
100
AcDbBlockReference
  2
SW_NOTE_0
 10
78.2681274586
 20
20.9354626925
 30
0.0
  0
SPLINE
  5
7A
330
1F
100
AcDbEntity
  8
0
  6
Continuous
 62
     7
370
    25
100
AcDbSpline
210
0.0
220
0.0
230
1.0
 70
     8
 71
     3
 72
    52
 73
    48
 74
     0
 42
0.00000001
 43
0.00000001
 40
0.0
 40
0.0
 40
0.0
 40
0.0
 40
0.0346430945081852
 40
0.0397112455272238
 40
0.0441679679008801
 40
0.0481619426025075
 40
0.0518308456901735
 40
0.0553205492486468
 40
0.0587752443598481
 40
0.0623228883626633
 40
0.0856800774967107
 40
0.0890218090127649
 40
0.0923352719506142
 40
0.0956542398556234
 40
0.0989794297121708
 40
0.1023456654383251
 40
0.1057679564104942
 40
0.1092508621229268
 40
0.1349825216440223
 40
0.1583174560688124
 40
0.1810164139659648
 40
0.203118866631647
 40
0.2246692688258395
 40
0.245692110138459
 40
0.2662107666042476
 40
0.2862690142291651
 40
0.3058770645036926
 40
0.3438724750407333
 40
0.3803769098802346
 40
0.4083414270591996
 40
0.4337281418370629
 40
0.4597169672415152
 40
0.4863090740203538
 40
0.5371917844988251
 40
0.5884746001714368
 40
0.6394897919787582
 40
0.6782449401992757
 40
0.7161309203048971
 40
0.7531762901722233
 40
0.7893844979622922
 40
0.8359134696252051
 40
0.8607661251824811
 40
0.8866832860635605
 40
0.9136771539494912
 40
0.9417446256975524
 40
0.9736584633433772
 40
1.0
 40
1.0
 40
1.0
 40
1.0
 10
61.63226967048262
 20
42.20808932904663
 30
0.0
 10
61.634000088927
 20
42.23799032429265
 30
0.0
 10
61.63598366091111
 20
42.27226571973814
 30
0.0
 10
61.63018945133442
 20
42.31040350389186
 30
0.0
 10
61.62776657384432
 20
42.32207203803542
 30
0.0
 10
61.62430287427305
 20
42.33250950393018
 30
0.0
 10
61.62098817535451
 20
42.34210981626377
 30
0.0
 10
61.61740929721849
 20
42.3512344792397
 30
0.0
 10
61.61408196965002
 20
42.36026093419211
 30
0.0
 10
61.60547577921192
 20
42.38640520067847
 30
0.0
 10
61.60380982593212
 20
42.41262017676351
 30
0.0
 10
61.59111988373339
 20
42.43834145750196
 30
0.0
 10
61.58635637131361
 20
42.44686290304512
 30
0.0
 10
61.58122119467409
 20
42.45535233212488
 30
0.0
 10
61.5756284268598
 20
42.46386352650077
 30
0.0
 10
61.56958455867706
 20
42.47243940937461
 30
0.0
 10
61.56319079050349
 20
42.4811327023085
 30
0.0
 10
61.54334477381737
 20
42.50878611368443
 30
0.0
 10
61.50464455335254
 20
42.55285367044657
 30
0.0
 10
61.45176701898064
 20
42.61301574518293
 30
0.0
 10
61.39141987625646
 20
42.66926450796966
 30
0.0
 10
61.32604176578796
 20
42.72332696404014
 30
0.0
 10
61.25597211173724
 20
42.77527425860916
 30
0.0
 10
61.18178337137626
 20
42.82517147199993
 30
0.0
 10
61.10403710657553
 20
42.87310668677848
 30
0.0
 10
61.02347674257365
 20
42.91920463399039
 30
0.0
 10
60.91354629064628
 20
42.97764915010518
 30
0.0
 10
60.77101389080541
 20
43.04674767806726
 30
0.0
 10
60.60318141243861
 20
43.11929365776947
 30
0.0
 10
60.44768086877625
 20
43.18093252595973
 30
0.0
 10
60.30484043999162
 20
43.23393692598638
 30
0.0
 10
60.16088426890357
 20
43.28505161415302
 30
0.0
 10
59.96490101056079
 20
43.35147549488705
 30
0.0
 10
59.71257408250091
 20
43.43164445220348
 30
0.0
 10
59.39953970685369
 20
43.5228229242966
 30
0.0
 10
59.10061720463671
 20
43.60297752185041
 30
0.0
 10
58.82198036976789
 20
43.67234909489414
 30
0.0
 10
58.56852069043305
 20
43.73191543941748
 30
0.0
 10
58.31609416221876
 20
43.78809581001531
 30
0.0
 10
58.03985818328406
 20
43.84668507425224
 30
0.0
 10
57.78834457459019
 20
43.89767344703103
 30
0.0
 10
57.55672303602943
 20
43.94160263528593
 30
0.0
 10
57.36914796325573
 20
43.97535231175596
 30
0.0
 10
57.17102125568694
 20
44.00886094322999
 30
0.0
 10
56.95475980034066
 20
44.04264598534304
 30
0.0
 10
56.73662415869176
 20
44.07380567039274
 30
0.0
 10
56.58650876658243
 20
44.0925047695824
 30
0.0
 10
56.51863056390464
 20
44.10096000676263
 30
0.0
  0
SPLINE
  5
7B
330
1F
100
AcDbEntity
  8
0
  6
Continuous
 62
     7
370
    25
100
AcDbSpline
210
0.0
220
0.0
230
1.0
 70
     8
 71
     3
 72
    16
 73
    12
 74
     0
 42
0.00000001
 43
0.00000001
 40
0.0
 40
0.0
 40
0.0
 40
0.0
 40
0.0224253642978922
 40
0.1381357619316321
 40
0.2792620955576609
 40
0.4154381270696102
 40
0.547092594314936
 40
0.674630385603556
 40
0.7982831379411842
 40
0.9183118697535873
 40
1.0
 40
1.0
 40
1.0
 40
1.0
 10
55.1368441661465
 20
44.2049020557437
 30
0.0
 10
55.1221189092288
 20
44.20541351337863
 30
0.0
 10
55.03141426974355
 20
44.20856399018506
 30
0.0
 10
54.84727628505447
 20
44.21112237190115
 30
0.0
 10
54.58837298008827
 20
44.21157942317283
 30
0.0
 10
54.31979502993296
 20
44.20664822395173
 30
0.0
 10
54.06181290289113
 20
44.19749468405259
 30
0.0
 10
53.81408404623661
 20
44.18467997569799
 30
0.0
 10
53.57638611093319
 20
44.16868846156667
 30
0.0
 10
53.37012532659154
 20
44.15209892319424
 30
0.0
 10
53.24435604304772
 20
44.1397365326298
 30
0.0
 10
53.19342397167666
 20
44.13473020564118
 30
0.0
  0
SPLINE
  5
7C
330
1F
100
AcDbEntity
  8
0
  6
Continuous
 62
     7
370
    25
100
AcDbSpline
210
0.0
220
0.0
230
1.0
 70
     8
 71
     3
 72
    14
 73
    10
 74
     0
 42
0.00000001
 43
0.00000001
 40
0.0
 40
0.0
 40
0.0
 40
0.0
 40
0.0818600893566518
 40
0.1981351242753559
 40
0.3096327269602949
 40
0.4439229933582737
 40
0.628921007193893
 40
0.892117464803322
 40
1.0
 40
1.0
 40
1.0
 40
1.0
 10
52.10529137530925
 20
43.99012892157321
 30
0.0
 10
52.09935279007451
 20
43.98919058960426
 30
0.0
 10
52.0849789684387
 20
43.98691943985669
 30
0.0
 10
52.06191380439829
 20
43.98375268321682
 30
0.0
 10
52.03479473233663
 20
43.98015931763626
 30
0.0
 10
52.00329570503628
 20
43.97536521803689
 30
0.0
 10
51.96158663326988
 20
43.96836879309244
 30
0.0
 10
51.92246981575669
 20
43.96130177756945
 30
0.0
 10
51.89673830378275
 20
43.95639770983401
 30
0.0
 10
51.88925746870448
 20
43.95497196687811
 30
0.0
  0
SPLINE
  5
7D
330
1F
100
AcDbEntity
  8
0
  6
Continuous
 62
     7
370
    25
100
AcDbSpline
210
0.0
220
0.0
230
1.0
 70
     8
 71
     3
 72
    55
 73
    51
 74
     0
 42
0.00000001
 43
0.00000001
 40
0.0
 40
0.0
 40
0.0
 40
0.0
 40
0.0406152090320705
 40
0.0902501616350248
 40
0.1398524446111155
 40
0.1917830622698854
 40
0.2400310790531756
 40
0.334629682040123
 40
0.3833743385240045
 40
0.4341294082094251
 40
0.4821199440183327
 40
0.5313348521076744
 40
0.5602897189138283
 40
0.5862873773500915
 40
0.6124495183877922
 40
0.6387974449707827
 40
0.668393742125595
 40
0.7004061759492628
 40
0.7348688381971834
 40
0.7376159572354771
 40
0.73926519997646
 40
0.7403354281577471
 40
0.74132386923627
 40
0.7427109459685068
 40
0.7449978222527133
 40
0.7487034442851382
 40
0.7988741937997602
 40
0.8316792919389934
 40
0.8622890037452676
 40
0.8777750583772923
 40
0.8934167141533431
 40
0.9092153762170926
 40
0.9251838296417488
 40
0.9425374601344456
 40
0.957651031218186
 40
0.9598010403799794
 40
0.961797888417594
 40
0.9637814656910917
 40
0.965884980130524
 40
0.9682269895001059
 40
0.9709430734125344
 40
0.9741649776088761
 40
0.9774116198885767
 40
0.9802116128489974
 40
0.9826723875740115
 40
0.984913962774517
 40
0.9870646621456858
 40
0.9892287750821618
 40
0.991521134792449
 40
1.0
 40
1.0
 40
1.0
 40
1.0
 10
50.34700593549331
 20
43.64231410331602
 30
0.0
 10
50.23088910752432
 20
43.61774131245128
 30
0.0
 10
49.97286846101052
 20
43.56313865496859
 30
0.0
 10
49.57774781105579
 20
43.47639784722815
 30
0.0
 10
49.15529784782861
 20
43.38062543721118
 30
0.0
 10
48.74242601590886
 20
43.28332386253056
 30
0.0
 10
48.2131254725822
 20
43.1537203625161
 30
0.0
 10
47.70381389575067
 20
43.02174247486884
 30
0.0
 10
47.2031836506684
 20
42.88250649653455
 30
0.0
 10
46.83195704952468
 20
42.77352667712522
 30
0.0
 10
46.46989153565972
 20
42.66082062668983
 30
0.0
 10
46.17101987493685
 20
42.56167103549071
 30
0.0
 10
45.93167739948775
 20
42.47766137314294
 30
0.0
 10
45.74961203183467
 20
42.4110443333934
 30
0.0
 10
45.57765776577146
 20
42.34542879013392
 30
0.0
 10
45.40246887857642
 20
42.27560887148628
 30
0.0
 10
45.22054018338431
 20
42.1994063370703
 30
0.0
 10
45.03055472951801
 20
42.11408544197803
 30
0.0
 10
44.90657765324879
 20
42.04990486777985
 30
0.0
 10
44.83668848885418
 20
42.0139482585952
 30
0.0
 10
44.82644045555976
 20
42.00897471180929
 30
0.0
 10
44.8193992072278
 20
42.00562017942606
 30
0.0
 10
44.81325081954948
 20
42.0024208721332
 30
0.0
 10
44.80561489921401
 20
41.99796564790271
 30
0.0
 10
44.79390946555125
 20
41.99085054219413
 30
0.0
 10
44.7055745027639
 20
41.93657355899095
 30
0.0
 10
44.56545121856245
 20
41.85330754222124
 30
0.0
 10
44.42018645293098
 20
41.73838618842483
 30
0.0
 10
44.33318799168541
 20
41.65690660479479
 30
0.0
 10
44.27444538966048
 20
41.59217935272822
 30
0.0
 10
44.2347452848627
 20
41.54252309977466
 30
0.0
 10
44.19919508072786
 20
41.49197717693147
 30
0.0
 10
44.16806971056202
 20
41.43919023033988
 30
0.0
 10
44.1428226483382
 20
41.38680258932198
 30
0.0
 10
44.12878562160554
 20
41.34915539747241
 30
0.0
 10
44.12231486310959
 20
41.32815602381098
 30
0.0
 10
44.12051194797434
 20
41.32146247801096
 30
0.0
 10
44.1185372825725
 20
41.31482646942639
 30
0.0
 10
44.1168389140434
 20
41.30780011288699
 30
0.0
 10
44.11483626893767
 20
41.29997713108669
 30
0.0
 10
44.11276070450309
 20
41.29092447537872
 30
0.0
 10
44.11023147710179
 20
41.28089018370305
 30
0.0
 10
44.10797004448759
 20
41.27075495910128
 30
0.0
 10
44.10599806758949
 20
41.26144820037009
 30
0.0
 10
44.10490493742759
 20
41.25322425937317
 30
0.0
 10
44.10388649267438
 20
41.24571270108463
 30
0.0
 10
44.10331530627317
 20
41.23851826124289
 30
0.0
 10
44.10264649227631
 20
41.23127002295376
 30
0.0
 10
44.10146239005496
 20
41.21707693196887
 30
0.0
 10
44.10135862810003
 20
41.20524584013559
 30
0.0
 10
44.10127694903046
 20
41.19593267160761
 30
0.0
  0
SPLINE
  5
7E
330
1F
100
AcDbEntity
  8
0
  6
Continuous
 62
     7
370
    25
100
AcDbSpline
210
0.0
220
0.0
230
1.0
 70
     8
 71
     3
 72
   113
 73
   109
 74
     0
 42
0.00000001
 43
0.00000001
 40
0.0
 40
0.0
 40
0.0
 40
0.0
 40
0.0029123895091611
 40
0.0093018456272262
 40
0.0175813675174164
 40
0.0255998933412281
 40
0.0333646799826316
 40
0.0408802955067097
 40
0.0481482377438395
 40
0.0551734946633722
 40
0.0619665973351164
 40
0.0685304996276255
 40
0.0781472307894831
 40
0.0874030623847811
 40
0.0966787082060734
 40
0.104950470766111
 40
0.1149032727827594
 40
0.123861638556884
 40
0.1321625513630997
 40
0.1414829323941962
 40
0.1500319370001884
 40
0.1587198452267505
 40
0.1671946326297325
 40
0.1755843127356056
 40
0.1838808607210566
 40
0.1920830356407142
 40
0.2082184372729491
 40
0.2182633669586169
 40
0.2283036305500198
 40
0.2383477752358011
 40
0.249275049224385
 40
0.2584325484726715
 40
0.2684871763663207
 40
0.2785455008452259
 40
0.2886200701625455
 40
0.2997670309398819
 40
0.3112058418929605
 40
0.322943679202935
 40
0.3349800719101167
 40
0.3490378207464362
 40
0.3553386967864993
 40
0.3624667159247186
 40
0.3697705302127102
 40
0.3772441995894762
 40
0.3847726884285491
 40
0.3926884549206291
 40
0.4030647302654837
 40
0.4138112861714149
 40
0.4249693030542988
 40
0.4307190128002098
 40
0.4365902052386537
 40
0.4425958007361198
 40
0.4487349672061403
 40
0.4550113912384552
 40
0.4614407648729392
 40
0.4680288185598745
 40
0.4754267041904371
 40
0.4816783781131459
 40
0.4887448934424354
 40
0.4947742518200438
 40
0.500520123245686
 40
0.5059845239539658
 40
0.5111732291482705
 40
0.5207456112339794
 40
0.5292692949352674
 40
0.5379025954396303
 40
0.5462222696219245
 40
0.5542294576220147
 40
0.5619239814218924
 40
0.5763797891600272
 40
0.5895966825261201
 40
0.6064456631237272
 40
0.6219899661638199
 40
0.6384600357682058
 40
0.6636788217376529
 40
0.673729196496671
 40
0.6889314349278184
 40
0.7061064371277103
 40
0.7234676757525541
 40
0.7401930902888496
 40
0.7524606802624615
 40
0.7666992894527889
 40
0.7807660119487027
 40
0.7979758208836545
 40
0.808399295879576
 40
0.8353666484274083
 40
0.849610437804299
 40
0.8643518363367229
 40
0.8795773782312566
 40
0.8952934323720431
 40
0.9122719938976923
 40
0.9218162734469464
 40
0.9282397372557359
 40
0.936793689349076
 40
0.9454750760563208
 40
0.954288722624597
 40
0.9632410134622478
 40
0.9726173974180565
 40
0.9835143419861956
 40
0.9895544509434775
 40
0.9903905465125388
 40
0.9911465936210013
 40
0.9918918569744556
 40
0.9926887055091542
 40
0.9935969953531963
 40
0.9946831543420775
 40
0.9960095660709687
 40
1.0
 40
1.0
 40
1.0
 40
1.0
 10
44.09936173553529
 20
41.00608806288666
 30
0.0
 10
44.09898318742958
 20
40.99750066199825
 30
0.0
 10
44.09777414721339
 20
40.9700734661675
 30
0.0
 10
44.10330392450798
 20
40.91816645136116
 30
0.0
 10
44.11825491868233
 20
40.85125186501051
 30
0.0
 10
44.14541385283503
 20
40.78050940580835
 30
0.0
 10
44.18117716474728
 20
40.71236332057544
 30
0.0
 10
44.22419764139373
 20
40.6468305539228
 30
0.0
 10
44.27344819557377
 20
40.58392783908875
 30
0.0
 10
44.32764370997218
 20
40.52360273555911
 30
0.0
 10
44.38584092850204
 20
40.46579254707981
 30
0.0
 10
44.45726970908105
 20
40.40119778853715
 30
0.0
 10
44.54338254464636
 20
40.33041901938498
 30
0.0
 10
44.64767717351712
 20
40.2531713161459
 30
0.0
 10
44.7551572926609
 20
40.18070042747323
 30
0.0
 10
44.8726553849443
 20
40.10740306318263
 30
0.0
 10
44.99620207785261
 20
40.03611654088612
 30
0.0
 10
45.12706521490964
 20
39.96599390187735
 30
0.0
 10
45.26104678692391
 20
39.89864276774672
 30
0.0
 10
45.39873868673574
 20
39.83346724664939
 30
0.0
 10
45.54406392144068
 20
39.76850856831305
 30
0.0
 10
45.68975934772888
 20
39.70673230956755
 30
0.0
 10
45.83919781574094
 20
39.64643423387813
 30
0.0
 10
45.99053926886788
 20
39.58809842943771
 30
0.0
 10
46.14416303612802
 20
39.53141358367502
 30
0.0
 10
46.35027301994027
 20
39.45835950224543
 30
0.0
 10
46.57442242059796
 20
39.38336226060975
 30
0.0
 10
46.81740406897324
 20
39.30646602995181
 30
0.0
 10
47.02390743042591
 20
39.24390129454265
 30
0.0
 10
47.24079353203486
 20
39.18095758279446
 30
0.0
 10
47.45599423817033
 20
39.12137810911371
 30
0.0
 10
47.67546682144626
 20
39.06333383769552
 30
0.0
 10
47.8922240859645
 20
39.00835647919913
 30
0.0
 10
48.11982789529024
 20
38.95329983033434
 30
0.0
 10
48.35965228803848
 20
38.89795071818685
 30
0.0
 10
48.6142682631611
 20
38.842041370215
 30
0.0
 10
48.88687366619553
 20
38.78566454865708
 30
0.0
 10
49.17235434927807
 20
38.73078515802978
 30
0.0
 10
49.48524594623348
 20
38.67524145762346
 30
0.0
 10
49.75938845087316
 20
38.63142459212215
 30
0.0
 10
49.99597207304888
 20
38.59703045664143
 30
0.0
 10
50.17656763574956
 20
38.57267782370847
 30
0.0
 10
50.36950414667503
 20
38.54866832810696
 30
0.0
 10
50.56834973920346
 20
38.52635111499217
 30
0.0
 10
50.77471053281677
 20
38.50548938626716
 30
0.0
 10
51.00960863800594
 20
38.48472941958877
 30
0.0
 10
51.2764934845292
 20
38.46498591322536
 30
0.0
 10
51.5760918925501
 20
38.44815925247281
 30
0.0
 10
51.83454243178152
 20
38.43824381604864
 30
0.0
 10
52.04803563963252
 20
38.43335751017229
 30
0.0
 10
52.21339324234447
 20
38.43129980855237
 30
0.0
 10
52.38236637774939
 20
38.43106020393146
 30
0.0
 10
52.55487295376123
 20
38.43282505254891
 30
0.0
 10
52.73077643829375
 20
38.43685114897533
 30
0.0
 10
52.909989599357
 20
38.44326342688465
 30
0.0
 10
53.09825758121162
 20
38.4526589764078
 30
0.0
 10
53.28310324396109
 20
38.46468054580561
 30
0.0
 10
53.46991523443065
 20
38.4798695036763
 30
0.0
 10
53.64179646306108
 20
38.49670143302983
 30
0.0
 10
53.80631742776757
 20
38.51554992693757
 30
0.0
 10
53.95435919815327
 20
38.53469826147531
 30
0.0
 10
54.09259674519426
 20
38.55468184694406
 30
0.0
 10
54.26034446451851
 20
38.58104017188797
 30
0.0
 10
54.44886964604865
 20
38.61408115666509
 30
0.0
 10
54.65899975136836
 20
38.65521575117363
 30
0.0
 10
54.85453525655257
 20
38.69666634144459
 30
0.0
 10
55.04157915626112
 20
38.73926875554272
 30
0.0
 10
55.21766691179242
 20
38.7818908405404
 30
0.0
 10
55.43413636750234
 20
38.83720091113596
 30
0.0
 10
55.68154216633346
 20
38.90448863149938
 30
0.0
 10
55.98538413682004
 20
38.9918302417451
 30
0.0
 10
56.29339716713469
 20
39.08241050399558
 30
0.0
 10
56.61843662133737
 20
39.18108666349029
 30
0.0
 10
56.99313544312938
 20
39.29859324613397
 30
0.0
 10
57.32308569967302
 20
39.40755820989511
 30
0.0
 10
57.63677287600351
 20
39.51622001998471
 30
0.0
 10
57.89480600518429
 20
39.60917235439547
 30
0.0
 10
58.18835856480057
 20
39.72056475230714
 30
0.0
 10
58.47976480431436
 20
39.83822514954442
 30
0.0
 10
58.73271003516342
 20
39.94716827140252
 30
0.0
 10
58.96048789929997
 20
40.05061407742227
 30
0.0
 10
59.16772516947275
 20
40.1491237114043
 30
0.0
 10
59.39324222571312
 20
40.26108456770854
 30
0.0
 10
59.59328339045276
 20
40.36498068965619
 30
0.0
 10
59.84903405505725
 20
40.50220201292326
 30
0.0
 10
60.08330004138696
 20
40.63339941264117
 30
0.0
 10
60.33151089541826
 20
40.77657074762208
 30
0.0
 10
60.52230097808356
 20
40.89063772715713
 30
0.0
 10
60.71097364531678
 20
41.00993029246663
 30
0.0
 10
60.89767752180049
 20
41.13684167290688
 30
0.0
 10
61.04966537522934
 20
41.25056315236424
 30
0.0
 10
61.15875659130557
 20
41.34051234201662
 30
0.0
 10
61.23503837180931
 20
41.40806413229208
 30
0.0
 10
61.30440098136788
 20
41.47373395483771
 30
0.0
 10
61.37493537883436
 20
41.54667123367864
 30
0.0
 10
61.44002263825064
 20
41.62137258689513
 30
0.0
 10
61.49998751027005
 20
41.69865080892991
 30
0.0
 10
61.55647670945999
 20
41.78251715342147
 30
0.0
 10
61.59527470059616
 20
41.85887111733219
 30
0.0
 10
61.61346431554517
 20
41.910830930534
 30
0.0
 10
61.61986629396024
 20
41.93319711777817
 30
0.0
 10
61.62226702265021
 20
41.94002907141535
 30
0.0
 10
61.62445985703946
 20
41.94675318600827
 30
0.0
 10
61.62648713311117
 20
41.95393556913494
 30
0.0
 10
61.62806781335337
 20
41.96214078943343
 30
0.0
 10
61.62957638102011
 20
41.97191174803124
 30
0.0
 10
61.63131141231131
 20
41.99077819926235
 30
0.0
 10
61.63076474518791
 20
42.00646863295884
 30
0.0
 10
61.63035445698746
 20
42.01824472032568
 30
0.0
  0
LINE
  5
7F
330
1F
100
AcDbEntity
  8
0
  6
Continuous
 62
     7
370
    25
100
AcDbLine
 10
44.101276949
 20
41.1959326716
 30
0.0
 11
44.0993617355
 21
41.0060880629
 31
0.0
  0
LINE
  5
80
330
1F
100
AcDbEntity
  8
0
  6
Continuous
 62
     7
370
    25
100
AcDbLine
 10
61.630354457
 20
42.0182447203
 30
0.0
 11
61.6322696705
 21
42.208089329
 31
0.0
  0
SPLINE
  5
81
330
1F
100
AcDbEntity
  8
0
  6
Continuous
 62
     7
370
    25
100
AcDbSpline
210
0.0
220
0.0
230
1.0
 70
     8
 71
     3
 72
    28
 73
    24
 74
     0
 42
0.00000001
 43
0.00000001
 40
0.0
 40
0.0
 40
0.0
 40
0.0
 40
0.1134284378942889
 40
0.2918177907185119
 40
0.4729737724046676
 40
0.6523511917107694
 40
0.7968791006084707
 40
0.951702924302802
 40
0.9538756063257836
 40
0.9572487717910682
 40
0.958777018240004
 40
0.9652999861159577
 40
0.9653126014543862
 40
0.9653660001271464
 40
0.9710939525862274
 40
0.9727939063747156
 40
0.9780752270053262
 40
0.9832223636557331
 40
0.9862282174455201
 40
0.9941226601556415
 40
0.9954788647271554
 40
0.9961536046954609
 40
1.0
 40
1.0
 40
1.0
 40
1.0
 10
56.63122058506674
 20
41.75412884985721
 30
0.0
 10
56.62700737583547
 20
41.84204162017999
 30
0.0
 10
56.61616803578521
 20
42.06821515203669
 30
0.0
 10
56.59845178123467
 20
42.43874760099148
 30
0.0
 10
56.57850837731138
 20
42.85247029799009
 30
0.0
 10
56.55938148721358
 20
43.25538818675717
 30
0.0
 10
56.54227396129323
 20
43.6001358772211
 30
0.0
 10
56.52885339620079
 20
43.90637478477186
 30
0.0
 10
56.52450871163391
 20
43.97725212298802
 30
0.0
 10
56.52438752077231
 20
43.98058185879734
 30
0.0
 10
56.52385939600576
 20
43.98510131108336
 30
0.0
 10
56.52373085329737
 20
43.98773345926396
 30
0.0
 10
56.52341782592526
 20
43.990290010786
 30
0.0
 10
56.5231439730868
 20
43.99241577295218
 30
0.0
 10
56.52166599546322
 20
43.99550183653331
 30
0.0
 10
56.52024993156884
 20
44.00001570914416
 30
0.0
 10
56.51858145293507
 20
44.00413349523698
 30
0.0
 10
56.51716131244417
 20
44.00839701635755
 30
0.0
 10
56.51487667329578
 20
44.01364836711166
 30
0.0
 10
56.51421601938827
 20
44.01705494325498
 30
0.0
 10
56.51207704274445
 20
44.02016649054938
 30
0.0
 10
56.51094620069478
 20
44.02194532509259
 30
0.0
 10
56.50996479324659
 20
44.02335407974554
 30
0.0
 10
56.50912985229199
 20
44.0245525900655
 30
0.0
  0
SPLINE
  5
82
330
1F
100
AcDbEntity
  8
0
  6
Continuous
 62
     7
370
    25
100
AcDbSpline
210
0.0
220
0.0
230
1.0
 70
     8
 71
     3
 72
    51
 73
    47
 74
     0
 42
0.00000001
 43
0.00000001
 40
0.0
 40
0.0
 40
0.0
 40
0.0
 40
0.0007332164830297
 40
0.0036736308122664
 40
0.0058010650326231
 40
0.0115792943718866
 40
0.0185153108645104
 40
0.0193804325690894
 40
0.0206178314053709
 40
0.0241903045047002
 40
0.0252863421027177
 40
0.029613501345487
 40
0.0313980497788331
 40
0.0330279971068242
 40
0.1675432270453434
 40
0.2407608530874862
 40
0.3239250451402015
 40
0.490939067980916
 40
0.5638395876157218
 40
0.7325680043764997
 40
0.7373910860066639
 40
0.7378614981835747
 40
0.7406167343494557
 40
0.7450695416705602
 40
0.7473483768478861
 40
0.7541584336051046
 40
0.7609683540893136
 40
0.7640171496567504
 40
0.7700055702095777
 40
0.7755468773765822
 40
0.7826795418788925
 40
0.7908926949400634
 40
0.7992273013407503
 40
0.8107924299975818
 40
0.8283900590525176
 40
0.8336155182164913
 40
0.8574599578739667
 40
0.8654646949325169
 40
0.8864903632687717
 40
0.9138092129258414
 40
0.9154799593950999
 40
0.9169160353447843
 40
0.9444234430482263
 40
0.963326815162261
 40
0.973358669991897
 40
1.0
 40
1.0
 40
1.0
 40
1.0
 10
55.13821805816767
 20
44.1553592695925
 30
0.0
 10
55.13792979784842
 20
44.15509997583553
 30
0.0
 10
55.13648552863835
 20
44.15380083764497
 30
0.0
 10
55.13515889557236
 20
44.15145667568822
 30
0.0
 10
55.13195800669568
 20
44.14707817191576
 30
0.0
 10
55.12770148145352
 20
44.14111054553265
 30
0.0
 10
55.12391788341399
 20
44.13496964846589
 30
0.0
 10
55.12149734580567
 20
44.13135519361983
 30
0.0
 10
55.11961855397457
 20
44.12834344337219
 30
0.0
 10
55.11881762944781
 20
44.12533112044063
 30
0.0
 10
55.1171074163537
 20
44.12025223624373
 30
0.0
 10
55.11610467374478
 20
44.11740399228996
 30
0.0
 10
55.11455363184681
 20
44.112018748302
 30
0.0
 10
55.08845898931193
 20
44.02337538008624
 30
0.0
 10
55.02036267821875
 20
43.7200373027232
 30
0.0
 10
54.94656323094055
 20
43.42085416800065
 30
0.0
 10
54.8611199702007
 20
43.06631303867914
 30
0.0
 10
54.7737293482645
 20
42.70574546290678
 30
0.0
 10
54.67136450511931
 20
42.2861369243615
 30
0.0
 10
54.58100836233892
 20
41.90118145970843
 30
0.0
 10
54.5572738578819
 20
41.81458528848191
 30
0.0
 10
54.55608018378512
 20
41.80969435634307
 30
0.0
 10
54.55505872403994
 20
41.80670021646609
 30
0.0
 10
54.55541944076463
 20
41.80146421844065
 30
0.0
 10
54.55557455592054
 20
41.79577681657494
 30
0.0
 10
54.5557031413742
 20
41.78820121210985
 30
0.0
 10
54.55615217181433
 20
41.78119161391595
 30
0.0
 10
54.55661670874269
 20
41.77419136442566
 30
0.0
 10
54.55645037833406
 20
41.76844023827531
 30
0.0
 10
54.55988722390047
 20
41.76031015157783
 30
0.0
 10
54.56263994966807
 20
41.75243908247808
 30
0.0
 10
54.56650497991217
 20
41.74265478165201
 30
0.0
 10
54.56971750510154
 20
41.73214137680695
 30
0.0
 10
54.58173120110936
 20
41.71770593280185
 30
0.0
 10
54.58807741246494
 20
41.70471899438816
 30
0.0
 10
54.60647229305965
 20
41.68727584299583
 30
0.0
 10
54.61747531182135
 20
41.67359176545546
 30
0.0
 10
54.64369266609472
 20
41.65468876103542
 30
0.0
 10
54.66750669597896
 20
41.63461835262397
 30
0.0
 10
54.70015472643904
 20
41.61716877291507
 30
0.0
 10
54.71687197548868
 20
41.60646796873518
 30
0.0
 10
54.73805169321795
 20
41.59627741412567
 30
0.0
 10
54.76682560532455
 20
41.57973798547874
 30
0.0
 10
54.81193671298179
 20
41.56170501316524
 30
0.0
 10
54.85316323857626
 20
41.54345796422945
 30
0.0
 10
54.88500670955324
 20
41.53240228789871
 30
0.0
 10
54.9081394814315
 20
41.52437086322445
 30
0.0
  0
SPLINE
  5
83
330
1F
100
AcDbEntity
  8
0
  6
Continuous
 62
     7
370
    25
100
AcDbSpline
210
0.0
220
0.0
230
1.0
 70
     8
 71
     3
 72
    17
 73
    13
 74
     0
 42
0.00000001
 43
0.00000001
 40
0.0
 40
0.0
 40
0.0
 40
0.0
 40
0.0545945531597473
 40
0.1649149855944973
 40
0.2754202144406126
 40
0.3860964810473057
 40
0.4964293222608187
 40
0.6070462087441647
 40
0.7176490499912422
 40
0.827976518991707
 40
0.9386373207139364
 40
0.9999999999999999
 40
0.9999999999999999
 40
0.9999999999999999
 40
0.9999999999999999
 10
56.43733186910291
 20
45.79640040421974
 30
0.0
 10
56.43734181579227
 20
45.79847445842959
 30
0.0
 10
56.4373718619789
 20
45.80473960028609
 30
0.0
 10
56.43264990423926
 20
45.81564323319673
 30
0.0
 10
56.42368547588543
 20
45.82865634644961
 30
0.0
 10
56.41033938644217
 20
45.84208069303968
 30
0.0
 10
56.39289027714483
 20
45.85499645912309
 30
0.0
 10
56.37158512847121
 20
45.86803812277208
 30
0.0
 10
56.34668454514175
 20
45.88056977161752
 30
0.0
 10
56.31809952953935
 20
45.89266973402597
 30
0.0
 10
56.29160547387625
 20
45.90273419034359
 30
0.0
 10
56.27352568912497
 20
45.90826921823085
 30
0.0
 10
56.26707642983343
 20
45.9102436239288
 30
0.0
  0
SPLINE
  5
84
330
1F
100
AcDbEntity
  8
0
  6
Continuous
 62
     7
370
    25
100
AcDbSpline
210
0.0
220
0.0
230
1.0
 70
     8
 71
     3
 72
    15
 73
    11
 74
     0
 42
0.00000001
 43
0.00000001
 40
0.0
 40
0.0
 40
0.0
 40
0.0
 40
0.0798713716239819
 40
0.2178349142698096
 40
0.355950988204449
 40
0.4940023058810106
 40
0.6319784435379325
 40
0.7699986968918473
 40
0.9079147378139553
 40
1.0
 40
1.0
 40
1.0
 40
1.0
 10
55.67143969976502
 20
45.95179164233571
 30
0.0
 10
55.66540665680585
 20
45.95061359308918
 30
0.0
 10
55.64895260863968
 20
45.9474006739743
 30
0.0
 10
55.6258233654903
 20
45.94080300489555
 30
0.0
 10
55.60162745779487
 20
45.93241893286116
 30
0.0
 10
55.58147821005093
 20
45.92284336869959
 30
0.0
 10
55.56503299788324
 20
45.91266072904774
 30
0.0
 10
55.55302390210656
 20
45.90139699540092
 30
0.0
 10
55.54544865038375
 20
45.89112602477322
 30
0.0
 10
55.54380270897114
 20
45.88424478514947
 30
0.0
 10
55.54314372598072
 20
45.8814897539981
 30
0.0
  0
SPLINE
  5
85
330
1F
100
AcDbEntity
  8
0
  6
Continuous
 62
     7
370
    25
100
AcDbSpline
210
0.0
220
0.0
230
1.0
 70
     8
 71
     3
 72
    41
 73
    37
 74
     0
 42
0.00000001
 43
0.00000001
 40
0.0
 40
0.0
 40
0.0
 40
0.0
 40
0.0100833972208374
 40
0.0405377254898151
 40
0.0710085404234454
 40
0.101445382458086
 40
0.1318852366431343
 40
0.162360958521155
 40
0.1928082506715865
 40
0.2232403080063083
 40
0.2537244639880366
 40
0.2841449031813807
 40
0.3146156882321564
 40
0.3450717013105415
 40
0.3755059346286221
 40
0.4059656816909266
 40
0.4364178563348405
 40
0.4668521538302309
 40
0.4973249268436516
 40
0.5277760867456947
 40
0.558218380204341
 40
0.5886681997747789
 40
0.6191220175156527
 40
0.6495916698376767
 40
0.6800506870642714
 40
0.7104770840315249
 40
0.7409482123276757
 40
0.7713880856172843
 40
0.8018284336406627
 40
0.8322872248306028
 40
0.8627527810946192
 40
0.8932027648930777
 40
0.9236566688085756
 40
0.9541268229229886
 40
0.9845409081766737
 40
1.0
 40
1.0
 40
1.0
 40
1.0
 10
55.13428920637472
 20
44.19429617174212
 30
0.0
 10
55.13358158729044
 20
44.1922170552803
 30
0.0
 10
55.13073678532925
 20
44.18385849808526
 30
0.0
 10
55.1325148611561
 20
44.1684564087382
 30
0.0
 10
55.13968051922109
 20
44.14829287702933
 30
0.0
 10
55.15402829820868
 20
44.12795206619792
 30
0.0
 10
55.17470657999905
 20
44.10748355423985
 30
0.0
 10
55.20166477154446
 20
44.0871349487673
 30
0.0
 10
55.23466923189391
 20
44.0670489718779
 30
0.0
 10
55.27340311839723
 20
44.04760773566902
 30
0.0
 10
55.31740439906762
 20
44.02880609554685
 30
0.0
 10
55.36636074533447
 20
44.01075215773762
 30
0.0
 10
55.41976469541685
 20
43.99398554588911
 30
0.0
 10
55.4769871251375
 20
43.9783223834446
 30
0.0
 10
55.53770360826051
 20
43.96402724624082
 30
0.0
 10
55.60112627006986
 20
43.95125340323033
 30
0.0
 10
55.66672690984943
 20
43.94003860052501
 30
0.0
 10
55.73386388413038
 20
43.93059453222848
 30
0.0
 10
55.80190866905978
 20
43.92293449807663
 30
0.0
 10
55.87018973030624
 20
43.91725213617165
 30
0.0
 10
55.93807008547169
 20
43.91356312915254
 30
0.0
 10
56.00482654406849
 20
43.91175737940444
 30
0.0
 10
56.06993234036936
 20
43.91204432074525
 30
0.0
 10
56.13264273602876
 20
43.91437287364315
 30
0.0
 10
56.19248296468449
 20
43.91853999821648
 30
0.0
 10
56.24868832285431
 20
43.92469438743865
 30
0.0
 10
56.30089768910333
 20
43.93272132226924
 30
0.0
 10
56.34852184342766
 20
43.94270139499433
 30
0.0
 10
56.3910861247339
 20
43.95425379982139
 30
0.0
 10
56.42837471991873
 20
43.9673637525094
 30
0.0
 10
56.45975865485286
 20
43.98204375351108
 30
0.0
 10
56.48487393063778
 20
43.99799648373953
 30
0.0
 10
56.50407555301442
 20
44.01522653207449
 30
0.0
 10
56.51606223493093
 20
44.03331439819525
 30
0.0
 10
56.52178787626845
 20
44.0491975461712
 30
0.0
 10
56.52083095104027
 20
44.05909323301373
 30
0.0
 10
56.52050847076066
 20
44.06242804305526
 30
0.0
  0
SPLINE
  5
86
330
1F
100
AcDbEntity
  8
0
  6
Continuous
 62
     7
370
    25
100
AcDbSpline
210
0.0
220
0.0
230
1.0
 70
     8
 71
     3
 72
    13
 73
     9
 74
     0
 42
0.00000001
 43
0.00000001
 40
0.0
 40
0.0
 40
0.0
 40
0.0
 40
0.1609509244766111
 40
0.4845764558991835
 40
0.6442085583693566
 40
0.9691807458569048
 40
0.9794132879683268
 40
1.0
 40
1.0
 40
1.0
 40
1.0
 10
55.54314372598072
 20
45.8814897539981
 30
0.0
 10
55.52131608788279
 20
45.79131563648997
 30
0.0
 10
55.45559941340863
 20
45.51982757627518
 30
0.0
 10
55.36714372423578
 20
45.15532263894984
 30
0.0
 10
55.25770044097976
 20
44.70318499746438
 30
0.0
 10
55.18937088378085
 20
44.42256862583746
 30
0.0
 10
55.14127631024435
 20
44.22331658398556
 30
0.0
 10
55.13708735425526
 20
44.20591806924454
 30
0.0
 10
55.13428920637472
 20
44.19429617174212
 30
0.0
  0
SPLINE
  5
87
330
1F
100
AcDbEntity
  8
0
  6
Continuous
 62
     7
370
    25
100
AcDbSpline
210
0.0
220
0.0
230
1.0
 70
     8
 71
     3
 72
    13
 73
     9
 74
     0
 42
0.00000001
 43
0.00000001
 40
0.0
 40
0.0
 40
0.0
 40
0.0
 40
0.0155938222754912
 40
0.0308521482105198
 40
0.2746519550220298
 40
0.5154389154620186
 40
0.7573346383571301
 40
1.0
 40
1.0
 40
1.0
 40
1.0
 10
56.52050847076066
 20
44.06242804305526
 30
0.0
 10
56.52006891237659
 20
44.07140171910773
 30
0.0
 10
56.51919925257329
 20
44.08915600530344
 30
0.0
 10
56.51151584346209
 20
44.24814616667604
 30
0.0
 10
56.49783926150538
 20
44.53513288531526
 30
0.0
 10
56.47754348342192
 20
44.95755774722753
 30
0.0
 10
56.45757119361465
 20
45.37447241793234
 30
0.0
 10
56.44408545050503
 20
45.65560889709376
 30
0.0
 10
56.43733186910291
 20
45.79640040421974
 30
0.0
  0
SPLINE
  5
88
330
1F
100
AcDbEntity
  8
0
  6
Continuous
 62
     7
370
    25
100
AcDbSpline
210
0.0
220
0.0
230
1.0
 70
     8
 71
     3
 72
    66
 73
    62
 74
     0
 42
0.00000001
 43
0.00000001
 40
0.0
 40
0.0
 40
0.0
 40
0.0
 40
0.8727998676915409
 40
0.9783103756612753
 40
0.9789188183210561
 40
0.979095193904824
 40
0.9795918805678745
 40
0.9798641714152385
 40
0.9802682511227025
 40
0.9806305579621732
 40
0.9809577607166629
 40
0.9813965128730878
 40
0.9816592839880076
 40
0.9821612146645335
 40
0.9823768215422786
 40
0.9829275653531053
 40
0.9831142365383372
 40
0.9836951138219452
 40
0.9838675340125557
 40
0.9844652291900146
 40
0.9846363459252602
 40
0.985239980953312
 40
0.9854329035775627
 40
0.9860199303771868
 40
0.9862538978259608
 40
0.9868004110436157
 40
0.9871018558551025
 40
0.9875732966909994
 40
0.9879619275378786
 40
0.9883409134042975
 40
0.9888423789107398
 40
0.9891046623228484
 40
0.9897564311601804
 40
0.9898661796799955
 40
0.990349879124465
 40
0.9906257104745945
 40
0.9906918734388399
 40
0.9913845665434468
 40
0.9916666028293961
 40
0.9921453293319691
 40
0.9926789896994107
 40
0.99290755859672
 40
0.9934949295684886
 40
0.9936769138729556
 40
0.9937546113833176
 40
0.9944437012764167
 40
0.9948662868028263
 40
0.9952036465619223
 40
0.9959006948105313
 40
0.995957690271027
 40
0.9959865116628385
 40
0.9967104590856484
 40
0.9971364150616513
 40
0.9974599403691359
 40
0.998059134818123
 40
0.9982108135832017
 40
0.9982940102328565
 40
0.9989623798122985
 40
0.9994544861523145
 40
0.9997166519515622
 40
1.0
 40
1.0
 40
1.0
 40
1.0
 10
56.2571430126216
 20
45.805879229882
 30
0.0
 10
58.35742875053585
 20
65.53915245611923
 30
0.0
 10
60.71161257355755
 20
87.65792980429532
 30
0.0
 10
62.28353153557806
 20
110.3558189594396
 30
0.0
 10
62.62540775672768
 20
112.6969920679756
 30
0.0
 10
62.62899004026488
 20
112.7254871488267
 30
0.0
 10
62.63502000082302
 20
112.7460318539712
 30
0.0
 10
62.6400199902694
 20
112.7720038476302
 30
0.0
 10
62.64845335280372
 20
112.794479639929
 30
0.0
 10
62.65498991479629
 20
112.8185971149336
 30
0.0
 10
62.66585617529595
 20
112.842653165441
 30
0.0
 10
62.67374222220939
 20
112.8651077404832
 30
0.0
 10
62.68730636836762
 20
112.8900801363743
 30
0.0
 10
62.69649551095971
 20
112.9112011396309
 30
0.0
 10
62.71260792835518
 20
112.9366220432186
 30
0.0
 10
62.72318094619496
 20
112.9566016418604
 30
0.0
 10
62.74199682540893
 20
112.9818032733198
 30
0.0
 10
62.75389034053092
 20
113.0008292541778
 30
0.0
 10
62.7749852440562
 20
113.0252506608262
 30
0.0
 10
62.78843227147937
 20
113.0433663296708
 30
0.0
 10
62.81166045542341
 20
113.0664109535899
 30
0.0
 10
62.82686434356645
 20
113.0839838340362
 30
0.0
 10
62.85191855267858
 20
113.1051715611338
 30
0.0
 10
62.869270425487
 20
113.1221789360576
 30
0.0
 10
62.89541700661988
 20
113.140910524309
 30
0.0
 10
62.91526444206015
 20
113.1573478962757
 30
0.0
 10
62.94155432296628
 20
113.1729780797208
 30
0.0
 10
62.96403064012422
 20
113.1886459918453
 30
0.0
 10
62.98959949198121
 20
113.2008722591298
 30
0.0
 10
63.01522790757602
 20
113.2154720160128
 30
0.0
 10
63.03932050430085
 20
113.2243167178005
 30
0.0
 10
63.06870969465793
 20
113.2376714084625
 30
0.0
 10
63.09037414389982
 20
113.2432480277446
 30
0.0
 10
63.11671671472575
 20
113.2524000119407
 30
0.0
 10
63.13517549429004
 20
113.2550034270262
 30
0.0
 10
63.15263728760577
 20
113.2606282203311
 30
0.0
 10
63.17425932548223
 20
113.2638920692265
 30
0.0
 10
63.1965265995752
 20
113.2690906213988
 30
0.0
 10
63.22623490280163
 20
113.2704180134494
 30
0.0
 10
63.25340481749697
 20
113.2736157043747
 30
0.0
 10
63.27813918755498
 20
113.2716909364784
 30
0.0
 10
63.30581276252907
 20
113.2718355514509
 30
0.0
 10
63.32466438870662
 20
113.2674335755298
 30
0.0
 10
63.34156225031693
 20
113.266823322966
 30
0.0
 10
63.35922546201201
 20
113.2629641150976
 30
0.0
 10
63.38250889745778
 20
113.260171716901
 30
0.0
 10
63.40791170641808
 20
113.2510700775596
 30
0.0
 10
63.43471391639991
 20
113.24402159741
 30
0.0
 10
63.45208840344933
 20
113.2339046332928
 30
0.0
 10
63.4659383142267
 20
113.2292595034808
 30
0.0
 10
63.4787958698603
 20
113.2223266495452
 30
0.0
 10
63.49882745280963
 20
113.2140090014748
 30
0.0
 10
63.52016756908155
 20
113.198339681353
 30
0.0
 10
63.54111469946886
 20
113.1857716124539
 30
0.0
 10
63.5544198657272
 20
113.1718098602223
 30
0.0
 10
63.56679562217418
 20
113.1634266565293
 30
0.0
 10
63.5781542846335
 20
113.1518482478679
 30
0.0
 10
63.59534731897705
 20
113.1377420570683
 30
0.0
 10
63.61081542412492
 20
113.1169914632695
 30
0.0
 10
63.62330935631573
 20
113.1031173309504
 30
0.0
 10
63.62858601686843
 20
113.0945912719313
 30
0.0
 10
63.63132679325057
 20
113.0901627094042
 30
0.0
  0
SPLINE
  5
89
330
1F
100
AcDbEntity
  8
0
  6
Continuous
 62
     7
370
    25
100
AcDbSpline
210
0.0
220
0.0
230
1.0
 70
     8
 71
     3
 72
    69
 73
    65
 74
     0
 42
0.00000001
 43
0.00000001
 40
0.0
 40
0.0
 40
0.0
 40
0.0
 40
0.0007945559825588
 40
0.0009619762858554
 40
0.0013717074189309
 40
0.002398295355383
 40
0.0029481647347052
 40
0.0038290838386142
 40
0.0051520275138772
 40
0.005254599854813
 40
0.0054450958189622
 40
0.006679077503957
 40
0.0073450640806985
 40
0.0081015634334929
 40
0.0095157585767099
 40
0.0095254291886227
 40
0.0095439771820133
 40
0.0109522200000789
 40
0.0116371822502685
 40
0.0123825911769691
 40
0.0137178212429169
 40
0.0138211877595245
 40
0.0140659586013991
 40
0.0152548458063437
 40
0.0157100627677175
 40
0.0166726903359564
 40
0.0175958169213305
 40
0.0180793013264316
 40
0.0194147520225794
 40
0.01947684968007
 40
0.0197337478201158
 40
0.0208663772937282
 40
0.0211073412612342
 40
0.0222532922717833
 40
0.0227487387274704
 40
0.0236384692507773
 40
0.0243358633937631
 40
0.0250254331072536
 40
0.0258954867524635
 40
0.0264185887861756
 40
0.0274154423749827
 40
0.0278189111482297
 40
0.0288839092109842
 40
0.0292186197838407
 40
0.0303107059551951
 40
0.030607011346403
 40
0.0316948425486731
 40
0.0319881870627009
 40
0.033039445548083
 40
0.0333647932538691
 40
0.034348645229447
 40
0.0347390931709683
 40
0.0356352142484176
 40
0.0361158768933938
 40
0.0369051762506128
 40
0.0374972749733515
 40
0.038144491845581
 40
0.0388853779949411
 40
0.0393668141121911
 40
0.040285215692485
 40
0.0405943997004812
 40
0.0416858304107749
 40
0.1447132655880477
 40
1.0
 40
1.0
 40
1.0
 40
1.0
 10
64.181881968851
 20
113.3316374110487
 30
0.0
 10
64.17304728910742
 20
113.3472006446639
 30
0.0
 10
64.1623510605307
 20
113.366043195721
 30
0.0
 10
64.14772045078988
 20
113.3932043158954
 30
0.0
 10
64.1254545306546
 20
113.4230169453899
 30
0.0
 10
64.10129314796201
 20
113.4617881549727
 30
0.0
 10
64.06343976849207
 20
113.5036472638674
 30
0.0
 10
64.02432574505006
 20
113.553485937629
 30
0.0
 10
63.98401425077603
 20
113.587968897014
 30
0.0
 10
63.95803306368908
 20
113.6143000791104
 30
0.0
 10
63.93009419603514
 20
113.6354823917817
 30
0.0
 10
63.89431446529231
 20
113.6675115744861
 30
0.0
 10
63.84210576686032
 20
113.6990262206284
 30
0.0
 10
63.78873847308733
 20
113.7363251521398
 30
0.0
 10
63.7426856573355
 20
113.7566348095723
 30
0.0
 10
63.71363179562648
 20
113.7725521655304
 30
0.0
 10
63.68262531174219
 20
113.7844068944755
 30
0.0
 10
63.63871568220451
 20
113.8055805384104
 30
0.0
 10
63.5753187685007
 20
113.8223093612202
 30
0.0
 10
63.51483020029674
 20
113.8426101816517
 30
0.0
 10
63.46429715819174
 20
113.8494989883238
 30
0.0
 10
63.42614079718153
 20
113.8578808091108
 30
0.0
 10
63.39029340346987
 20
113.8604885254959
 30
0.0
 10
63.34692686613771
 20
113.8678498374297
 30
0.0
 10
63.2857577278617
 20
113.8670480827984
 30
0.0
 10
63.2310849001619
 20
113.8700614644598
 30
0.0
 10
63.17543381252833
 20
113.8636706504217
 30
0.0
 10
63.11097953387851
 20
113.860332574533
 30
0.0
 10
63.06718064595999
 20
113.8503263854657
 30
0.0
 10
63.02846438570009
 20
113.844561509958
 30
0.0
 10
62.99517356949007
 20
113.8348539227405
 30
0.0
 10
62.95701610129829
 20
113.8282980660097
 30
0.0
 10
62.90029181987093
 20
113.8079540235608
 30
0.0
 10
62.85691600254619
 20
113.795923403673
 30
0.0
 10
62.80166233546866
 20
113.7702903941157
 30
0.0
 10
62.75497003768182
 20
113.752381182366
 30
0.0
 10
62.70725603180555
 20
113.7249095355767
 30
0.0
 10
62.65829439281262
 20
113.7010615439956
 30
0.0
 10
62.61680684882565
 20
113.6720403160118
 30
0.0
 10
62.56720052470796
 20
113.6422283011422
 30
0.0
 10
62.53124769800358
 20
113.6120721595217
 30
0.0
 10
62.48268858101416
 20
113.5770956480323
 30
0.0
 10
62.45138443770518
 20
113.546047294939
 30
0.0
 10
62.40525898057474
 20
113.5066740672044
 30
0.0
 10
62.37775089523613
 20
113.4747226553588
 30
0.0
 10
62.33511402544377
 20
113.4320150533977
 30
0.0
 10
62.31092987722094
 20
113.3988621526887
 30
0.0
 10
62.27235746013127
 20
113.3538137972264
 30
0.0
 10
62.25091678239483
 20
113.3191115686447
 30
0.0
 10
62.2169137290195
 20
113.2727075869947
 30
0.0
 10
62.19778466192932
 20
113.2359810141512
 30
0.0
 10
62.16837569121942
 20
113.1891598097769
 30
0.0
 10
62.1514327045667
 20
113.1497338072235
 30
0.0
 10
62.12667176458238
 20
113.1032797214352
 30
0.0
 10
62.11197474726195
 20
113.0607491749476
 30
0.0
 10
62.09197439420079
 20
113.0157177204294
 30
0.0
 10
62.07954238407372
 20
112.9697504207729
 30
0.0
 10
62.06401518234234
 20
112.9272238830479
 30
0.0
 10
62.05421133349773
 20
112.8768775031294
 30
0.0
 10
62.04271096729686
 20
112.8371688466209
 30
0.0
 10
62.03574223542964
 20
112.7826189397859
 30
0.0
 10
61.67055245429994
 20
110.3218886119578
 30
0.0
 10
60.2027049070277
 20
88.1663592138424
 30
0.0
 10
57.80387204329062
 20
65.8127972794068
 30
0.0
 10
55.66293539481637
 20
45.86244530081313
 30
0.0
  0
SPLINE
  5
8A
330
1F
100
AcDbEntity
  8
0
  6
Continuous
 62
     7
370
    25
100
AcDbSpline
210
0.0
220
0.0
230
1.0
 70
     8
 71
     3
 72
    16
 73
    12
 74
     0
 42
0.00000001
 43
0.00000001
 40
0.0
 40
0.0
 40
0.0
 40
0.0
 40
0.0571445119309399
 40
0.1817822375983716
 40
0.3062140670457075
 40
0.4307557212952526
 40
0.5554587647338803
 40
0.6797628684421352
 40
0.8043014766185825
 40
0.9290678917418076
 40
1.0
 40
1.0
 40
1.0
 40
1.0
 10
53.10396314473271
 20
44.7043687346778
 30
0.0
 10
53.10366010003297
 20
44.70702908216131
 30
0.0
 10
53.10269608543644
 20
44.71549190565917
 30
0.0
 10
53.09649956860751
 20
44.72942615505392
 30
0.0
 10
53.0855125832645
 20
44.74621740092459
 30
0.0
 10
53.07026403578292
 20
44.76240911224974
 30
0.0
 10
53.05098124752677
 20
44.77788955528116
 30
0.0
 10
53.02791165599885
 20
44.79263859541165
 30
0.0
 10
53.00119701888168
 20
44.80623155871895
 30
0.0
 10
52.97580489086377
 20
44.8172790093512
 30
0.0
 10
52.95829158960375
 20
44.82309292612644
 30
0.0
 10
52.95194378810035
 20
44.8252002152719
 30
0.0
  0
SPLINE
  5
8B
330
1F
100
AcDbEntity
  8
0
  6
Continuous
 62
     7
370
    25
100
AcDbSpline
210
0.0
220
0.0
230
1.0
 70
     8
 71
     3
 72
    16
 73
    12
 74
     0
 42
0.00000001
 43
0.00000001
 40
0.0
 40
0.0
 40
0.0
 40
0.0
 40
0.0790445236801692
 40
0.2044417240874555
 40
0.3299720853697989
 40
0.4554043568227062
 40
0.581077238684934
 40
0.7064368878460608
 40
0.8319687796111656
 40
0.9575922025943879
 40
1.0
 40
1.0
 40
1.0
 40
1.0
 10
52.35482911959249
 20
44.82034228697887
 30
0.0
 10
52.34791689855452
 20
44.81787662252538
 30
0.0
 10
52.33003904540944
 20
44.81149939778641
 30
0.0
 10
52.30459485897206
 20
44.79986984011387
 30
0.0
 10
52.27846193503547
 20
44.78569218479794
 30
0.0
 10
52.2561018786672
 20
44.77064839397894
 30
0.0
 10
52.2374951874723
 20
44.75467654669809
 30
0.0
 10
52.22295725204376
 20
44.73825051713547
 30
0.0
 10
52.21265344519284
 20
44.72120195397377
 30
0.0
 10
52.20735337916948
 20
44.70785258931875
 30
0.0
 10
52.20674116490596
 20
44.70011305066353
 30
0.0
 10
52.20658665398593
 20
44.69815974230487
 30
0.0
  0
SPLINE
  5
8C
330
1F
100
AcDbEntity
  8
0
  6
Continuous
 62
     7
370
    25
100
AcDbSpline
210
0.0
220
0.0
230
1.0
 70
     8
 71
     3
 72
    41
 73
    37
 74
     0
 42
0.00000001
 43
0.00000001
 40
0.0
 40
0.0
 40
0.0
 40
0.0
 40
0.0199276385265287
 40
0.0500241468746262
 40
0.0801751849317336
 40
0.1102732720015877
 40
0.1403840673362663
 40
0.1705048093034203
 40
0.2006432879945665
 40
0.2307452353648669
 40
0.2608958246072675
 40
0.2910197241141022
 40
0.3211036821577137
 40
0.3512482494761692
 40
0.3813610893024012
 40
0.4114997541591779
 40
0.4416029548473168
 40
0.4717206677365827
 40
0.501815876184629
 40
0.5319405360139914
 40
0.5620663568089178
 40
0.592205428560867
 40
0.6223075104623932
 40
0.6524491249775479
 40
0.6825622744184721
 40
0.7126597005410719
 40
0.7428084352839266
 40
0.7728966767489521
 40
0.8030401099446987
 40
0.8331724498521056
 40
0.863273980781095
 40
0.893404712389675
 40
0.9235175394644253
 40
0.9536085469191501
 40
0.9837481269217092
 40
1.0
 40
1.0
 40
1.0
 40
1.0
 10
51.97094034002533
 20
43.05112680881614
 30
0.0
 10
51.97008930590855
 20
43.04519221407726
 30
0.0
 10
51.96795296368236
 20
43.03029466169222
 30
0.0
 10
51.97212797867777
 20
43.0063453482361
 30
0.0
 10
51.98256852337882
 20
42.97999055468541
 30
0.0
 10
51.99984200280167
 20
42.95391673919325
 30
0.0
 10
52.02350880467939
 20
42.92881797236721
 30
0.0
 10
52.05341709301948
 20
42.90470733545295
 30
0.0
 10
52.08908679181753
 20
42.88195087903645
 30
0.0
 10
52.13054525329839
 20
42.86073539942132
 30
0.0
 10
52.17699002448996
 20
42.84114736988008
 30
0.0
 10
52.22815845072763
 20
42.82353510517904
 30
0.0
 10
52.28369179727124
 20
42.807990739241
 30
0.0
 10
52.34271618319589
 20
42.79480273410093
 30
0.0
 10
52.40500491063703
 20
42.7836734356322
 30
0.0
 10
52.46979188886592
 20
42.77536786971354
 30
0.0
 10
52.53644075353837
 20
42.76935511068507
 30
0.0
 10
52.60431848233495
 20
42.76607860587294
 30
0.0
 10
52.67282607912078
 20
42.76529156453037
 30
0.0
 10
52.7412747455875
 20
42.76741150494779
 30
0.0
 10
52.80903908995961
 20
42.77184618768144
 30
0.0
 10
52.875429163087
 20
42.77904147441848
 30
0.0
 10
52.93976548697416
 20
42.78873315087133
 30
0.0
 10
53.00151356318651
 20
42.80085014366115
 30
0.0
 10
53.06003090423997
 20
42.81520761874084
 30
0.0
 10
53.11474173093386
 20
42.83173889299707
 30
0.0
 10
53.16517340779795
 20
42.85030688539679
 30
0.0
 10
53.21066445823432
 20
42.87070627830126
 30
0.0
 10
53.25110283499129
 20
42.89278315618279
 30
0.0
 10
53.28580937005931
 20
42.9160480816241
 30
0.0
 10
53.31461706185589
 20
42.94076591124518
 30
0.0
 10
53.33710637344136
 20
42.96635871050487
 30
0.0
 10
53.35326184857791
 20
42.9926040699976
 30
0.0
 10
53.36243922239743
 20
43.01928950538586
 30
0.0
 10
53.36563485800578
 20
43.04217060431009
 30
0.0
 10
53.36308567939636
 20
43.05590145016304
 30
0.0
 10
53.36219265008896
 20
43.06071164577538
 30
0.0
  0
SPLINE
  5
8D
330
1F
100
AcDbEntity
  8
0
  6
Continuous
 62
     7
370
    25
100
AcDbSpline
210
0.0
220
0.0
230
1.0
 70
     8
 71
     3
 72
    13
 73
     9
 74
     0
 42
0.00000001
 43
0.00000001
 40
0.0
 40
0.0
 40
0.0
 40
0.0
 40
0.3195399802952863
 40
0.4846109588821718
 40
0.8062229286507935
 40
0.9691691757796393
 40
0.9895453472821777
 40
0.9999999999999999
 40
0.9999999999999999
 40
0.9999999999999999
 40
0.9999999999999999
 10
52.20658665398593
 20
44.69815974230487
 30
0.0
 10
52.18156600929477
 20
44.52349312895281
 30
0.0
 10
52.14361996384398
 20
44.25859558810984
 30
0.0
 10
52.08001893263874
 20
43.812884525846
 30
0.0
 10
52.02922449001726
 20
43.45997780185635
 30
0.0
 10
51.98955254412259
 20
43.17993423474176
 30
0.0
 10
51.97417017135666
 20
43.07385931515378
 30
0.0
 10
51.97175822484611
 20
43.05688332361968
 30
0.0
 10
51.97094034002533
 20
43.05112680881614
 30
0.0
  0
SPLINE
  5
8E
330
1F
100
AcDbEntity
  8
0
  6
Continuous
 62
     7
370
    25
100
AcDbSpline
210
0.0
220
0.0
230
1.0
 70
     8
 71
     3
 72
    13
 73
     9
 74
     0
 42
0.00000001
 43
0.00000001
 40
0.0
 40
0.0
 40
0.0
 40
0.0
 40
0.0166282191106194
 40
0.0308335494412492
 40
0.2963329223400785
 40
0.5154299007332357
 40
0.7765187437081098
 40
1.0
 40
1.0
 40
1.0
 40
1.0
 10
53.36219265008896
 20
43.06071164577538
 30
0.0
 10
53.36077278248322
 20
43.06977369241852
 30
0.0
 10
53.35813993540982
 20
43.08657735980774
 30
0.0
 10
53.33245912343556
 20
43.24994896179579
 30
0.0
 10
53.29001600264904
 20
43.52010395833342
 30
0.0
 10
53.22526132282774
 20
43.93216009219675
 30
0.0
 10
53.16517808928878
 20
44.31434921612792
 30
0.0
 10
53.12328433182716
 20
44.58126742105188
 30
0.0
 10
53.10396314473271
 20
44.7043687346778
 30
0.0
  0
SPLINE
  5
8F
330
1F
100
AcDbEntity
  8
0
  6
Continuous
 62
     7
370
    25
100
AcDbSpline
210
0.0
220
0.0
230
1.0
 70
     8
 71
     3
 72
    23
 73
    19
 74
     0
 42
0.00000001
 43
0.00000001
 40
0.0
 40
0.0
 40
0.0
 40
0.0
 40
0.1488799433228128
 40
0.3231167302068328
 40
0.5125132339596149
 40
0.6743922429804458
 40
0.7977457796971258
 40
0.9660454025142385
 40
0.9680939946982317
 40
0.9732272180673258
 40
0.9742491385372042
 40
0.9772488795543212
 40
0.981179750929999
 40
0.9828542232710953
 40
0.9896853725840744
 40
0.9959292689405714
 40
0.9991511003437051
 40
1.0
 40
1.0
 40
1.0
 40
1.0
 10
53.72008273895815
 20
40.78232522134834
 30
0.0
 10
53.70243775610903
 20
40.89467042861793
 30
0.0
 10
53.66414254296269
 20
41.1384951857825
 30
0.0
 10
53.60233046037896
 20
41.53201860066473
 30
0.0
 10
53.54070511821075
 20
41.92355293739455
 30
0.0
 10
53.48349048582249
 20
42.2894472670697
 30
0.0
 10
53.43133876364953
 20
42.61772357082705
 30
0.0
 10
53.3897248952958
 20
42.89466828437797
 30
0.0
 10
53.37437904751394
 20
42.9826358784597
 30
0.0
 10
53.37384810317052
 20
42.98659955816354
 30
0.0
 10
53.37308116448277
 20
42.99058358838472
 30
0.0
 10
53.37267108097401
 20
42.99408264857838
 30
0.0
 10
53.37091217591698
 20
42.99790196613178
 30
0.0
 10
53.36911493978737
 20
43.00293712898248
 30
0.0
 10
53.36668411541138
 20
43.00891425374847
 30
0.0
 10
53.36419764381857
 20
43.01526305480428
 30
0.0
 10
53.36252082268008
 20
43.01914378723829
 30
0.0
 10
53.36185399968922
 20
43.02073677488122
 30
0.0
 10
53.3617149421589
 20
43.02106897237666
 30
0.0
  0
SPLINE
  5
90
330
1F
100
AcDbEntity
  8
0
  6
Continuous
 62
     7
370
    25
100
AcDbSpline
210
0.0
220
0.0
230
1.0
 70
     8
 71
     3
 72
    20
 73
    16
 74
     0
 42
0.00000001
 43
0.00000001
 40
0.0
 40
0.0
 40
0.0
 40
0.0
 40
0.0057085975404239
 40
0.0099905646034099
 40
0.0170789980905391
 40
0.0272068822681069
 40
0.0272585776696997
 40
0.0273747710105636
 40
0.0346688753939257
 40
0.1180102258832165
 40
0.3302349149086271
 40
0.5657647075099076
 40
0.6862088796533926
 40
0.8965172524522456
 40
1.0
 40
1.0
 40
1.0
 40
1.0
 10
51.9721691520693
 20
43.0126715133754
 30
0.0
 10
51.97134722387337
 20
43.01050887834489
 30
0.0
 10
51.96990877481776
 20
43.00672407045943
 30
0.0
 10
51.96739253957219
 20
42.99961121904214
 30
0.0
 10
51.96430763910433
 20
42.99112150131463
 30
0.0
 10
51.96190512576575
 20
42.98373867893287
 30
0.0
 10
51.96040630544298
 20
42.9792544062357
 30
0.0
 10
51.95938001440606
 20
42.97576059370358
 30
0.0
 10
51.95782077300279
 20
42.93424279937827
 30
0.0
 10
51.91020815637032
 20
42.65670190796222
 30
0.0
 10
51.8648506410151
 20
42.29662869210517
 30
0.0
 10
51.80057319135543
 20
41.86224633404716
 30
0.0
 10
51.74035948143059
 20
41.43823748954847
 30
0.0
 10
51.69381577454833
 20
41.11414945127134
 30
0.0
 10
51.6600252188526
 20
40.87728693343278
 30
0.0
 10
51.64888169273657
 20
40.79917387494362
 30
0.0
  0
SPLINE
  5
91
330
1F
100
AcDbEntity
  8
0
  6
Continuous
 62
     7
370
    25
100
AcDbSpline
210
0.0
220
0.0
230
1.0
 70
     8
 71
     3
 72
    27
 73
    23
 74
     0
 42
0.00000001
 43
0.00000001
 40
0.0
 40
0.0
 40
0.0
 40
0.0
 40
0.2608812501998239
 40
0.5044717739304437
 40
0.8859335609048136
 40
0.8889463678592717
 40
0.8955873994913257
 40
0.8976992429971183
 40
0.9078959650256322
 40
0.9080024470448678
 40
0.9085107495585226
 40
0.9196881289180411
 40
0.9225032662601169
 40
0.9322762172416508
 40
0.9397741429929051
 40
0.9465378046854449
 40
0.9622164587059282
 40
0.9638736597403267
 40
0.9686394361708315
 40
0.9825200459990253
 40
0.9904621972781891
 40
1.0
 40
1.0
 40
1.0
 40
1.0
 10
52.01820620999339
 20
43.38161578286343
 30
0.0
 10
51.99629217920157
 20
43.4789969838777
 30
0.0
 10
51.95391653902411
 20
43.66730514011937
 30
0.0
 10
51.88510782023389
 20
43.97405389672572
 30
0.0
 10
51.8155943528801
 20
44.28037578860873
 30
0.0
 10
51.79739373586168
 20
44.3634030425869
 30
0.0
 10
51.79679213847478
 20
44.36615789873299
 30
0.0
 10
51.7958523631155
 20
44.36947654399133
 30
0.0
 10
51.79529245459026
 20
44.37188348326838
 30
0.0
 10
51.79472695916952
 20
44.37376137354261
 30
0.0
 10
51.79421314104466
 20
44.37557440305739
 30
0.0
 10
51.79248167002458
 20
44.37786405625035
 30
0.0
 10
51.79061160799916
 20
44.38153834823274
 30
0.0
 10
51.78869178027402
 20
44.38453706991383
 30
0.0
 10
51.78688565613782
 20
44.38772667848292
 30
0.0
 10
51.7841525314603
 20
44.39179252690773
 30
0.0
 10
51.78261688767732
 20
44.39455109396675
 30
0.0
 10
51.78064871938881
 20
44.39733245170172
 30
0.0
 10
51.77937186343406
 20
44.39948332363347
 30
0.0
 10
51.77536795588214
 20
44.40259044141762
 30
0.0
 10
51.77223912639146
 20
44.40580906967309
 30
0.0
 10
51.76998129987223
 20
44.40781530260887
 30
0.0
 10
51.76874933416344
 20
44.40890998821013
 30
0.0
  0
SPLINE
  5
92
330
1F
100
AcDbEntity
  8
0
  6
Continuous
 62
     7
370
    25
100
AcDbSpline
210
0.0
220
0.0
230
1.0
 70
     8
 71
     3
 72
    27
 73
    23
 74
     0
 42
0.00000001
 43
0.00000001
 40
0.0
 40
0.0
 40
0.0
 40
0.0
 40
0.0013980750683875
 40
0.0065283040667138
 40
0.0100299840614263
 40
0.0192800230351729
 40
0.0286859393796359
 40
0.0293435971550212
 40
0.0305006973088114
 40
0.0375643116707207
 40
0.0401315827632368
 40
0.0454391672981541
 40
0.0491738871541374
 40
0.0516449208221336
 40
0.0551461413029086
 40
0.0559221184496793
 40
0.3269204448996552
 40
0.3608413254427063
 40
0.399640535923374
 40
0.72804937531649
 40
0.7628300769978736
 40
1.0
 40
1.0
 40
1.0
 40
1.0
 10
50.40519253264227
 20
44.2996529492716
 30
0.0
 10
50.40485122639123
 20
44.29930670559975
 30
0.0
 10
50.40325749867446
 20
44.29768992262292
 30
0.0
 10
50.40211375676034
 20
44.29535517982556
 30
0.0
 10
50.39898418570662
 20
44.29033612912399
 30
0.0
 10
50.39568703562897
 20
44.28495617898619
 30
0.0
 10
50.39236754189334
 20
44.27895217207863
 30
0.0
 10
50.39054141393918
 20
44.27582487480454
 30
0.0
 10
50.38907168242325
 20
44.27300079665743
 30
0.0
 10
50.38863264035358
 20
44.26975222412668
 30
0.0
 10
50.38739001432446
 20
44.26467347820525
 30
0.0
 10
50.38645737182283
 20
44.26124012853761
 30
0.0
 10
50.38561756167488
 20
44.25635097686668
 30
0.0
 10
50.38492825670944
 20
44.25324990984106
 30
0.0
 10
50.38446700265416
 20
44.24958070895433
 30
0.0
 10
50.36578317102
 20
44.12252837902035
 30
0.0
 10
50.35699087536974
 20
43.79722267578917
 30
0.0
 10
50.34054208203064
 20
43.53710341769805
 30
0.0
 10
50.32199156538413
 20
43.22746017708687
 30
0.0
 10
50.30258121820145
 20
42.91629055121985
 30
0.0
 10
50.27458645715753
 20
42.45421876936931
 30
0.0
 10
50.2615615658077
 20
42.24353991126794
 30
0.0
 10
50.25020247265559
 20
42.05980549766906
 30
0.0
  0
SPLINE
  5
93
330
1F
100
AcDbEntity
  8
0
  6
Continuous
 62
     7
370
    25
100
AcDbSpline
210
0.0
220
0.0
230
1.0
 70
     8
 71
     3
 72
    15
 73
    11
 74
     0
 42
0.00000001
 43
0.00000001
 40
0.0
 40
0.0
 40
0.0
 40
0.0
 40
0.0552391349487374
 40
0.1901735000939571
 40
0.3251856349056056
 40
0.4603045481534011
 40
0.5953607550060479
 40
0.7304792833820876
 40
0.8657116391347199
 40
1.0
 40
1.0
 40
1.0
 40
1.0
 10
51.39248383233739
 20
46.16297825929124
 30
0.0
 10
51.39228612078702
 20
46.16441893244311
 30
0.0
 10
51.39160545303982
 20
46.16937878302801
 30
0.0
 10
51.38587130825857
 20
46.17751610977827
 30
0.0
 10
51.37572700156458
 20
46.18703094087981
 30
0.0
 10
51.36092104403414
 20
46.19602978595758
 30
0.0
 10
51.34240647203358
 20
46.20443585272312
 30
0.0
 10
51.31979816570689
 20
46.21174097817786
 30
0.0
 10
51.29401087998227
 20
46.21862356594746
 30
0.0
 10
51.27394182663271
 20
46.22222259036721
 30
0.0
 10
51.26394244583464
 20
46.22401579979506
 30
0.0
  0
SPLINE
  5
94
330
1F
100
AcDbEntity
  8
0
  6
Continuous
 62
     7
370
    25
100
AcDbSpline
210
0.0
220
0.0
230
1.0
 70
     8
 71
     3
 72
    17
 73
    13
 74
     0
 42
0.00000001
 43
0.00000001
 40
0.0
 40
0.0
 40
0.0
 40
0.0
 40
0.0207647918819881
 40
0.1307447239634315
 40
0.2409019461677633
 40
0.3507872047590047
 40
0.4606909683573105
 40
0.5709014222177101
 40
0.6807398205384649
 40
0.7907382003351244
 40
0.9007149060752759
 40
0.9999999999999999
 40
0.9999999999999999
 40
0.9999999999999999
 40
0.9999999999999999
 10
50.6688015240176
 20
46.18816069613585
 30
0.0
 10
50.66655524074417
 20
46.1875924984564
 30
0.0
 10
50.6524116033701
 20
46.18401486333347
 30
0.0
 10
50.62902010655473
 20
46.17689672763696
 30
0.0
 10
50.5989642490126
 20
46.1668939963787
 30
0.0
 10
50.5726667751611
 20
46.15616217080078
 30
0.0
 10
50.54976752519278
 20
46.14541380360584
 30
0.0
 10
50.53066221067177
 20
46.13423926431599
 30
0.0
 10
50.51557438093838
 20
46.1230290600632
 30
0.0
 10
50.50480918831568
 20
46.11188436450972
 30
0.0
 10
50.49800137821791
 20
46.10112648387458
 30
0.0
 10
50.49704179101292
 20
46.09426117662377
 30
0.0
 10
50.49658651104338
 20
46.09100390426775
 30
0.0
  0
SPLINE
  5
95
330
1F
100
AcDbEntity
  8
0
  6
Continuous
 62
     7
370
    25
100
AcDbSpline
210
0.0
220
0.0
230
1.0
 70
     8
 71
     3
 72
    41
 73
    37
 74
     0
 42
0.00000001
 43
0.00000001
 40
0.0
 40
0.0
 40
0.0
 40
0.0
 40
0.0031091661947037
 40
0.0336660705371939
 40
0.0642600516047375
 40
0.0948512927446582
 40
0.1254183312812785
 40
0.1560147184215461
 40
0.1865532862793376
 40
0.2171343079510484
 40
0.2477318737103237
 40
0.2783171960758956
 40
0.3088811404588028
 40
0.3394807106170017
 40
0.3700538261129877
 40
0.4006131901664541
 40
0.4312005225404779
 40
0.4617818152712754
 40
0.4923660079193858
 40
0.5229285314297702
 40
0.5535437204771594
 40
0.5840948712297053
 40
0.6146735348385491
 40
0.6452604004634592
 40
0.6758325876271538
 40
0.7064417917304925
 40
0.7370157685660368
 40
0.7675795789747321
 40
0.7981599835157973
 40
0.8287422253723129
 40
0.8593444417178872
 40
0.8899318218157274
 40
0.9204744808113543
 40
0.9510703393794656
 40
0.9816634788816481
 40
1.0
 40
1.0
 40
1.0
 40
1.0
 10
50.3894192093957
 20
44.33658187269913
 30
0.0
 10
50.38928258144504
 20
44.33600991761622
 30
0.0
 10
50.3878031731612
 20
44.32981678448677
 30
0.0
 10
50.39148396805894
 20
44.31848224812001
 30
0.0
 10
50.40043875252664
 20
44.30261414095177
 30
0.0
 10
50.41703901452002
 20
44.2879006920399
 30
0.0
 10
50.43961689796227
 20
44.2738483053325
 30
0.0
 10
50.46857245062776
 20
44.26100642405132
 30
0.0
 10
50.50342290576455
 20
44.24947132943517
 30
0.0
 10
50.54381249184283
 20
44.23893395398184
 30
0.0
 10
50.5895701676129
 20
44.23027184446364
 30
0.0
 10
50.63992525287144
 20
44.22264992369353
 30
0.0
 10
50.69470149858291
 20
44.21697171829765
 30
0.0
 10
50.7531086187775
 20
44.21276764419665
 30
0.0
 10
50.81477002313629
 20
44.21028923753367
 30
0.0
 10
50.87903942202471
 20
44.20938906567583
 30
0.0
 10
50.94523217097522
 20
44.21034363987744
 30
0.0
 10
51.01282160745068
 20
44.21297805148809
 30
0.0
 10
51.08108070774626
 20
44.21718903192509
 30
0.0
 10
51.14939367579938
 20
44.22306681439934
 30
0.0
 10
51.2170724175509
 20
44.23059273453232
 30
0.0
 10
51.28344746715338
 20
44.23946541060806
 30
0.0
 10
51.34794719078623
 20
44.25000390455482
 30
0.0
 10
51.40987113107612
 20
44.26164534687479
 30
0.0
 10
51.46871701728549
 20
44.27459896120777
 30
0.0
 10
51.52384976680267
 20
44.28849943561704
 30
0.0
 10
51.57475932841691
 20
44.30342816740311
 30
0.0
 10
51.62084469775499
 20
44.31932368110754
 30
0.0
 10
51.66190768978966
 20
44.33556613207099
 30
0.0
 10
51.69728665720569
 20
44.35253675189485
 30
0.0
 10
51.7268283597008
 20
44.36969026210667
 30
0.0
 10
51.75020640733913
 20
44.38707586643609
 30
0.0
 10
51.76721377476664
 20
44.40446423960894
 30
0.0
 10
51.77726152409498
 20
44.42161342827055
 30
0.0
 10
51.78133965778431
 20
44.43633119439922
 30
0.0
 10
51.77911551194034
 20
44.44499725310958
 30
0.0
 10
51.77828200733963
 20
44.44824488177776
 30
0.0
  0
SPLINE
  5
96
330
1F
100
AcDbEntity
  8
0
  6
Continuous
 62
     7
370
    25
100
AcDbSpline
210
0.0
220
0.0
230
1.0
 70
     8
 71
     3
 72
    13
 73
     9
 74
     0
 42
0.00000001
 43
0.00000001
 40
0.0
 40
0.0
 40
0.0
 40
0.0
 40
0.0481313528510481
 40
0.4845743776859562
 40
0.5346342467549822
 40
0.969143654340577
 40
0.9723816922678648
 40
1.0
 40
1.0
 40
1.0
 40
1.0
 10
50.49658651104338
 20
46.09100390426775
 30
0.0
 10
50.49488616025623
 20
46.0629500830747
 30
0.0
 10
50.4777674553845
 20
45.78051125388983
 30
0.0
 10
50.4582269350949
 20
45.46596997754202
 30
0.0
 10
50.42580895464482
 20
44.92939826470295
 30
0.0
 10
50.40755125181238
 20
44.64207671179668
 30
0.0
 10
50.39158397750417
 20
44.37090656445952
 30
0.0
 10
50.39044165635897
 20
44.35279385250346
 30
0.0
 10
50.3894192093957
 20
44.33658187269913
 30
0.0
  0
SPLINE
  5
97
330
1F
100
AcDbEntity
  8
0
  6
Continuous
 62
     7
370
    25
100
AcDbSpline
210
0.0
220
0.0
230
1.0
 70
     8
 71
     3
 72
    13
 73
     9
 74
     0
 42
0.00000001
 43
0.00000001
 40
0.0
 40
0.0
 40
0.0
 40
0.0
 40
0.0186050006401947
 40
0.0308360846597906
 40
0.321439441347695
 40
0.5154108090680388
 40
0.8007752674327197
 40
0.9999999999999999
 40
0.9999999999999999
 40
0.9999999999999999
 40
0.9999999999999999
 10
51.77828200733963
 20
44.44824488177776
 30
0.0
 10
51.77590018580285
 20
44.45888330097047
 30
0.0
 10
51.77195253473994
 20
44.47651550648428
 30
0.0
 10
51.73024978877588
 20
44.66033094315255
 30
0.0
 10
51.66695197241861
 20
44.94285474711366
 30
0.0
 10
51.5675331989269
 20
45.38494075677691
 30
0.0
 10
51.48066890412002
 20
45.7708323691156
 30
0.0
 10
51.41817597860493
 20
46.04872910844357
 30
0.0
 10
51.3924838323374
 20
46.16297825929124
 30
0.0
  0
SPLINE
  5
98
330
1F
100
AcDbEntity
  8
0
  6
Continuous
 62
     7
370
    25
100
AcDbSpline
210
0.0
220
0.0
230
1.0
 70
     8
 71
     3
 72
    85
 73
    81
 74
     0
 42
0.00000001
 43
0.00000001
 40
0.0
 40
0.0
 40
0.0
 40
0.0
 40
0.0000044388973834
 40
0.0003284277572026
 40
0.0004612661560839
 40
0.0007178856690011
 40
0.000904603366166
 40
0.000994721889187
 40
0.0013438916840341
 40
0.0016592536809835
 40
0.0017733671841653
 40
0.0019699627673505
 40
0.0021966875281033
 40
0.002322630840747
 40
0.0026159248845002
 40
0.0029886984855732
 40
0.0030265777953323
 40
0.0030874959016699
 40
0.0034406646093092
 40
0.0036553478025372
 40
0.0038502033481556
 40
0.0041599481934863
 40
0.0042613983118982
 40
0.0043250025519969
 40
0.0046732584356375
 40
0.0049989038927857
 40
0.0050868497540265
 40
0.0052315936270224
 40
0.0055052750664877
 40
0.0056772790361168
 40
0.005922983596033
 40
0.0063440213940358
 40
0.0063521315966189
 40
0.0063570170450942
 40
0.0067824101793115
 40
0.0070289778952296
 40
0.0072160362873858
 40
0.0075967517735402
 40
0.0076623242757413
 40
0.0076967092677425
 40
0.0081114313628516
 40
0.0083626862474115
 40
0.0085756260473194
 40
0.0090281425326204
 40
0.0090548513956435
 40
0.0091287616020311
 40
0.0095342239353882
 40
0.0096963408277916
 40
0.010029987592002
 40
0.0103673402585728
 40
0.0105415968552638
 40
0.0110423437348762
 40
0.0110762328047635
 40
0.0112194960051309
 40
0.0116202120195506
 40
0.011724679881178
 40
0.0121808682016472
 40
0.0124144341285948
 40
0.0127665446828351
 40
0.0131062908447151
 40
0.0133655113575818
 40
0.013795654069357
 40
0.0139783285988552
 40
0.0144830699649437
 40
0.0146069584993367
 40
0.0151682677923305
 40
0.0152527153438798
 40
0.0158542157132626
 40
0.0159144193622646
 40
0.0165400822789863
 40
0.0165892107797372
 40
0.0172275325762347
 40
0.0172914110471845
 40
0.0179152936244534
 40
0.0180236999129519
 40
0.0186065920091852
 40
0.0187745438296378
 40
0.0193104607933192
 40
0.3343004753800617
 40
1.0
 40
1.0
 40
1.0
 40
1.0
 10
43.41054429070498
 20
128.0025879828667
 30
0.0
 10
43.41058452682593
 20
128.0026558649049
 30
0.0
 10
43.41356154066907
 20
128.0076783611772
 30
0.0
 10
43.4169148336351
 20
128.0146099951496
 30
0.0
 10
43.42454178711009
 20
128.0239618751203
 30
0.0
 10
43.4299695294143
 20
128.0305573861199
 30
0.0
 10
43.43480438381839
 20
128.0379017749445
 30
0.0
 10
43.43987487195479
 20
128.0458199484073
 30
0.0
 10
43.44832380085495
 20
128.0532520965385
 30
0.0
 10
43.45469329166797
 20
128.0621101972856
 30
0.0
 10
43.461779893109
 20
128.0675039695579
 30
0.0
 10
43.46713881853054
 20
128.0715972382295
 30
0.0
 10
43.47247836001781
 20
128.0770346602161
 30
0.0
 10
43.47805900382477
 20
128.0829689448285
 30
0.0
 10
43.4869084388063
 20
128.0876156210105
 30
0.0
 10
43.49274429859823
 20
128.0933375228585
 30
0.0
 10
43.49800429400055
 20
128.0955904162006
 30
0.0
 10
43.50273585420142
 20
128.097603775022
 30
0.0
 10
43.50900279800964
 20
128.1016883989315
 30
0.0
 10
43.51622920591655
 20
128.1065570639095
 30
0.0
 10
43.52378980026025
 20
128.1087793451838
 30
0.0
 10
43.53042554761026
 20
128.1107462208685
 30
0.0
 10
43.53522802943669
 20
128.1132253043992
 30
0.0
 10
43.54034073148608
 20
128.1160007699668
 30
0.0
 10
43.54873505252993
 20
128.1169632910882
 30
0.0
 10
43.55659254099106
 20
128.1204133944078
 30
0.0
 10
43.56309811690877
 20
128.1207093407576
 30
0.0
 10
43.56927713656975
 20
128.1210776234515
 30
0.0
 10
43.57595236201746
 20
128.1226900542532
 30
0.0
 10
43.58406241381641
 20
128.1246064031406
 30
0.0
 10
43.59368822604214
 20
128.1241904673743
 30
0.0
 10
43.60303588343365
 20
128.1237249678655
 30
0.0
 10
43.608374912487
 20
128.1243485583263
 30
0.0
 10
43.61443185797428
 20
128.1249862864535
 30
0.0
 10
43.62373919162636
 20
128.1230546441982
 30
0.0
 10
43.63580009493222
 20
128.1232993581794
 30
0.0
 10
43.64700325913132
 20
128.1203929137271
 30
0.0
 10
43.65714850853641
 20
128.117899796656
 30
0.0
 10
43.66416253089157
 20
128.1170086647503
 30
0.0
 10
43.67255863048518
 20
128.1158741084005
 30
0.0
 10
43.68313897196756
 20
128.1115558183431
 30
0.0
 10
43.69802915065733
 20
128.1083380762234
 30
0.0
 10
43.71290345390731
 20
128.1011842873902
 30
0.0
 10
43.72528707369197
 20
128.0975834891061
 30
0.0
 10
43.73454009388071
 20
128.092418253471
 30
0.0
 10
43.74348718465166
 20
128.0875090040702
 30
0.0
 10
43.75440850894469
 20
128.0824385016267
 30
0.0
 10
43.7711059950302
 20
128.074590900827
 30
0.0
 10
43.7854873166556
 20
128.064436232993
 30
0.0
 10
43.80140308077887
 20
128.055812391302
 30
0.0
 10
43.81894360343902
 20
128.0416277251354
 30
0.0
 10
43.83260414622917
 20
128.0329616890069
 30
0.0
 10
43.8444775039927
 20
128.0222035727772
 30
0.0
 10
43.8548849375692
 20
128.012859395254
 30
0.0
 10
43.86661091636991
 20
128.0030432508549
 30
0.0
 10
43.88448286794792
 20
127.9880004797108
 30
0.0
 10
43.8978452962228
 20
127.9728845533984
 30
0.0
 10
43.91689485953187
 20
127.954850970453
 30
0.0
 10
43.93200920344223
 20
127.9355660032764
 30
0.0
 10
43.94884269259422
 20
127.9173844026204
 30
0.0
 10
43.9647106492765
 20
127.8945113169028
 30
0.0
 10
43.97943109592812
 20
127.8764811116911
 30
0.0
 10
43.99557278079963
 20
127.8500199051162
 30
0.0
 10
44.00853090062013
 20
127.8319597284973
 30
0.0
 10
44.02428682353678
 20
127.8024198161218
 30
0.0
 10
44.03569245844873
 20
127.7841564348163
 30
0.0
 10
44.05053067417793
 20
127.7519335109629
 30
0.0
 10
44.06060633099308
 20
127.7333006234727
 30
0.0
 10
44.0739806227068
 20
127.6990278703414
 30
0.0
 10
44.08282954710321
 20
127.6799101454955
 30
0.0
 10
44.09430762477153
 20
127.644222920306
 30
0.0
 10
44.10214988015581
 20
127.6240294954349
 30
0.0
 10
44.11129297648481
 20
127.5876048566972
 30
0.0
 10
44.1181499597902
 20
127.5657627884278
 30
0.0
 10
44.12474760095978
 20
127.5296945939522
 30
0.0
 10
44.13049162513687
 20
127.5059560506349
 30
0.0
 10
44.13435289271868
 20
127.4706941297559
 30
0.0
 10
45.20698324907861
 20
118.8081279811546
 30
0.0
 10
46.66146788464088
 20
91.55270746824523
 30
0.0
 10
49.05278895562337
 20
64.47720726332813
 30
0.0
 10
50.67603590231196
 20
46.0981516145437
 30
0.0
  0
SPLINE
  5
99
330
1F
100
AcDbEntity
  8
0
  6
Continuous
 62
     7
370
    25
100
AcDbSpline
210
0.0
220
0.0
230
1.0
 70
     8
 71
     3
 72
    87
 73
    83
 74
     0
 42
0.00000001
 43
0.00000001
 40
0.0
 40
0.0
 40
0.0
 40
0.0
 40
0.6596141689855402
 40
0.9654632692035845
 40
0.9663168799687458
 40
0.9665888622957212
 40
0.9675511868725641
 40
0.9677113734514702
 40
0.9687310365153796
 40
0.9688265940204465
 40
0.9698719016239642
 40
0.9699363227551567
 40
0.9709627352852833
 40
0.971044336424229
 40
0.9720278409336898
 40
0.9721523936202892
 40
0.9730781653897906
 40
0.9732647373983883
 40
0.9740932256451915
 40
0.9743819634994482
 40
0.9750931577968163
 40
0.9755104344524231
 40
0.9760788760826375
 40
0.9766507593737187
 40
0.9770470966509176
 40
0.9777969860787785
 40
0.9779944151488744
 40
0.9787935141228173
 40
0.9789114822276628
 40
0.9789414330888145
 40
0.9798017076894426
 40
0.9800867183209409
 40
0.9806759454814913
 40
0.9812361861582679
 40
0.9815397539892937
 40
0.9823463129975712
 40
0.9823797282230384
 40
0.9823925410722537
 40
0.9832080374945058
 40
0.983558728384387
 40
0.9840223554407275
 40
0.9847366925103652
 40
0.9848283026260978
 40
0.9850091635469863
 40
0.9856183419787298
 40
0.9859293644584957
 40
0.9864005450285337
 40
0.9871389455701959
 40
0.9871760450278463
 40
0.987239840989207
 40
0.9879488373819589
 40
0.9883650396169907
 40
0.9887143746418227
 40
0.9892695297482926
 40
0.9894712076738246
 40
0.9895983470417316
 40
0.9902269954672894
 40
0.9908264007862626
 40
0.9909808866524904
 40
0.991219565879313
 40
0.9917246485368422
 40
0.9920495632861666
 40
0.992472348630742
 40
0.9931601273672418
 40
0.9932252673959426
 40
0.9932653582227554
 40
0.993977922788297
 40
0.9944750457112099
 40
0.9947345248802216
 40
0.9951843934189424
 40
0.9954978630958111
 40
0.9956781080137492
 40
0.9962717794821496
 40
0.9968742606421054
 40
0.9970514075473972
 40
0.997409711633233
 40
0.997851009311215
 40
0.9980644290161556
 40
0.9986664852960725
 40
0.999250950442592
 40
0.9995272955921899
 40
1.0
 40
1.0
 40
1.0
 40
1.0
 10
51.27022281582361
 20
46.14587499255067
 30
0.0
 10
49.64419320701454
 20
64.70234170769854
 30
0.0
 10
47.26420815551538
 20
91.86304846939166
 30
0.0
 10
45.76479752049455
 20
118.8383993344686
 30
0.0
 10
44.72612253686829
 20
127.541176069574
 30
0.0
 10
44.71984645915294
 20
127.6005087840807
 30
0.0
 10
44.71060938195942
 20
127.6399498296902
 30
0.0
 10
44.70001017524012
 20
127.7007406991177
 30
0.0
 10
44.6889446519485
 20
127.7362237565554
 30
0.0
 10
44.67398837740489
 20
127.796918627141
 30
0.0
 10
44.66126662985635
 20
127.8297298528491
 30
0.0
 10
44.64253190654921
 20
127.8888208549323
 30
0.0
 10
44.62816064970858
 20
127.9198191123526
 30
0.0
 10
44.60622421547161
 20
127.9764404001263
 30
0.0
 10
44.58973549132914
 20
128.0067786566445
 30
0.0
 10
44.56511104203757
 20
128.0603661374329
 30
0.0
 10
44.54619296797146
 20
128.0905679729986
 30
0.0
 10
44.51970754451388
 20
128.1400215317335
 30
0.0
 10
44.49795479253719
 20
128.1703287224929
 30
0.0
 10
44.47052986023857
 20
128.2152550492855
 30
0.0
 10
44.44516069205011
 20
128.2463572718746
 30
0.0
 10
44.41746646749638
 20
128.2863198300622
 30
0.0
 10
44.38802106629089
 20
128.3184575298845
 30
0.0
 10
44.36111215764682
 20
128.3529403931886
 30
0.0
 10
44.32688725225662
 20
128.3860004361781
 30
0.0
 10
44.301797355814
 20
128.4146400306423
 30
0.0
 10
44.26569331127278
 20
128.4458978056531
 30
0.0
 10
44.24290388889376
 20
128.4668160463675
 30
0.0
 10
44.22314188626694
 20
128.4837944400647
 30
0.0
 10
44.20211651525217
 20
128.5020851586767
 30
0.0
 10
44.17548829656431
 20
128.5189241685721
 30
0.0
 10
44.13793080581405
 20
128.548252875636
 30
0.0
 10
44.10475965541787
 20
128.5668232769794
 30
0.0
 10
44.07226692440403
 20
128.5895131667527
 30
0.0
 10
44.03296297232418
 20
128.6089814963567
 30
0.0
 10
44.00616981944316
 20
128.6239604747351
 30
0.0
 10
43.9859338669437
 20
128.6340204612432
 30
0.0
 10
43.96540181228935
 20
128.6443329884832
 30
0.0
 10
43.93638859788523
 20
128.6532546301628
 30
0.0
 10
43.8968521639825
 20
128.6706811953063
 30
0.0
 10
43.85877831407628
 20
128.6802372933375
 30
0.0
 10
43.82736977733379
 20
128.6925099332071
 30
0.0
 10
43.80275550735109
 20
128.6974423301365
 30
0.0
 10
43.78049045091723
 20
128.7023666110119
 30
0.0
 10
43.75276299042049
 20
128.7065651435062
 30
0.0
 10
43.717347766323
 20
128.7141566194746
 30
0.0
 10
43.67898803530523
 20
128.7155285518906
 30
0.0
 10
43.64689045988983
 20
128.7213136798917
 30
0.0
 10
43.62573561516848
 20
128.7211479468222
 30
0.0
 10
43.60517817207418
 20
128.7211822827116
 30
0.0
 10
43.57536137636438
 20
128.7190572873215
 30
0.0
 10
43.53755969872228
 20
128.7192917235544
 30
0.0
 10
43.5048201007358
 20
128.7138225409578
 30
0.0
 10
43.47679096130647
 20
128.711163536037
 30
0.0
 10
43.4547651573257
 20
128.7073537839299
 30
0.0
 10
43.43084243188193
 20
128.7038482402241
 30
0.0
 10
43.39860100352931
 20
128.6925430922116
 30
0.0
 10
43.36400061316902
 20
128.6861438417099
 30
0.0
 10
43.34082921654372
 20
128.6770752350893
 30
0.0
 10
43.31936442461521
 20
128.6694772250769
 30
0.0
 10
43.29473753869378
 20
128.6584515110197
 30
0.0
 10
43.2650714731652
 20
128.647562307738
 30
0.0
 10
43.23356613596926
 20
128.6292792267036
 30
0.0
 10
43.20695271528652
 20
128.6166457343316
 30
0.0
 10
43.18960623390666
 20
128.6067283023502
 30
0.0
 10
43.17167638376773
 20
128.5966474702999
 30
0.0
 10
43.14700878395348
 20
128.5759236000974
 30
0.0
 10
43.11551564710281
 20
128.5566317003776
 30
0.0
 10
43.09247686769195
 20
128.5359582234375
 30
0.0
 10
43.07238065283931
 20
128.5197220613111
 30
0.0
 10
43.0547363951146
 20
128.503233560336
 30
0.0
 10
43.03404591583404
 20
128.4852654887623
 30
0.0
 10
43.01156810303874
 20
128.4573055937942
 30
0.0
 10
42.98626175828208
 20
128.4333811936801
 30
0.0
 10
42.96863459841543
 20
128.4096211892941
 30
0.0
 10
42.95309699995903
 20
128.3900310306547
 30
0.0
 10
42.93808361673258
 20
128.3685389347041
 30
0.0
 10
42.91873242506768
 20
128.3429175870393
 30
0.0
 10
42.90162973965521
 20
128.3102445243933
 30
0.0
 10
42.88010591659267
 20
128.2785614567215
 30
0.0
 10
42.86599700512228
 20
128.2477621779507
 30
0.0
 10
42.85760037929192
 20
128.2307430352674
 30
0.0
 10
42.85230150153212
 20
128.2200027261864
 30
0.0
  0
LINE
  5
9A
330
1F
100
AcDbEntity
  8
0
  6
Continuous
 62
     7
370
    25
100
AcDbLine
 10
52.9527683867
 20
44.705217892
 30
0.0
 11
52.4028434919
 21
124.7214459726
 31
0.0
  0
SPLINE
  5
9B
330
1F
100
AcDbEntity
  8
0
  6
Continuous
 62
     7
370
    25
100
AcDbSpline
210
0.0
220
0.0
230
1.0
 70
     8
 71
     3
 72
    88
 73
    84
 74
     0
 42
0.00000001
 43
0.00000001
 40
0.0
 40
0.0
 40
0.0
 40
0.0
 40
0.3998595157721063
 40
0.400340043008689
 40
0.4175111108716451
 40
0.4189429321975541
 40
0.4351056308468881
 40
0.4384188761995558
 40
0.4526799962585565
 40
0.4584318066515239
 40
0.4702817581631496
 40
0.4791518563294041
 40
0.4879678560441445
 40
0.5010977620469661
 40
0.5057972239298815
 40
0.5199094771293205
 40
0.5239134944176798
 40
0.5264057680281922
 40
0.5424061200027605
 40
0.5605118407720424
 40
0.5615617243731038
 40
0.5669675673956505
 40
0.5818800334567423
 40
0.5842491681128994
 40
0.5919084266931502
 40
0.6014460574184836
 40
0.604180537830433
 40
0.6150860337933801
 40
0.6241737019878854
 40
0.6271284811131832
 40
0.6306840671025395
 40
0.6380421167868543
 40
0.6414679935097836
 40
0.6483868529453285
 40
0.6560655149679026
 40
0.6583857077302551
 40
0.6641221562454434
 40
0.6681561815046814
 40
0.6695672634576488
 40
0.6778476102389733
 40
0.6827046024088413
 40
0.6875242911369724
 40
0.6959125814116146
 40
0.6972711124735467
 40
0.701013950685382
 40
0.7073032000307033
 40
0.710286592548954
 40
0.717675300134279
 40
0.7264167306755606
 40
0.728591237195403
 40
0.7324909064215548
 40
0.7406479333866658
 40
0.7505252077753952
 40
0.7543025962964984
 40
0.7574811980442396
 40
0.7713659450279196
 40
0.7789357932047497
 40
0.7952187227930207
 40
0.7987294718827457
 40
0.8026066613606038
 40
0.8177655547380955
 40
0.8359722420892429
 40
0.8364514337847444
 40
0.8366458461013534
 40
0.8548417990168067
 40
0.8608167337137838
 40
0.8728383351649059
 40
0.8827552875607835
 40
0.8906132464253981
 40
0.9032691374764977
 40
0.9081863176710407
 40
0.9230691875180415
 40
0.9256512245196847
 40
0.9419385204957069
 40
0.9430444279278021
 40
0.9581801231605729
 40
0.9604512178002704
 40
0.9605855643564213
 40
0.9778590335436947
 40
0.9787959427153531
 40
0.9953314211397073
 40
0.9967510764931298
 40
1.0
 40
1.0
 40
1.0
 40
1.0
 10
52.36852196732524
 20
129.7153623499389
 30
0.0
 10
52.36790808822804
 20
130.3008336527872
 30
0.0
 10
52.36729347140768
 20
130.8870085400099
 30
0.0
 10
52.356007153154
 20
131.4912408922197
 30
0.0
 10
52.35610380511992
 20
131.5192120744699
 30
0.0
 10
52.35405924577912
 20
131.5680061569092
 30
0.0
 10
52.3534561726995
 20
131.5976286066767
 30
0.0
 10
52.35054549293741
 20
131.6428537990781
 30
0.0
 10
52.3491310610047
 20
131.6741246464045
 30
0.0
 10
52.3454395430844
 20
131.7147992241242
 30
0.0
 10
52.34316127469528
 20
131.7483339733348
 30
0.0
 10
52.33875796045254
 20
131.7836622497306
 30
0.0
 10
52.33522952330804
 20
131.8198887218234
 30
0.0
 10
52.33044331871164
 20
131.8499058126025
 30
0.0
 10
52.32568878659225
 20
131.8851326068589
 30
0.0
 10
52.32124966309227
 20
131.9083310345386
 30
0.0
 10
52.31708297531979
 20
131.9308109137232
 30
0.0
 10
52.31118056306602
 20
131.953641856404
 30
0.0
 10
52.30292896264903
 20
131.9900065224766
 30
0.0
 10
52.29329011247814
 20
132.0232068080056
 30
0.0
 10
52.2848672869611
 20
132.0475319253609
 30
0.0
 10
52.27541166111065
 20
132.0677575550026
 30
0.0
 10
52.26741659496117
 20
132.0896254640336
 30
0.0
 10
52.25624303320698
 20
132.1127115743373
 30
0.0
 10
52.24337609578379
 20
132.1321976542461
 30
0.0
 10
52.23419175796452
 20
132.1505142902909
 30
0.0
 10
52.21753020996504
 20
132.1732208944638
 30
0.0
 10
52.20133917643232
 20
132.193966476188
 30
0.0
 10
52.17799912000977
 20
132.2153121093592
 30
0.0
 10
52.16501785093583
 20
132.2291622822394
 30
0.0
 10
52.14983753556557
 20
132.240674695023
 30
0.0
 10
52.13514403531696
 20
132.2522547155596
 30
0.0
 10
52.11260884937498
 20
132.2641035597961
 30
0.0
 10
52.09248697842417
 20
132.2769567702033
 30
0.0
 10
52.06901432074834
 20
132.2852721040198
 30
0.0
 10
52.04929349373397
 20
132.2942358901892
 30
0.0
 10
52.03217643737927
 20
132.2983059323978
 30
0.0
 10
52.01691249837533
 20
132.3027885995182
 30
0.0
 10
51.9972024751068
 20
132.3047225154811
 30
0.0
 10
51.97676695521848
 20
132.3087198349189
 30
0.0
 10
51.95109510330477
 20
132.3077243156784
 30
0.0
 10
51.92498478723087
 20
132.3089134151479
 30
0.0
 10
51.90485056033636
 20
132.3051486420062
 30
0.0
 10
51.88537099175454
 20
132.3034005732831
 30
0.0
 10
51.87007280741899
 20
132.2991291020473
 30
0.0
 10
51.85172864331449
 20
132.2949076262175
 30
0.0
 10
51.83141885216073
 20
132.2858681318235
 30
0.0
 10
51.8050762796735
 20
132.2766838614625
 30
0.0
 10
51.78556014975071
 20
132.2642149940864
 30
0.0
 10
51.76706616412856
 20
132.2547832645217
 30
0.0
 10
51.75262532444054
 20
132.244009942054
 30
0.0
 10
51.72919992441496
 20
132.226676721023
 30
0.0
 10
51.71246123373881
 20
132.2087139009553
 30
0.0
 10
51.6962763114511
 20
132.1942519463739
 30
0.0
 10
51.6814442771763
 20
132.1764952764396
 30
0.0
 10
51.66367478816723
 20
132.1539215471823
 30
0.0
 10
51.64263767000013
 20
132.1214959293113
 30
0.0
 10
51.62821716171237
 20
132.0964253050439
 30
0.0
 10
51.61770135908326
 20
132.0760211051972
 30
0.0
 10
51.60922675323559
 20
132.0559527468398
 30
0.0
 10
51.59291739390497
 20
132.0215093615449
 30
0.0
 10
51.58050382349585
 20
131.9874833708838
 30
0.0
 10
51.57393108585963
 20
131.9695509527816
 30
0.0
 10
51.56809837410911
 20
131.950535296357
 30
0.0
 10
51.55944019781626
 20
131.9251551179506
 30
0.0
 10
51.5489443994154
 20
131.8857220341296
 30
0.0
 10
51.53988026260202
 20
131.8548025125825
 30
0.0
 10
51.53173590911538
 20
131.8194631307996
 30
0.0
 10
51.52247330654029
 20
131.7831238996844
 30
0.0
 10
51.51605092872029
 20
131.7510620392303
 30
0.0
 10
51.5068579386892
 20
131.7100778048571
 30
0.0
 10
51.50153427206716
 20
131.6797109684928
 30
0.0
 10
51.49264891567075
 20
131.6346308766677
 30
0.0
 10
51.48836026088677
 20
131.606491017465
 30
0.0
 10
51.48040482849792
 20
131.5610189708964
 30
0.0
 10
51.47676315980175
 20
131.5333090338257
 30
0.0
 10
51.47283526301107
 20
131.5084047275229
 30
0.0
 10
51.46897777181191
 20
131.4791544171556
 30
0.0
 10
51.46502451432981
 20
131.4522534887557
 30
0.0
 10
51.45898707236356
 20
131.3992142153284
 30
0.0
 10
51.45526461607389
 20
131.3707113856495
 30
0.0
 10
51.45200186296385
 20
131.3377182759814
 30
0.0
 10
51.45128265460111
 20
131.3304522962676
 30
0.0
 10
51.45078214833872
 20
131.3253958084157
 30
0.0
  0
SPLINE
  5
9C
330
1F
100
AcDbEntity
  8
0
  6
Continuous
 62
     7
370
    25
100
AcDbSpline
210
0.0
220
0.0
230
1.0
 70
     8
 71
     3
 72
    31
 73
    27
 74
     0
 42
0.00000001
 43
0.00000001
 40
0.0
 40
0.0
 40
0.0
 40
0.0
 40
0.0046525037114806
 40
0.0925817959277809
 40
0.0954539970777118
 40
0.1522787968880581
 40
0.1857288458672373
 40
0.1874559574031777
 40
0.2753917091190586
 40
0.2824962301769166
 40
0.3647417186934268
 40
0.379624449767364
 40
0.4538221896437032
 40
0.4798666975600653
 40
0.5426193453246386
 40
0.5830288550286171
 40
0.6312982292524606
 40
0.6919430576936257
 40
0.719861837743848
 40
0.8051681817941656
 40
0.8086524905846983
 40
0.8105201956838388
 40
0.8969028271309568
 40
0.9663950374256289
 40
0.9843637094275183
 40
1.0
 40
1.0
 40
1.0
 40
1.0
 10
52.04589763756946
 20
131.2787317841992
 30
0.0
 10
52.04601953649446
 20
131.2799675514721
 30
0.0
 10
52.04844524576781
 20
131.3045585159442
 30
0.0
 10
52.05169013623048
 20
131.3286461310595
 30
0.0
 10
52.05614556218574
 20
131.3669897099984
 30
0.0
 10
52.05961395696492
 20
131.3893300139495
 30
0.0
 10
52.06243485082729
 20
131.4132788102762
 30
0.0
 10
52.06672175863012
 20
131.4424928423977
 30
0.0
 10
52.07012078281459
 20
131.4675193819617
 30
0.0
 10
52.07667447473236
 20
131.5069880050366
 30
0.0
 10
52.08065157451004
 20
131.5328106756663
 30
0.0
 10
52.08735768296642
 20
131.5679098686352
 30
0.0
 10
52.09202358171927
 20
131.5945146350745
 30
0.0
 10
52.09856053977114
 20
131.6245761733566
 30
0.0
 10
52.10424703528101
 20
131.6526246395871
 30
0.0
 10
52.11028431407102
 20
131.6762512599886
 30
0.0
 10
52.11691367116151
 20
131.7054013123334
 30
0.0
 10
52.12226743125705
 20
131.7225334563246
 30
0.0
 10
52.1300519598135
 20
131.7518092661669
 30
0.0
 10
52.13485920972232
 20
131.762054129346
 30
0.0
 10
52.13817973426701
 20
131.7741804723744
 30
0.0
 10
52.14056761879484
 20
131.7809540273803
 30
0.0
 10
52.14744380875209
 20
131.8020657314501
 30
0.0
 10
52.14946439649368
 20
131.8040903190474
 30
0.0
 10
52.15274415014905
 20
131.8120552259066
 30
0.0
 10
52.15313298458872
 20
131.8119674953987
 30
0.0
 10
52.15331390811362
 20
131.8119266746506
 30
0.0
  0
LWPOLYLINE
  5
9D
330
1F
100
AcDbEntity
  8
0
  6
Continuous
 62
     7
370
    25
100
AcDbPolyline
 90
        3
 70
   128
 43
0.0
 10
51.8055598736
 20
124.750975876
 10
52.3527878124
 20
45.1174412962
 10
52.3556484555
 20
44.7010932676
  0
SPLINE
  5
9E
330
1F
100
AcDbEntity
  8
0
  6
Continuous
 62
     7
370
    25
100
AcDbSpline
210
0.0
220
0.0
230
1.0
 70
     8
 71
     3
 72
    80
 73
    76
 74
     0
 42
0.00000001
 43
0.00000001
 40
0.0
 40
0.0
 40
0.0
 40
0.0
 40
0.0063246994648659
 40
0.0206430383794237
 40
0.0349654523026336
 40
0.0492839534301982
 40
0.0636061345932392
 40
0.0779250986205574
 40
0.0922520481904266
 40
0.1065735861780529
 40
0.1208941234616597
 40
0.1352110245953594
 40
0.1495305048489868
 40
0.1638549091963796
 40
0.1781775400613843
 40
0.1924978434466646
 40
0.2068147243582932
 40
0.2211364751246623
 40
0.2354619952079722
 40
0.24978470828878
 40
0.2641046808829057
 40
0.2784242601772015
 40
0.2927470687142755
 40
0.3070657623542222
 40
0.3213872759246199
 40
0.3357086456216745
 40
0.3500280932809745
 40
0.3643506260941657
 40
0.3786747972752034
 40
0.3929959350378761
 40
0.4073171991414949
 40
0.4216375516087516
 40
0.4359607123574094
 40
0.4502828236957336
 40
0.4646046431457657
 40
0.4789199577538047
 40
0.4932421137032911
 40
0.5002696590792567
 40
0.5485510321458038
 40
0.5985196100906761
 40
0.646552632205229
 40
0.6967626105386437
 40
0.7447777878944152
 40
0.7950066576504181
 40
0.8431224848456454
 40
0.8932548895405976
 40
0.9417316328715781
 40
0.9865192314595032
 40
0.9868655946594818
 40
0.9873803070646998
 40
0.9876032511005587
 40
0.9883171191858993
 40
0.9883538264255177
 40
0.9884859288139284
 40
0.989128836029731
 40
0.9893188035829898
 40
0.989915464068667
 40
0.9904188801683829
 40
0.9907580554166319
 40
0.9915163223012221
 40
0.9916622680000985
 40
0.991734243249301
 40
0.992630421096642
 40
0.9933076598607683
 40
0.993642073986692
 40
0.994150806263359
 40
0.9948137252069117
 40
0.9954147915308129
 40
0.9960546938157349
 40
0.9966700586732541
 40
0.9973890200333358
 40
0.9983874228155489
 40
0.9988399005978739
 40
0.9991415999863753
 40
1.0
 40
1.0
 40
1.0
 40
1.0
 10
64.20677222590105
 20
107.141233529508
 30
0.0
 10
64.20750358200371
 20
107.1289780500953
 30
0.0
 10
64.20989063804966
 20
107.0889776780178
 30
0.0
 10
64.23249471917623
 20
107.0276353373576
 30
0.0
 10
64.27371752284488
 20
106.9582631721349
 30
0.0
 10
64.33294098557002
 20
106.8966004802188
 30
0.0
 10
64.4081599155145
 20
106.8434925494387
 30
0.0
 10
64.49898008891323
 20
106.7988233250205
 30
0.0
 10
64.60463349004911
 20
106.7635644091233
 30
0.0
 10
64.72401630765079
 20
106.7376118523346
 30
0.0
 10
64.85614907169351
 20
106.7216255176824
 30
0.0
 10
64.99958392916919
 20
106.7153169032901
 30
0.0
 10
65.1531222156822
 20
106.7191485163626
 30
0.0
 10
65.3153977566247
 20
106.7327907684618
 30
0.0
 10
65.48477498436819
 20
106.7562250409081
 30
0.0
 10
65.65972818155208
 20
106.789258089056
 30
0.0
 10
65.83859779722465
 20
106.831551072017
 30
0.0
 10
66.01969196915276
 20
106.882809191355
 30
0.0
 10
66.20141742574589
 20
106.9423180241819
 30
0.0
 10
66.38199371732017
 20
107.0097502576604
 30
0.0
 10
66.55972684452034
 20
107.0843723699683
 30
0.0
 10
66.73295707055678
 20
107.16553870769
 30
0.0
 10
66.90018438665578
 20
107.2522572822749
 30
0.0
 10
67.0596708648424
 20
107.3441695930653
 30
0.0
 10
67.21002502648226
 20
107.4400283793908
 30
0.0
 10
67.34980974085975
 20
107.5391053650374
 30
0.0
 10
67.47787555817781
 20
107.6404374187514
 30
0.0
 10
67.59276541620133
 20
107.743187138731
 30
0.0
 10
67.69355157607582
 20
107.8461393899184
 30
0.0
 10
67.77925058559178
 20
107.9486329354992
 30
0.0
 10
67.84916969693799
 20
108.0494530450925
 30
0.0
 10
67.90245254698844
 20
108.1478341391143
 30
0.0
 10
67.9388713740036
 20
108.242876014802
 30
0.0
 10
67.95788105914973
 20
108.3333443642483
 30
0.0
 10
67.95930835168046
 20
108.4192262143603
 30
0.0
 10
67.94304386998857
 20
108.4976618763326
 30
0.0
 10
67.915996626086
 20
108.5611618431359
 30
0.0
 10
67.83744147960932
 20
108.6553927907897
 30
0.0
 10
67.49974433300234
 20
109.1022762453366
 30
0.0
 10
67.16408577421839
 20
109.5366313368989
 30
0.0
 10
66.79647696198296
 20
110.0160590263997
 30
0.0
 10
66.43162178869824
 20
110.4909498304951
 30
0.0
 10
66.07098394472439
 20
110.9606482119551
 30
0.0
 10
65.70404128559859
 20
111.4385623299278
 30
0.0
 10
65.3431890042822
 20
111.9082934846649
 30
0.0
 10
64.97732740678498
 20
112.3852627852747
 30
0.0
 10
64.62116468507166
 20
112.846857545057
 30
0.0
 10
64.40430103812591
 20
113.1345815089052
 30
0.0
 10
64.27938993846615
 20
113.2935373472927
 30
0.0
 10
64.2763454207802
 20
113.297467742098
 30
0.0
 10
64.27225877427955
 20
113.3020541061877
 30
0.0
 10
64.2696457183018
 20
113.3054253310979
 30
0.0
 10
64.26713864793737
 20
113.3081885903489
 30
0.0
 10
64.2649941472575
 20
113.3106163402267
 30
0.0
 10
64.26192087968674
 20
113.3132111966701
 30
0.0
 10
64.2576574621405
 20
113.3173217480331
 30
0.0
 10
64.25375733406199
 20
113.3204781241165
 30
0.0
 10
64.24968556888928
 20
113.3242676963295
 30
0.0
 10
64.24513893011856
 20
113.3278044833213
 30
0.0
 10
64.24202016336687
 20
113.3307057911046
 30
0.0
 10
64.23900069463767
 20
113.3326261926524
 30
0.0
 10
64.23567130469449
 20
113.3348386124378
 30
0.0
 10
64.23088343172014
 20
113.3374848552567
 30
0.0
 10
64.2255700050629
 20
113.3409348808886
 30
0.0
 10
64.22111928979524
 20
113.3432776156003
 30
0.0
 10
64.2174470912553
 20
113.3455913597234
 30
0.0
 10
64.21180344097083
 20
113.3477428668218
 30
0.0
 10
64.20635021652596
 20
113.350158342519
 30
0.0
 10
64.2009610910895
 20
113.3521080337454
 30
0.0
 10
64.19576282569989
 20
113.354440302153
 30
0.0
 10
64.18812471438909
 20
113.3563192329108
 30
0.0
 10
64.18178750341968
 20
113.3582795467309
 30
0.0
 10
64.17646971411428
 20
113.3595573944701
 30
0.0
 10
64.1717733002396
 20
113.3608682660281
 30
0.0
 10
64.16789731717179
 20
113.3613762268799
 30
0.0
 10
64.16502933541771
 20
113.3617520857083
 30
0.0
  0
SPLINE
  5
9F
330
1F
100
AcDbEntity
  8
0
  6
Continuous
 62
     7
370
    25
100
AcDbSpline
210
0.0
220
0.0
230
1.0
 70
     8
 71
     3
 72
    31
 73
    27
 74
     0
 42
0.00000001
 43
0.00000001
 40
0.0
 40
0.0
 40
0.0
 40
0.0
 40
0.0007462442569495
 40
0.0026120026226329
 40
0.0055536856123455
 40
0.0058588524230411
 40
0.0060583244140062
 40
0.0085202953540796
 40
0.010052385017181
 40
0.0107763561246004
 40
0.0121324427900327
 40
0.0127950711266204
 40
0.0130311013106263
 40
0.0147738550867458
 40
0.0154962951137031
 40
0.016455245169447
 40
0.1047011506764008
 40
0.2051060751884526
 40
0.2928276975405166
 40
0.403834314007118
 40
0.4916518128402781
 40
0.6025489962757435
 40
0.6905740853507485
 40
0.8012785628791368
 40
0.8891506998451211
 40
1.0
 40
1.0
 40
1.0
 40
1.0
 10
63.61695601913217
 20
113.1100971292658
 30
0.0
 10
63.61645741486352
 20
113.1090134978804
 30
0.0
 10
63.61471220122167
 20
113.1052205735201
 30
0.0
 10
63.61251537990189
 20
113.0971797942082
 30
0.0
 10
63.61005055679557
 20
113.0885466502157
 30
0.0
 10
63.6084185559494
 20
113.0832135949452
 30
0.0
 10
63.60721198417998
 20
113.0780250741326
 30
0.0
 10
63.60655311712866
 20
113.0712462661127
 30
0.0
 10
63.60566220799821
 20
113.0618723437406
 30
0.0
 10
63.60491890547114
 20
113.0552175072914
 30
0.0
 10
63.60449913337232
 20
113.0493343876817
 30
0.0
 10
63.6045360954717
 20
113.0448999403449
 30
0.0
 10
63.6048762115506
 20
113.0392316294079
 30
0.0
 10
63.60504389071912
 20
113.0339422931297
 30
0.0
 10
63.60573502569637
 20
113.0262693922807
 30
0.0
 10
63.62209294739528
 20
112.8282269377523
 30
0.0
 10
63.66302525077027
 20
112.4848691006019
 30
0.0
 10
63.7189356439393
 20
111.9117855781201
 30
0.0
 10
63.77921316512801
 20
111.3291283068725
 30
0.0
 10
63.83833209986028
 20
110.7469078320921
 30
0.0
 10
63.90045231534543
 20
110.1403958775996
 30
0.0
 10
63.95971764773162
 20
109.5590432153782
 30
0.0
 10
64.02186395148202
 20
108.9522077717196
 30
0.0
 10
64.08107626510034
 20
108.3713115861713
 30
0.0
 10
64.14326553955149
 20
107.7639696496098
 30
0.0
 10
64.1840321187483
 20
107.3642192797178
 30
0.0
 10
64.20677222590105
 20
107.1412335295079
 30
0.0
  0
SPLINE
  5
A0
330
1F
100
AcDbEntity
  8
0
  6
Continuous
 62
     7
370
    25
100
AcDbSpline
210
0.0
220
0.0
230
1.0
 70
     8
 71
     3
 72
    70
 73
    66
 74
     0
 42
0.00000001
 43
0.00000001
 40
0.0
 40
0.0
 40
0.0
 40
0.0
 40
0.0038020369172701
 40
0.0180727670672517
 40
0.0323436372862305
 40
0.0466171181058774
 40
0.0608894492853113
 40
0.0751635639231455
 40
0.0894424769705903
 40
0.1037128383669298
 40
0.1179812128264634
 40
0.1322562887020199
 40
0.1465305918560385
 40
0.1608041248313587
 40
0.1750781594929393
 40
0.189345931919435
 40
0.2036199114754536
 40
0.2178908769189021
 40
0.2321667098559138
 40
0.2464387565045789
 40
0.260716148200808
 40
0.2749832193184391
 40
0.2892600640784279
 40
0.3035334484735458
 40
0.317805493535419
 40
0.3320781655741538
 40
0.3463467961847618
 40
0.3606240287264504
 40
0.3748937576910857
 40
0.3891678526956698
 40
0.4034452332036417
 40
0.4177184756039016
 40
0.4319873087328572
 40
0.4462630249690726
 40
0.4605360151163287
 40
0.4748028710212052
 40
0.4890832196873715
 40
0.5033536075135778
 40
0.507799998778962
 40
0.5383026240778485
 40
0.6057162735471875
 40
0.6361417006206165
 40
0.7036288267532557
 40
0.7341185549019736
 40
0.8015469319134312
 40
0.8321630957129846
 40
0.8994588307595954
 40
0.9306593232217606
 40
0.992408740607688
 40
0.9928865145067138
 40
0.9933156386064609
 40
0.9936615562958687
 40
0.9943777885951272
 40
0.9944691723616209
 40
0.9947240591747787
 40
0.995333461485003
 40
0.9955606175476753
 40
0.99619213411245
 40
0.9968979313611567
 40
0.9971485904615084
 40
0.9975991874302029
 40
0.9981499491541842
 40
0.9985104117969447
 40
0.999249959911442
 40
1.0
 40
1.0
 40
1.0
 40
1.0
 10
39.55905962459451
 20
123.6157964932896
 30
0.0
 10
39.55348614810544
 20
123.6087917075783
 30
0.0
 10
39.52699294340138
 20
123.5754948555823
 30
0.0
 10
39.49692367454664
 20
123.5087359591321
 30
0.0
 10
39.46915315105218
 20
123.4165798998725
 30
0.0
 10
39.46110578227471
 20
123.318486209705
 30
0.0
 10
39.47019014699256
 20
123.2162134327054
 30
0.0
 10
39.49742541061057
 20
123.1104581964837
 30
0.0
 10
39.54227335019534
 20
123.0023204340207
 30
0.0
 10
39.60418013679061
 20
122.8928891726426
 30
0.0
 10
39.68281341676276
 20
122.7830155360594
 30
0.0
 10
39.77714320284277
 20
122.6738586492891
 30
0.0
 10
39.88652611200139
 20
122.5661933489774
 30
0.0
 10
40.0098866764553
 20
122.4614035963416
 30
0.0
 10
40.14604507581993
 20
122.3602713054265
 30
0.0
 10
40.29373465429902
 20
122.2637002554221
 30
0.0
 10
40.45153167271994
 20
122.1726449167739
 30
0.0
 10
40.61805153375345
 20
122.0878991958453
 30
0.0
 10
40.79165569515509
 20
122.0102518330705
 30
0.0
 10
40.97089207175849
 20
121.9406778004657
 30
0.0
 10
41.15384328156821
 20
121.879466068815
 30
0.0
 10
41.33897231855406
 20
121.8274133422063
 30
0.0
 10
41.52445634204629
 20
121.7849147778526
 30
0.0
 10
41.7086257343907
 20
121.7523101398973
 30
0.0
 10
41.88972714826547
 20
121.7301284032848
 30
0.0
 10
42.0660883397228
 20
121.7183975762358
 30
0.0
 10
42.23605631517122
 20
121.717281601043
 30
0.0
 10
42.39804041983773
 20
121.7266883944074
 30
0.0
 10
42.5505347519259
 20
121.7466054376762
 30
0.0
 10
42.69217354447633
 20
121.7770507541867
 30
0.0
 10
42.82149682535399
 20
121.817252425286
 30
0.0
 10
42.93740357982416
 20
121.8674751329652
 30
0.0
 10
43.03865994162611
 20
121.9266203713551
 30
0.0
 10
43.12467942062614
 20
121.9945334499164
 30
0.0
 10
43.19417247863318
 20
122.0704258875715
 30
0.0
 10
43.24719258015523
 20
122.1537429961478
 30
0.0
 10
43.28138419850476
 20
122.2432328687384
 30
0.0
 10
43.29801023861404
 20
122.3177355713095
 30
0.0
 10
43.29473954239685
 20
122.4277856901815
 30
0.0
 10
43.31668261644467
 20
122.9001317048043
 30
0.0
 10
43.32617020974941
 20
123.3583548361746
 30
0.0
 10
43.34681217678702
 20
123.9918057535067
 30
0.0
 10
43.36159086746758
 20
124.4957896721208
 30
0.0
 10
43.38118502709956
 20
125.1212842145489
 30
0.0
 10
43.39637356316302
 20
125.6283956142825
 30
0.0
 10
43.41579427464137
 20
126.2540898579473
 30
0.0
 10
43.43192253854924
 20
126.7586881910504
 30
0.0
 10
43.44835509742354
 20
127.3782030575323
 30
0.0
 10
43.4689455166281
 20
127.6993150966162
 30
0.0
 10
43.46830669193076
 20
127.9794361535974
 30
0.0
 10
43.46839619327571
 20
127.9851704142902
 30
0.0
 10
43.46813980064938
 20
127.9914275821296
 30
0.0
 10
43.46817833767855
 20
127.9964504793032
 30
0.0
 10
43.46788510154493
 20
128.0008995614565
 30
0.0
 10
43.46778359919961
 20
128.0046685627017
 30
0.0
 10
43.46688692605814
 20
128.0090770780023
 30
0.0
 10
43.46616037625495
 20
128.0151291561268
 30
0.0
 10
43.46487852691492
 20
128.0212190380137
 30
0.0
 10
43.46403738949271
 20
128.0271233078453
 30
0.0
 10
43.46295884265095
 20
128.0322158658018
 30
0.0
 10
43.46222786027698
 20
128.0365650469755
 30
0.0
 10
43.4604714471641
 20
128.0415063903607
 30
0.0
 10
43.45879167092421
 20
128.0472163961109
 30
0.0
 10
43.45662624772106
 20
128.0532857856157
 30
0.0
 10
43.45497042707913
 20
128.0580902352172
 30
0.0
 10
43.45413668533872
 20
128.0605093801844
 30
0.0
  0
SPLINE
  5
A1
330
1F
100
AcDbEntity
  8
0
  6
Continuous
 62
     7
370
    25
100
AcDbSpline
210
0.0
220
0.0
230
1.0
 70
     8
 71
     3
 72
    32
 73
    28
 74
     0
 42
0.00000001
 43
0.00000001
 40
0.0
 40
0.0
 40
0.0
 40
0.0
 40
0.0019040324826122
 40
0.0027819444062885
 40
0.0073939902595178
 40
0.0078637394646959
 40
0.0116301332017117
 40
0.0131259950138602
 40
0.0148234807620078
 40
0.0162212602099296
 40
0.0174055803819688
 40
0.0188802590998465
 40
0.019902162501042
 40
0.0204328063010299
 40
0.022064552937225
 40
0.0231851284166534
 40
0.0238779449592769
 40
0.0802496750441953
 40
0.211103498143657
 40
0.2624833395304938
 40
0.4083259029040577
 40
0.4600854794137714
 40
0.6055506010430721
 40
0.6576974673971541
 40
0.8027765475486833
 40
0.8550550193099684
 40
0.9999999999999999
 40
0.9999999999999999
 40
0.9999999999999999
 40
0.9999999999999999
 10
42.88373361321513
 20
128.2821758014246
 30
0.0
 10
42.88074970350724
 20
128.28109891469
 30
0.0
 10
42.87638997172928
 20
128.2795254966654
 30
0.0
 10
42.86421366263045
 20
128.2748745160677
 30
0.0
 10
42.85605143406039
 20
128.2701277222053
 30
0.0
 10
42.84204578989598
 20
128.2627712221685
 30
0.0
 10
42.83490491159943
 20
128.2572355797096
 30
0.0
 10
42.82401625642215
 20
128.2497781041708
 30
0.0
 10
42.81822757397244
 20
128.2443793031465
 30
0.0
 10
42.81186731420593
 20
128.2384527727497
 30
0.0
 10
42.80621266135419
 20
128.2332711973624
 30
0.0
 10
42.80073821079469
 20
128.2280209102487
 30
0.0
 10
42.79698881451384
 20
128.223499712344
 30
0.0
 10
42.79275485556756
 20
128.2181207054526
 30
0.0
 10
42.78851031809462
 20
128.2129023293506
 30
0.0
 10
42.78390032416399
 20
128.2066220652047
 30
0.0
 10
42.70617623623838
 20
128.102614330497
 30
0.0
 10
42.53217672830298
 20
127.8407894932415
 30
0.0
 10
42.24518501543953
 20
127.4411435477905
 30
0.0
 10
41.8943061585238
 20
126.9393652468247
 30
0.0
 10
41.6119700264337
 20
126.5388776323504
 30
0.0
 10
41.24209620421988
 20
126.0113766114259
 30
0.0
 10
40.96044654901709
 20
125.6113586475759
 30
0.0
 10
40.59086895301712
 20
125.0842841725484
 30
0.0
 10
40.3093465241753
 20
124.6842398515991
 30
0.0
 10
39.93959925790852
 20
124.1570022927619
 30
0.0
 10
39.72025891845136
 20
123.8450551172768
 30
0.0
 10
39.55905962459451
 20
123.6157964932896
 30
0.0
  0
SPLINE
  5
A2
330
1F
100
AcDbEntity
  8
0
  6
Continuous
 62
     7
370
    25
100
AcDbSpline
210
0.0
220
0.0
230
1.0
 70
     8
 71
     3
 72
    11
 73
     7
 74
     0
 42
0.00000001
 43
0.00000001
 40
0.0
 40
0.0
 40
0.0
 40
0.0
 40
0.0887114484423989
 40
0.5276093800221625
 40
0.9663528222058796
 40
0.9999999999999999
 40
0.9999999999999999
 40
0.9999999999999999
 40
0.9999999999999999
 10
49.26389314877531
 20
125.081034780511
 30
0.0
 10
49.26319476212802
 20
125.0804036813343
 30
0.0
 10
49.25904112297023
 20
125.0766502329215
 30
0.0
 10
49.27095372390719
 20
125.0682787541011
 30
0.0
 10
49.2852301281966
 20
125.0600461457079
 30
0.0
 10
49.30209362527447
 20
125.0552293983057
 30
0.0
 10
49.30329476911691
 20
125.054886313686
 30
0.0
  0
SPLINE
  5
A3
330
1F
100
AcDbEntity
  8
0
  6
Continuous
 62
     7
370
    25
100
AcDbSpline
210
0.0
220
0.0
230
1.0
 70
     8
 71
     3
 72
    36
 73
    32
 74
     0
 42
0.00000001
 43
0.00000001
 40
0.0
 40
0.0
 40
0.0
 40
0.0
 40
0.0325106733885801
 40
0.0679587634105112
 40
0.1033859287988017
 40
0.1388289951422358
 40
0.1742595624794997
 40
0.2097006985331477
 40
0.2451364603544452
 40
0.2805686149490097
 40
0.3160098957570004
 40
0.3514559513878743
 40
0.3868774873693752
 40
0.4223307469825237
 40
0.4577530160498591
 40
0.4932038284849987
 40
0.5286322979865113
 40
0.5640751603159385
 40
0.5994992800077035
 40
0.6349411227555317
 40
0.6703851506852416
 40
0.7058240575465812
 40
0.7412522170346911
 40
0.7766933417072766
 40
0.8121326529390183
 40
0.8475768776315816
 40
0.8830040638083846
 40
0.9184397557125595
 40
0.9538910383773037
 40
0.989317764442135
 40
1.0
 40
1.0
 40
1.0
 40
1.0
 10
49.4424895288798
 20
125.0082064033222
 30
0.0
 10
49.45459677107718
 20
125.0044626878473
 30
0.0
 10
49.47990517358888
 20
124.9966370033038
 30
0.0
 10
49.53893497889445
 20
124.9833486339008
 30
0.0
 10
49.61400472997691
 20
124.9688887389907
 30
0.0
 10
49.70478604288575
 20
124.9537066169636
 30
0.0
 10
49.80983495741363
 20
124.9379866551144
 30
0.0
 10
49.92836001786453
 20
124.9215967447636
 30
0.0
 10
50.05914203213428
 20
124.9050756361619
 30
0.0
 10
50.20103681126044
 20
124.8883313443267
 30
0.0
 10
50.35269701581937
 20
124.8714783849388
 30
0.0
 10
50.5127029512409
 20
124.8549001580459
 30
0.0
 10
50.67952742054955
 20
124.8384841940882
 30
0.0
 10
50.85168917330251
 20
124.8226457208998
 30
0.0
 10
51.02753765132991
 20
124.8073920837631
 30
0.0
 10
51.2054126462416
 20
124.7928277683331
 30
0.0
 10
51.38370797808369
 20
124.779263564241
 30
0.0
 10
51.5606655671148
 20
124.7665818757647
 30
0.0
 10
51.73472886731356
 20
124.7551289621147
 30
0.0
 10
51.90424240319128
 20
124.7448137450201
 30
0.0
 10
52.06766437541822
 20
124.7359230479295
 30
0.0
 10
52.22328266820578
 20
124.7283393373523
 30
0.0
 10
52.36990758915514
 20
124.7223099385211
 30
0.0
 10
52.50602805395646
 20
124.7178955178726
 30
0.0
 10
52.63034303212648
 20
124.7149435883243
 30
0.0
 10
52.74181901727155
 20
124.7137034785288
 30
0.0
 10
52.83914121076328
 20
124.7140014538771
 30
0.0
 10
52.92203116613636
 20
124.7158519066422
 30
0.0
 10
52.98806578242406
 20
124.7195473974983
 30
0.0
 10
53.02967110759106
 20
124.72314613276
 30
0.0
 10
53.04366250307717
 20
124.7260798551366
 30
0.0
 10
53.04690394198852
 20
124.7267595215699
 30
0.0
  0
SPLINE
  5
A4
330
1F
100
AcDbEntity
  8
0
  6
Continuous
 62
     7
370
    25
100
AcDbSpline
210
0.0
220
0.0
230
1.0
 70
     8
 71
     3
 72
    10
 73
     6
 74
     0
 42
0.00000001
 43
0.00000001
 40
0.0
 40
0.0
 40
0.0
 40
0.0
 40
0.3069676998844144
 40
0.7459367593881393
 40
0.9999999999999999
 40
0.9999999999999999
 40
0.9999999999999999
 40
0.9999999999999999
 10
53.19129098431057
 20
124.7513332795835
 30
0.0
 10
53.20045932126767
 20
124.7529107295372
 30
0.0
 10
53.22273853683765
 20
124.7567439598966
 30
0.0
 10
53.23707252386157
 20
124.763423892842
 30
0.0
 10
53.2354842027256
 20
124.7689067421308
 30
0.0
 10
53.23490192969898
 20
124.7709167356879
 30
0.0
  0
SPLINE
  5
A5
330
1F
100
AcDbEntity
  8
0
  6
Continuous
 62
     7
370
    25
100
AcDbSpline
210
0.0
220
0.0
230
1.0
 70
     8
 71
     3
 72
    40
 73
    36
 74
     0
 42
0.00000001
 43
0.00000001
 40
0.0
 40
0.0
 40
0.0
 40
0.0
 40
0.0247841128912061
 40
0.0558200517417054
 40
0.0868595766727717
 40
0.1178935878817494
 40
0.1489362803027738
 40
0.1799678481176263
 40
0.211000759646821
 40
0.2420296620575988
 40
0.2730761482890426
 40
0.3041055453924705
 40
0.3351462048174787
 40
0.3661731109324466
 40
0.3972079370743175
 40
0.4282431487768683
 40
0.459290411220266
 40
0.4903199766135887
 40
0.521360270909991
 40
0.5523905201495335
 40
0.5834284603036755
 40
0.6144644142673361
 40
0.6455091976651605
 40
0.6765300225631633
 40
0.7075763243987478
 40
0.7386165157700363
 40
0.7696532298161067
 40
0.8006841192987614
 40
0.8317142474981709
 40
0.8627518620693652
 40
0.893793261189805
 40
0.9248295203633411
 40
0.9558671592867519
 40
0.9868897292382794
 40
1.0
 40
1.0
 40
1.0
 40
1.0
 10
49.40572752287454
 20
125.032488074783
 30
0.0
 10
49.40706391411376
 20
125.0348753750097
 30
0.0
 10
49.41007380308773
 20
125.0402521751705
 30
0.0
 10
49.43521344724714
 20
125.0470860977508
 30
0.0
 10
49.477260718551
 20
125.0530080458656
 30
0.0
 10
49.53617135595268
 20
125.0571389282534
 30
0.0
 10
49.61099815134996
 20
125.0600831629208
 30
0.0
 10
49.70114062814866
 20
125.0610956029793
 30
0.0
 10
49.80571883119072
 20
125.0606594436317
 30
0.0
 10
49.92375131267219
 20
125.0584912989801
 30
0.0
 10
50.05412566859745
 20
125.0548673195179
 30
0.0
 10
50.19565026619059
 20
125.0494727656497
 30
0.0
 10
50.34687580421023
 20
125.0426856791571
 30
0.0
 10
50.50668161653352
 20
125.0345430084665
 30
0.0
 10
50.67321638019506
 20
125.0248924949166
 30
0.0
 10
50.84525381246184
 20
125.0140571556125
 30
0.0
 10
51.02098776556391
 20
125.0019685736418
 30
0.0
 10
51.19884505403321
 20
124.9887965924212
 30
0.0
 10
51.37712051982158
 20
124.9746395842898
 30
0.0
 10
51.55417307020862
 20
124.9597640079698
 30
0.0
 10
51.72837375381012
 20
124.9440980617086
 30
0.0
 10
51.89809442128833
 20
124.9281354130085
 30
0.0
 10
52.06173347363178
 20
124.911528107233
 30
0.0
 10
52.21771438633308
 20
124.8948498952743
 30
0.0
 10
52.3646858037722
 20
124.8780858496606
 30
0.0
 10
52.50123570688285
 20
124.8612712035862
 30
0.0
 10
52.62599527886952
 20
124.8448239116918
 30
0.0
 10
52.73796149344101
 20
124.8288663401
 30
0.0
 10
52.83588172302394
 20
124.8133360202326
 30
0.0
 10
52.91901644865963
 20
124.7984311813127
 30
0.0
 10
52.98656743153609
 20
124.7845259298966
 30
0.0
 10
53.03807970807235
 20
124.7714820461911
 30
0.0
 10
53.07182428018834
 20
124.7595453675424
 30
0.0
 10
53.08841926807539
 20
124.7506828078952
 30
0.0
 10
53.08754912447692
 20
124.7462642727912
 30
0.0
 10
53.08729063628551
 20
124.7449516858231
 30
0.0
  0
SPLINE
  5
A6
330
1F
100
AcDbEntity
  8
0
  6
Continuous
 62
     7
370
    25
100
AcDbSpline
210
0.0
220
0.0
230
1.0
 70
     8
 71
     3
 72
     9
 73
     5
 74
     0
 42
0.00000001
 43
0.00000001
 40
0.0
 40
0.0
 40
0.0
 40
0.0
 40
0.0768253659378705
 40
1.0
 40
1.0
 40
1.0
 40
1.0
 10
49.30329476911691
 20
125.054886313686
 30
0.0
 10
49.30677315005506
 20
125.0537140767382
 30
0.0
 10
49.35204961435419
 20
125.0384556144642
 30
0.0
 10
49.39907598051138
 20
125.0227268238457
 30
0.0
 10
49.4424895288798
 20
125.0082064033222
 30
0.0
  0
SPLINE
  5
A7
330
1F
100
AcDbEntity
  8
0
  6
Continuous
 62
     7
370
    25
100
AcDbSpline
210
0.0
220
0.0
230
1.0
 70
     8
 71
     3
 72
     9
 73
     5
 74
     0
 42
0.00000001
 43
0.00000001
 40
0.0
 40
0.0
 40
0.0
 40
0.0
 40
0.6996000656773629
 40
1.0
 40
1.0
 40
1.0
 40
1.0
 10
53.04690394198852
 20
124.7267595215699
 30
0.0
 10
53.08015287181749
 20
124.7324172106023
 30
0.0
 10
53.12767849604221
 20
124.740504243909
 30
0.0
 10
53.17659613021719
 20
124.7488317094746
 30
0.0
 10
53.19129098431057
 20
124.7513332795835
 30
0.0
  0
LINE
  5
A8
330
1F
100
AcDbEntity
  8
0
  6
Continuous
 62
     7
370
    25
100
AcDbLine
 10
53.0872906363
 20
124.7449516858
 30
0.0
 11
53.0865237177
 21
124.7493306706
 31
0.0
  0
SPLINE
  5
A9
330
1F
100
AcDbEntity
  8
0
  6
Continuous
 62
     7
370
    25
100
AcDbSpline
210
0.0
220
0.0
230
1.0
 70
     8
 71
     3
 72
   134
 73
   130
 74
     0
 42
0.00000001
 43
0.00000001
 40
0.0
 40
0.0
 40
0.0
 40
0.0
 40
0.0394404896768237
 40
0.0931385883932766
 40
0.1323856716643265
 40
0.1862768117012164
 40
0.2254738003886528
 40
0.2794166430130886
 40
0.3185564901387626
 40
0.3725548171023615
 40
0.4094985685813123
 40
0.4609711920144192
 40
0.4613992439851179
 40
0.4616815403605558
 40
0.4620910846912075
 40
0.4623358000967291
 40
0.4627418772443459
 40
0.4629513217655278
 40
0.4633446786448183
 40
0.4635189243344306
 40
0.4639275115747506
 40
0.4640574235181472
 40
0.4644959349650508
 40
0.4645772200974895
 40
0.4650192298151825
 40
0.4650564771841316
 40
0.4653980760162105
 40
0.4655568049001729
 40
0.4656029581037039
 40
0.4661390399430168
 40
0.4665268747317954
 40
0.4669325748834618
 40
0.4680303412417124
 40
0.4683217818694911
 40
0.4702624540868043
 40
0.4721844844736105
 40
0.4724630399348583
 40
0.4725869606503974
 40
0.4746498821317789
 40
0.475213199550954
 40
0.476828865985186
 40
0.4777707977741503
 40
0.479005724422872
 40
0.4802824756635288
 40
0.4811777051277118
 40
0.4826390381249572
 40
0.4833426259131061
 40
0.4849532737512033
 40
0.4855087888194402
 40
0.4870307322872245
 40
0.4876728293396638
 40
0.4894860315111127
 40
0.489832117850015
 40
0.4916889249083325
 40
0.4919952344246563
 40
0.4939239388937243
 40
0.4941580597997666
 40
0.4958639928538565
 40
0.4963186092426382
 40
0.4981408810377928
 40
0.49847995798342
 40
0.5000533280919731
 40
0.50064405069248
 40
0.502435067855368
 40
0.502807869424206
 40
0.5048645236377389
 40
0.5049684464029802
 40
0.506817636912258
 40
0.5071301888166505
 40
0.5091065555705961
 40
0.5092870073706834
 40
0.5110917742430492
 40
0.5114508842042381
 40
0.5132714488712118
 40
0.5136126969284048
 40
0.5153163278140633
 40
0.5157791175024851
 40
0.5175616022047969
 40
0.5179402397703656
 40
0.5193851689011234
 40
0.5201101299592608
 40
0.521397349399563
 40
0.5222769518598666
 40
0.5233066828034673
 40
0.5244575964891872
 40
0.525224344951178
 40
0.5266423090016308
 40
0.5268388702572645
 40
0.5273218438057796
 40
0.5285653861020422
 40
0.5288410508994243
 40
0.5301289474895027
 40
0.5310578970874676
 40
0.531377234868006
 40
0.5315604281521805
 40
0.5324533010889053
 40
0.5330318789793861
 40
0.5331606328737463
 40
0.5333973836107174
 40
0.5337879365091138
 40
0.5338530695377258
 40
0.5342898206599281
 40
0.5344239921063619
 40
0.5347365695004193
 40
0.5349239844376346
 40
0.535180554032396
 40
0.5354274977167665
 40
0.5356419815867903
 40
0.5359357252118419
 40
0.5361319719410905
 40
0.536471934788093
 40
0.5366550462967616
 40
0.5370471454029205
 40
0.5372200929340283
 40
0.5376635100991538
 40
0.5378241485000432
 40
0.538320231464447
 40
0.5384733442185824
 40
0.5390288914685049
 40
0.6092614001075655
 40
0.6274446052377084
 40
0.7018487121012812
 40
0.7205814964575579
 40
0.7946313469846666
 40
0.8137235264854942
 40
0.8881386406797327
 40
0.9068633240201422
 40
0.9811923086504796
 40
1.0
 40
1.0
 40
1.0
 40
1.0
 10
53.23490192969898
 20
124.7709167356879
 30
0.0
 10
53.20274852921434
 20
124.9545735296081
 30
0.0
 10
53.12681837830288
 20
125.3882784525115
 30
0.0
 10
53.01889800683091
 20
126.0029346584018
 30
0.0
 10
52.89916767977696
 20
126.6871456638485
 30
0.0
 10
52.7913942558427
 20
127.3014430033862
 30
0.0
 10
52.67152795482264
 20
127.9865834261811
 30
0.0
 10
52.56382302297609
 20
128.6006062062952
 30
0.0
 10
52.44367209104142
 20
129.2859534099294
 30
0.0
 10
52.33861203819777
 20
129.88990906936
 30
0.0
 10
52.21976569511241
 20
130.5530741206021
 30
0.0
 10
52.15587417802158
 20
130.9668786932068
 30
0.0
 10
52.10676635286951
 20
131.2085723525983
 30
0.0
 10
52.10580609100124
 20
131.2137837731137
 30
0.0
 10
52.10468496597966
 20
131.2180629769827
 30
0.0
 10
52.10355495017178
 20
131.2229538714571
 30
0.0
 10
52.10232525438776
 20
131.2268111337993
 30
0.0
 10
52.10106206378875
 20
131.2314248473037
 30
0.0
 10
52.09975810056555
 20
131.2347998345485
 30
0.0
 10
52.09828643125007
 20
131.2392191889549
 30
0.0
 10
52.09689262168824
 20
131.2420320007404
 30
0.0
 10
52.09508182014005
 20
131.2463655797525
 30
0.0
 10
52.09372172722512
 20
131.2486103359447
 30
0.0
 10
52.09158483577047
 20
131.2526956944069
 30
0.0
 10
52.09024009331741
 20
131.2544349744668
 30
0.0
 10
52.0880709113994
 20
131.2577258177416
 30
0.0
 10
52.08686778467724
 20
131.2590534234239
 30
0.0
 10
52.08523436088817
 20
131.2610977917369
 30
0.0
 10
52.08377770033171
 20
131.2622954832004
 30
0.0
 10
52.08015243859805
 20
131.2657659711184
 30
0.0
 10
52.07861166207215
 20
131.2665177595921
 30
0.0
 10
52.07283407634346
 20
131.270713254788
 30
0.0
 10
52.07139194963436
 20
131.2711619486801
 30
0.0
 10
52.06540606663695
 20
131.2737242478598
 30
0.0
 10
52.06081145628662
 20
131.2750566434279
 30
0.0
 10
52.05313814946108
 20
131.2771156409314
 30
0.0
 10
52.04971901682268
 20
131.2779805666646
 30
0.0
 10
52.04478169753155
 20
131.2789208423951
 30
0.0
 10
52.03986990322991
 20
131.2799923588996
 30
0.0
 10
52.03063351620507
 20
131.281676300612
 30
0.0
 10
52.02323202353757
 20
131.2829839346446
 30
0.0
 10
52.01339190590397
 20
131.2845322382274
 30
0.0
 10
52.00435197643721
 20
131.286004874617
 30
0.0
 10
51.99357422417561
 20
131.2874074727746
 30
0.0
 10
51.98304916044458
 20
131.2890228530378
 30
0.0
 10
51.97232085711795
 20
131.290377200754
 30
0.0
 10
51.95967603047288
 20
131.292045585461
 30
0.0
 10
51.9489939917708
 20
131.2933291741961
 30
0.0
 10
51.9356958479264
 20
131.2950058748373
 30
0.0
 10
51.92493790943679
 20
131.2961806357208
 30
0.0
 10
51.90947844087442
 20
131.29797868929
 30
0.0
 10
51.89727405294324
 20
131.2991785450266
 30
0.0
 10
51.88083079531901
 20
131.300952893188
 30
0.0
 10
51.8695613205677
 20
131.3020335918739
 30
0.0
 10
51.85188275080776
 20
131.303840269721
 30
0.0
 10
51.84050250046615
 20
131.3049072947492
 30
0.0
 10
51.8230967665333
 20
131.3065473393633
 30
0.0
 10
51.81202561629668
 20
131.3074977853072
 30
0.0
 10
51.79369505970914
 20
131.3092145309905
 30
0.0
 10
51.7812751500074
 20
131.310144218283
 30
0.0
 10
51.76384843993771
 20
131.3116451164379
 30
0.0
 10
51.75200234475815
 20
131.312543004471
 30
0.0
 10
51.73334737806826
 20
131.3140625349114
 30
0.0
 10
51.72047683488375
 20
131.314885766442
 30
0.0
 10
51.70056635342479
 20
131.3163630318449
 30
0.0
 10
51.68905880698532
 20
131.317104195541
 30
0.0
 10
51.67040015941308
 20
131.3183881500061
 30
0.0
 10
51.66019803366674
 20
131.3190751510043
 30
0.0
 10
51.64130505439719
 20
131.3202738914694
 30
0.0
 10
51.63091854568415
 20
131.3208079980822
 30
0.0
 10
51.6132803086734
 20
131.3218365579561
 30
0.0
 10
51.60364537593635
 20
131.3223048424072
 30
0.0
 10
51.58669248406951
 20
131.3231950126107
 30
0.0
 10
51.57718626119035
 20
131.3235393805493
 30
0.0
 10
51.56131070475227
 20
131.3242206313012
 30
0.0
 10
51.55260394224811
 20
131.324450994919
 30
0.0
 10
51.53717214806493
 20
131.3250895011266
 30
0.0
 10
51.52933005655269
 20
131.3252131998742
 30
0.0
 10
51.51631585568106
 20
131.3255880986646
 30
0.0
 10
51.50866882692257
 20
131.325745108267
 30
0.0
 10
51.49727891064603
 20
131.3259945833626
 30
0.0
 10
51.49000817389636
 20
131.3259204850048
 30
0.0
 10
51.47977157615763
 20
131.3260480861913
 30
0.0
 10
51.47342892976494
 20
131.3258474127886
 30
0.0
 10
51.4648687477892
 20
131.3258720299734
 30
0.0
 10
51.4592400849638
 20
131.3255528031134
 30
0.0
 10
51.45229139018636
 20
131.3255101610861
 30
0.0
 10
51.44895266121301
 20
131.3252991512012
 30
0.0
 10
51.44506767021585
 20
131.3250635760446
 30
0.0
 10
51.44251881484631
 20
131.3248182878422
 30
0.0
 10
51.43638075665328
 20
131.3242757280195
 30
0.0
 10
51.43515526958517
 20
131.3238931485217
 30
0.0
 10
51.42859806475687
 20
131.3231590644743
 30
0.0
 10
51.42794201885881
 20
131.3229090782684
 30
0.0
 10
51.42475083396202
 20
131.3223246871191
 30
0.0
 10
51.42459475981616
 20
131.3219483647098
 30
0.0
 10
51.41932417134483
 20
131.3205481919582
 30
0.0
 10
51.41806076818807
 20
131.3200058261875
 30
0.0
 10
51.41542219004049
 20
131.3188453615991
 30
0.0
 10
51.41538545341056
 20
131.3185771216702
 30
0.0
 10
51.41153624310905
 20
131.316693507419
 30
0.0
 10
51.41134016654112
 20
131.316087128739
 30
0.0
 10
51.4074966412094
 20
131.3135452240117
 30
0.0
 10
51.40636703838363
 20
131.3122782246738
 30
0.0
 10
51.40339593226332
 20
131.3098166296558
 30
0.0
 10
51.40191047712037
 20
131.3078340596496
 30
0.0
 10
51.3993843008237
 20
131.3053419162281
 30
0.0
 10
51.39751339281081
 20
131.3026885968831
 30
0.0
 10
51.39537901119463
 20
131.3000162304933
 30
0.0
 10
51.39345156800192
 20
131.2968584876492
 30
0.0
 10
51.39143005938267
 20
131.2940243717031
 30
0.0
 10
51.38949123680433
 20
131.2902784401404
 30
0.0
 10
51.38764280459887
 20
131.2872183326516
 30
0.0
 10
51.38568642227866
 20
131.2829094116677
 30
0.0
 10
51.3839796185418
 20
131.2796668784612
 30
0.0
 10
51.38205389639965
 20
131.2748469232836
 30
0.0
 10
51.38045144734721
 20
131.2713700577939
 30
0.0
 10
51.37856573035172
 20
131.2659936772152
 30
0.0
 10
51.26100556782007
 20
130.9517817038615
 30
0.0
 10
51.1345255776418
 20
130.55059168225
 30
0.0
 10
50.8851984764895
 20
129.8245396705175
 30
0.0
 10
50.71468828153942
 20
129.325847631083
 30
0.0
 10
50.46030595694582
 20
128.5799238707964
 30
0.0
 10
50.28838592213341
 20
128.0789214875486
 30
0.0
 10
50.03341431959829
 20
127.3313519057485
 30
0.0
 10
49.86092615691764
 20
126.8287015178446
 30
0.0
 10
49.6061804940782
 20
126.0815060627051
 30
0.0
 10
49.43433394415333
 20
125.5806222631847
 30
0.0
 10
49.2925287822539
 20
125.1649701083918
 30
0.0
 10
49.26389314877531
 20
125.081034780511
 30
0.0
  0
ENDSEC
  0
SECTION
  2
OBJECTS
  0
DICTIONARY
  5
C
330
0
100
AcDbDictionary
281
     1
  3
ACAD_GROUP
350
D
  3
ACAD_LAYOUT
350
1A
  3
ACAD_MLINESTYLE
350
17
  3
ACAD_PLOTSETTINGS
350
19
  3
ACAD_PLOTSTYLENAME
350
E
  3
ACAD_SCALELIST
350
47
  3
DWGPROPS
350
AA
  0
DICTIONARY
  5
D
102
{ACAD_REACTORS
330
C
102
}
330
C
100
AcDbDictionary
281
     1
  0
DICTIONARY
  5
1A
102
{ACAD_REACTORS
330
C
102
}
330
C
100
AcDbDictionary
281
     1
  3
Layout1
350
1E
  3
Layout2
350
26
  3
Model
350
22
  0
DICTIONARY
  5
17
102
{ACAD_REACTORS
330
C
102
}
330
C
100
AcDbDictionary
281
     1
  3
Standard
350
18
  0
DICTIONARY
  5
19
102
{ACAD_REACTORS
330
C
102
}
330
C
100
AcDbDictionary
281
     1
  0
ACDBDICTIONARYWDFLT
  5
E
102
{ACAD_REACTORS
330
C
102
}
330
C
100
AcDbDictionary
281
     1
  3
Normal
350
F
100
AcDbDictionaryWithDefault
340
F
  0
DICTIONARY
  5
47
102
{ACAD_REACTORS
330
C
102
}
330
C
100
AcDbDictionary
281
     1
  3
A0
350
48
  3
A1
350
49
  3
A2
350
4A
  3
A3
350
4B
  3
A4
350
4C
  3
A5
350
4D
  3
A6
350
4E
  3
A7
350
4F
  3
A8
350
50
  3
A9
350
51
  3
B0
350
52
  3
B1
350
53
  3
B2
350
54
  3
B3
350
55
  3
B4
350
56
  3
B5
350
57
  3
B6
350
58
  3
B7
350
59
  3
B8
350
5A
  3
B9
350
5B
  3
C0
350
5C
  3
C1
350
5D
  3
C2
350
5E
  3
C3
350
5F
  3
C4
350
60
  3
C5
350
61
  3
C6
350
62
  3
C7
350
63
  3
C8
350
64
  3
C9
350
65
  3
D0
350
66
  3
D1
350
67
  3
D2
350
68
  0
XRECORD
  5
AA
102
{ACAD_REACTORS
330
C
102
}
330
C
100
AcDbXrecord
280
     1
  1
DWGPROPS COOKIE
  2

  3

  4

  6

  7

  8
9222
  9

300
=
301
=
302
=
303
=
304
=
305
=
306
=
307
=
308
=
309
=
 40
0.0
 41
2459920.226232211
 42
2459920.226232546
  1

 90
        0
  0
LAYOUT
  5
1E
102
{ACAD_REACTORS
330
1A
102
}
330
1A
100
AcDbPlotSettings
  1

  2
none_device
  4

  6

 40
0.0
 41
0.0
 42
0.0
 43
0.0
 44
0.0
 45
0.0
 46
0.0
 47
0.0
 48
0.0
 49
0.0
140
0.0
141
0.0
142
1.0
143
1.0
 70
   688
 72
     1
 73
     0
 74
     5
  7

 75
    16
147
1.0
148
0.0
149
0.0
100
AcDbLayout
  1
Layout1
 70
     1
 71
     1
 10
0.0
 20
0.0
 11
420.0
 21
297.0
 12
0.0
 22
0.0
 32
0.0
 14
1.0000000000E+20
 24
1.0000000000E+20
 34
1.0000000000E+20
 15
-1.0000000000E+20
 25
-1.0000000000E+20
 35
-1.0000000000E+20
146
0.0
 13
0.0
 23
0.0
 33
0.0
 16
1.0
 26
0.0
 36
0.0
 17
0.0
 27
1.0
 37
0.0
 76
     0
330
1B
  0
LAYOUT
  5
26
102
{ACAD_REACTORS
330
1A
102
}
330
1A
100
AcDbPlotSettings
  1

  2
none_device
  4

  6

 40
0.0
 41
0.0
 42
0.0
 43
0.0
 44
0.0
 45
0.0
 46
0.0
 47
0.0
 48
0.0
 49
0.0
140
0.0
141
0.0
142
1.0
143
1.0
 70
   688
 72
     1
 73
     0
 74
     5
  7

 75
    16
147
1.0
148
0.0
149
0.0
100
AcDbLayout
  1
Layout2
 70
     1
 71
     2
 10
0.0
 20
0.0
 11
0.0
 21
0.0
 12
0.0
 22
0.0
 32
0.0
 14
0.0
 24
0.0
 34
0.0
 15
0.0
 25
0.0
 35
0.0
146
0.0
 13
0.0
 23
0.0
 33
0.0
 16
1.0
 26
0.0
 36
0.0
 17
0.0
 27
1.0
 37
0.0
 76
     0
330
23
  0
LAYOUT
  5
22
102
{ACAD_REACTORS
330
1A
102
}
330
1A
100
AcDbPlotSettings
  1

  2
none_device
  4
Letter_(8.50_x_11.00_Inches)
  6

 40
6.35
 41
6.35
 42
6.35000508
 43
6.35000508
 44
215.9
 45
279.4
 46
0.0
 47
0.0
 48
0.0
 49
0.0
140
0.0
141
0.0
142
1.0
143
1.0
 70
  1712
 72
     1
 73
     0
 74
     0
  7

 75
     0
147
1.0
148
0.0
149
0.0
100
AcDbLayout
  1
Model
 70
     1
 71
     0
 10
0.0
 20
0.0
 11
105.0
 21
148.5
 12
0.0
 22
0.0
 32
0.0
 14
0.0
 24
0.0
 34
0.0
 15
105.0
 25
148.5
 35
0.0
146
0.0
 13
0.0
 23
0.0
 33
0.0
 16
1.0
 26
0.0
 36
0.0
 17
0.0
 27
1.0
 37
0.0
 76
     0
330
1F
331
29
  0
MLINESTYLE
  5
18
102
{ACAD_REACTORS
330
17
102
}
330
17
100
AcDbMlineStyle
  2
Standard
 70
     0
  3

 62
   256
 51
90.0
 52
90.0
 71
     2
 49
0.5
 62
   256
  6
BYLAYER
 49
-0.5
 62
   256
  6
BYLAYER
  0
ACDBPLACEHOLDER
  5
F
102
{ACAD_REACTORS
330
E
102
}
330
E
  0
SCALE
  5
48
102
{ACAD_REACTORS
330
47
102
}
330
47
100
AcDbScale
 70
     0
300
1:1
140
1.0
141
1.0
290
     1
  0
SCALE
  5
49
102
{ACAD_REACTORS
330
47
102
}
330
47
100
AcDbScale
 70
     0
300
1:2
140
1.0
141
2.0
290
     0
  0
SCALE
  5
4A
102
{ACAD_REACTORS
330
47
102
}
330
47
100
AcDbScale
 70
     0
300
1:4
140
1.0
141
4.0
290
     0
  0
SCALE
  5
4B
102
{ACAD_REACTORS
330
47
102
}
330
47
100
AcDbScale
 70
     0
300
1:5
140
1.0
141
5.0
290
     0
  0
SCALE
  5
4C
102
{ACAD_REACTORS
330
47
102
}
330
47
100
AcDbScale
 70
     0
300
1:8
140
1.0
141
8.0
290
     0
  0
SCALE
  5
4D
102
{ACAD_REACTORS
330
47
102
}
330
47
100
AcDbScale
 70
     0
300
1:10
140
1.0
141
10.0
290
     0
  0
SCALE
  5
4E
102
{ACAD_REACTORS
330
47
102
}
330
47
100
AcDbScale
 70
     0
300
1:16
140
1.0
141
16.0
290
     0
  0
SCALE
  5
4F
102
{ACAD_REACTORS
330
47
102
}
330
47
100
AcDbScale
 70
     0
300
1:20
140
1.0
141
20.0
290
     0
  0
SCALE
  5
50
102
{ACAD_REACTORS
330
47
102
}
330
47
100
AcDbScale
 70
     0
300
1:30
140
1.0
141
30.0
290
     0
  0
SCALE
  5
51
102
{ACAD_REACTORS
330
47
102
}
330
47
100
AcDbScale
 70
     0
300
1:40
140
1.0
141
40.0
290
     0
  0
SCALE
  5
52
102
{ACAD_REACTORS
330
47
102
}
330
47
100
AcDbScale
 70
     0
300
1:50
140
1.0
141
50.0
290
     0
  0
SCALE
  5
53
102
{ACAD_REACTORS
330
47
102
}
330
47
100
AcDbScale
 70
     0
300
1:100
140
1.0
141
100.0
290
     0
  0
SCALE
  5
54
102
{ACAD_REACTORS
330
47
102
}
330
47
100
AcDbScale
 70
     0
300
2:1
140
2.0
141
1.0
290
     0
  0
SCALE
  5
55
102
{ACAD_REACTORS
330
47
102
}
330
47
100
AcDbScale
 70
     0
300
4:1
140
4.0
141
1.0
290
     0
  0
SCALE
  5
56
102
{ACAD_REACTORS
330
47
102
}
330
47
100
AcDbScale
 70
     0
300
8:1
140
8.0
141
1.0
290
     0
  0
SCALE
  5
57
102
{ACAD_REACTORS
330
47
102
}
330
47
100
AcDbScale
 70
     0
300
10:1
140
10.0
141
1.0
290
     0
  0
SCALE
  5
58
102
{ACAD_REACTORS
330
47
102
}
330
47
100
AcDbScale
 70
     0
300
100:1
140
100.0
141
1.0
290
     0
  0
SCALE
  5
59
102
{ACAD_REACTORS
330
47
102
}
330
47
100
AcDbScale
 70
     0
300
1/128" = 1'-0"
140
0.0078125
141
12.0
290
     0
  0
SCALE
  5
5A
102
{ACAD_REACTORS
330
47
102
}
330
47
100
AcDbScale
 70
     0
300
1/64" = 1'-0"
140
0.015625
141
12.0
290
     0
  0
SCALE
  5
5B
102
{ACAD_REACTORS
330
47
102
}
330
47
100
AcDbScale
 70
     0
300
1/32" = 1'-0"
140
0.03125
141
12.0
290
     0
  0
SCALE
  5
5C
102
{ACAD_REACTORS
330
47
102
}
330
47
100
AcDbScale
 70
     0
300
1/16" = 1'-0"
140
0.0625
141
12.0
290
     0
  0
SCALE
  5
5D
102
{ACAD_REACTORS
330
47
102
}
330
47
100
AcDbScale
 70
     0
300
3/32" = 1'-0"
140
0.09375
141
12.0
290
     0
  0
SCALE
  5
5E
102
{ACAD_REACTORS
330
47
102
}
330
47
100
AcDbScale
 70
     0
300
1/8" = 1'-0"
140
0.125
141
12.0
290
     0
  0
SCALE
  5
5F
102
{ACAD_REACTORS
330
47
102
}
330
47
100
AcDbScale
 70
     0
300
3/16" = 1'-0"
140
0.1875
141
12.0
290
     0
  0
SCALE
  5
60
102
{ACAD_REACTORS
330
47
102
}
330
47
100
AcDbScale
 70
     0
300
1/4" = 1'-0"
140
0.25
141
12.0
290
     0
  0
SCALE
  5
61
102
{ACAD_REACTORS
330
47
102
}
330
47
100
AcDbScale
 70
     0
300
3/8" = 1'-0"
140
0.375
141
12.0
290
     0
  0
SCALE
  5
62
102
{ACAD_REACTORS
330
47
102
}
330
47
100
AcDbScale
 70
     0
300
1/2" = 1'-0"
140
0.5
141
12.0
290
     0
  0
SCALE
  5
63
102
{ACAD_REACTORS
330
47
102
}
330
47
100
AcDbScale
 70
     0
300
3/4" = 1'-0"
140
0.75
141
12.0
290
     0
  0
SCALE
  5
64
102
{ACAD_REACTORS
330
47
102
}
330
47
100
AcDbScale
 70
     0
300
1" = 1'-0"
140
1.0
141
12.0
290
     0
  0
SCALE
  5
65
102
{ACAD_REACTORS
330
47
102
}
330
47
100
AcDbScale
 70
     0
300
1-1/2" = 1'-0"
140
1.5
141
12.0
290
     0
  0
SCALE
  5
66
102
{ACAD_REACTORS
330
47
102
}
330
47
100
AcDbScale
 70
     0
300
3" = 1'-0"
140
3.0
141
12.0
290
     0
  0
SCALE
  5
67
102
{ACAD_REACTORS
330
47
102
}
330
47
100
AcDbScale
 70
     0
300
6" = 1'-0"
140
6.0
141
12.0
290
     0
  0
SCALE
  5
68
102
{ACAD_REACTORS
330
47
102
}
330
47
100
AcDbScale
 70
     0
300
1'-0" = 1'-0"
140
12.0
141
12.0
290
     0
  0
ENDSEC
  0
EOF
