  0
SECTION
  2
HEADER
  9
$ACADVER
  1
AC1015
  9
$ACADMAINTVER
 70
     6
  9
$DWGCODEPAGE
  3
DOS932
  9
$INSBASE
 10
0.0
 20
0.0
 30
0.0
  9
$EXTMIN
 10
0.0
 20
0.0
 30
0.0
  9
$EXTMAX
 10
105.0
 20
148.5
 30
0.0
  9
$LIMMIN
 10
0.0
 20
0.0
  9
$LIMMAX
 10
105.0
 20
148.5
  9
$ORTHOMODE
 70
     0
  9
$REGENMODE
 70
     1
  9
$FILLMODE
 70
     1
  9
$QTEXTMODE
 70
     0
  9
$MIRRTEXT
 70
     1
  9
$LTSCALE
 40
0.5
  9
$ATTMODE
 70
     1
  9
$TEXTSIZE
 40
1.75
  9
$TRACEWID
 40
1.0
  9
$TEXTSTYLE
  7
Standard
  9
$CLAYER
  8
0
  9
$CELTYPE
  6
ByLayer
  9
$CECOLOR
 62
   256
  9
$CELTSCALE
 40
1.0
  9
$DISPSILH
 70
     0
  9
$DIMSCALE
 40
1.0
  9
$DIMASZ
 40
1.651
  9
$DIMEXO
 40
0.5
  9
$DIMDLI
 40
3.75
  9
$DIMRND
 40
0.0
  9
$DIMDLE
 40
0.0
  9
$DIMEXE
 40
0.5
  9
$DIMTP
 40
0.0
  9
$DIMTM
 40
0.0
  9
$DIMTXT
 40
1.75
  9
$DIMCEN
 40
2.5
  9
$DIMTSZ
 40
0.0
  9
$DIMTOL
 70
     0
  9
$DIMLIM
 70
     0
  9
$DIMTIH
 70
     1
  9
$DIMTOH
 70
     1
  9
$DIMSE1
 70
     0
  9
$DIMSE2
 70
     0
  9
$DIMTAD
 70
     1
  9
$DIMZIN
 70
     1
  9
$DIMBLK
  1

  9
$DIMASO
 70
     1
  9
$DIMSHO
 70
     1
  9
$DIMPOST
  1

  9
$DIMAPOST
  1

  9
$DIMALT
 70
     0
  9
$DIMALTD
 70
     3
  9
$DIMALTF
 40
0.0393700787
  9
$DIMLFAC
 40
1.0
  9
$DIMTOFL
 70
     1
  9
$DIMTVP
 40
0.0
  9
$DIMTIX
 70
     0
  9
$DIMSOXD
 70
     0
  9
$DIMSAH
 70
     0
  9
$DIMBLK1
  1

  9
$DIMBLK2
  1

  9
$DIMSTYLE
  2
ISO-25
  9
$DIMCLRD
 70
     0
  9
$DIMCLRE
 70
     0
  9
$DIMCLRT
 70
     0
  9
$DIMTFAC
 40
1.0
  9
$DIMGAP
 40
0.762
  9
$DIMJUST
 70
     0
  9
$DIMSD1
 70
     0
  9
$DIMSD2
 70
     0
  9
$DIMTOLJ
 70
     0
  9
$DIMTZIN
 70
     1
  9
$DIMALTZ
 70
     0
  9
$DIMALTTZ
 70
     0
  9
$DIMUPT
 70
     0
  9
$DIMDEC
 70
     2
  9
$DIMTDEC
 70
     2
  9
$DIMALTU
 70
     2
  9
$DIMALTTD
 70
     3
  9
$DIMTXSTY
  7
Standard
  9
$DIMAUNIT
 70
     0
  9
$DIMADEC
 70
     2
  9
$DIMALTRND
 40
0.0
  9
$DIMAZIN
 70
     0
  9
$DIMDSEP
 70
    44
  9
$DIMATFIT
 70
     3
  9
$DIMFRAC
 70
     0
  9
$DIMLDRBLK
  1

  9
$DIMLUNIT
 70
     2
  9
$DIMLWD
 70
    -2
  9
$DIMLWE
 70
    -2
  9
$DIMTMOVE
 70
     0
  9
$LUNITS
 70
     2
  9
$LUPREC
 70
     2
  9
$SKETCHINC
 40
1.0
  9
$FILLETRAD
 40
10.0
  9
$AUNITS
 70
     0
  9
$AUPREC
 70
     2
  9
$MENU
  1
.
  9
$ELEVATION
 40
0.0
  9
$PELEVATION
 40
0.0
  9
$THICKNESS
 40
0.0
  9
$LIMCHECK
 70
     0
  9
$CHAMFERA
 40
0.0
  9
$CHAMFERB
 40
0.0
  9
$CHAMFERC
 40
0.0
  9
$CHAMFERD
 40
0.0
  9
$SKPOLY
 70
     0
  9
$TDCREATE
 40
2459916.726171019
  9
$TDUCREATE
 40
2459916.351171019
  9
$TDUPDATE
 40
2459916.726171481
  9
$TDUUPDATE
 40
2459916.351171481
  9
$TDINDWG
 40
0.0000000116
  9
$TDUSRTIMER
 40
0.0000000116
  9
$USRTIMER
 70
     1
  9
$ANGBASE
 50
0.0
  9
$ANGDIR
 70
     0
  9
$PDMODE
 70
     0
  9
$PDSIZE
 40
-1.0
  9
$PLINEWID
 40
0.0
  9
$SPLFRAME
 70
     0
  9
$SPLINETYPE
 70
     6
  9
$SPLINESEGS
 70
     8
  9
$HANDSEED
  5
EF
  9
$SURFTAB1
 70
     6
  9
$SURFTAB2
 70
     6
  9
$SURFTYPE
 70
     6
  9
$SURFU
 70
     6
  9
$SURFV
 70
     6
  9
$UCSBASE
  2

  9
$UCSNAME
  2

  9
$UCSORG
 10
0.0
 20
0.0
 30
0.0
  9
$UCSXDIR
 10
1.0
 20
0.0
 30
0.0
  9
$UCSYDIR
 10
0.0
 20
1.0
 30
0.0
  9
$UCSORTHOREF
  2

  9
$UCSORTHOVIEW
 70
     0
  9
$UCSORGTOP
 10
0.0
 20
0.0
 30
0.0
  9
$UCSORGBOTTOM
 10
0.0
 20
0.0
 30
0.0
  9
$UCSORGLEFT
 10
0.0
 20
0.0
 30
0.0
  9
$UCSORGRIGHT
 10
0.0
 20
0.0
 30
0.0
  9
$UCSORGFRONT
 10
0.0
 20
0.0
 30
0.0
  9
$UCSORGBACK
 10
0.0
 20
0.0
 30
0.0
  9
$PUCSBASE
  2

  9
$PUCSNAME
  2

  9
$PUCSORG
 10
0.0
 20
0.0
 30
0.0
  9
$PUCSXDIR
 10
1.0
 20
0.0
 30
0.0
  9
$PUCSYDIR
 10
0.0
 20
1.0
 30
0.0
  9
$PUCSORTHOREF
  2

  9
$PUCSORTHOVIEW
 70
     0
  9
$PUCSORGTOP
 10
0.0
 20
0.0
 30
0.0
  9
$PUCSORGBOTTOM
 10
0.0
 20
0.0
 30
0.0
  9
$PUCSORGLEFT
 10
0.0
 20
0.0
 30
0.0
  9
$PUCSORGRIGHT
 10
0.0
 20
0.0
 30
0.0
  9
$PUCSORGFRONT
 10
0.0
 20
0.0
 30
0.0
  9
$PUCSORGBACK
 10
0.0
 20
0.0
 30
0.0
  9
$USERI1
 70
     0
  9
$USERI2
 70
     0
  9
$USERI3
 70
     0
  9
$USERI4
 70
     0
  9
$USERI5
 70
     0
  9
$USERR1
 40
0.0
  9
$USERR2
 40
0.0
  9
$USERR3
 40
0.0
  9
$USERR4
 40
0.0
  9
$USERR5
 40
0.0
  9
$WORLDVIEW
 70
     1
  9
$SHADEDGE
 70
     3
  9
$SHADEDIF
 70
    70
  9
$TILEMODE
 70
     1
  9
$MAXACTVP
 70
    64
  9
$PINSBASE
 10
0.0
 20
0.0
 30
0.0
  9
$PLIMCHECK
 70
     0
  9
$PEXTMIN
 10
1.0000000000E+20
 20
1.0000000000E+20
 30
1.0000000000E+20
  9
$PEXTMAX
 10
-1.0000000000E+20
 20
-1.0000000000E+20
 30
-1.0000000000E+20
  9
$PLIMMIN
 10
0.0
 20
0.0
  9
$PLIMMAX
 10
420.0
 20
297.0
  9
$UNITMODE
 70
     0
  9
$VISRETAIN
 70
     1
  9
$PLINEGEN
 70
     0
  9
$PSLTSCALE
 70
     1
  9
$TREEDEPTH
 70
  3020
  9
$CMLSTYLE
  2
Standard
  9
$CMLJUST
 70
     0
  9
$CMLSCALE
 40
20.0
  9
$PROXYGRAPHICS
 70
     1
  9
$MEASUREMENT
 70
     1
  9
$CELWEIGHT
370
    -1
  9
$ENDCAPS
280
     0
  9
$JOINSTYLE
280
     0
  9
$LWDISPLAY
290
     1
  9
$INSUNITS
 70
     4
  9
$HYPERLINKBASE
  1

  9
$STYLESHEET
  1

  9
$XEDIT
290
     1
  9
$CEPSNTYPE
380
     0
  9
$PSTYLEMODE
290
     1
  9
$FINGERPRINTGUID
  2
{6a96792d-754c-428d-8ce6-24bf1fd87e03}
  9
$VERSIONGUID
  2
{FAEB1C32-E019-11D5-929B-00C0DF256EC4}
  9
$EXTNAMES
290
     1
  9
$PSVPSCALE
 40
0.0
  9
$OLESTARTUP
290
     0
  0
ENDSEC
  0
SECTION
  2
CLASSES
  0
CLASS
  1
ACDBDICTIONARYWDFLT
  2
AcDbDictionaryWithDefault
  3
ObjectDBX Classes
 90
        0
280
     0
281
     0
  0
CLASS
  1
VISUALSTYLE
  2
AcDbVisualStyle
  3
ObjectDBX Classes
 90
     4095
280
     0
281
     0
  0
CLASS
  1
MATERIAL
  2
AcDbMaterial
  3
ObjectDBX Classes
 90
     1153
280
     0
281
     0
  0
CLASS
  1
SCALE
  2
AcDbScale
  3
ObjectDBX Classes
 90
     1153
280
     0
281
     0
  0
CLASS
  1
TABLESTYLE
  2
AcDbTableStyle
  3
ObjectDBX Classes
 90
     4095
280
     0
281
     0
  0
CLASS
  1
MLEADERSTYLE
  2
AcDbMLeaderStyle
  3
ACDB_MLEADERSTYLE_CLASS
 90
     4095
280
     0
281
     0
  0
CLASS
  1
SUN
  2
AcDbSun
  3
SCENEOE
 90
     1153
280
     0
281
     0
  0
CLASS
  1
ACDBPLACEHOLDER
  2
AcDbPlaceHolder
  3
ObjectDBX Classes
 90
        0
280
     0
281
     0
  0
CLASS
  1
LAYOUT
  2
AcDbLayout
  3
ObjectDBX Classes
 90
        0
280
     0
281
     0
  0
ENDSEC
  0
SECTION
  2
TABLES
  0
TABLE
  2
VPORT
  5
8
330
0
100
AcDbSymbolTable
 70
     1
  0
VPORT
  5
29
330
8
100
AcDbSymbolTableRecord
100
AcDbViewportTableRecord
  2
*Active
 70
     0
 10
0.0
 20
0.0
 11
1.0
 21
1.0
 12
52.5
 22
74.25
 13
0.0
 23
0.0
 14
10.0
 24
10.0
 15
10.0
 25
10.0
 16
0.0
 26
0.0
 36
1.0
 17
0.0
 27
0.0
 37
0.0
 40
148.5
 41
0.7070707071
 42
50.0
 43
0.0
 44
0.0
 50
0.0
 51
0.0
 71
     0
 72
  2000
 73
     1
 74
     3
 75
     0
 76
     0
 77
     0
 78
     0
281
     0
 65
     1
110
0.0
120
0.0
130
0.0
111
1.0
121
0.0
131
0.0
112
0.0
122
1.0
132
0.0
 79
     0
146
0.0
  0
ENDTAB
  0
TABLE
  2
LTYPE
  5
5
330
0
100
AcDbSymbolTable
 70
     6
  0
LTYPE
  5
14
330
5
100
AcDbSymbolTableRecord
100
AcDbLinetypeTableRecord
  2
ByBlock
 70
     0
  3

 72
    65
 73
     0
 40
0.0
  0
LTYPE
  5
15
330
5
100
AcDbSymbolTableRecord
100
AcDbLinetypeTableRecord
  2
ByLayer
 70
     0
  3

 72
    65
 73
     0
 40
0.0
  0
LTYPE
  5
16
330
5
100
AcDbSymbolTableRecord
100
AcDbLinetypeTableRecord
  2
Continuous
 70
     0
  3
Solid line
 72
    65
 73
     0
 40
0.0
  0
LTYPE
  5
6E
330
5
100
AcDbSymbolTableRecord
100
AcDbLinetypeTableRecord
  2
HIDDEN
 70
     0
  3
Hidden __ __ __ __ __ __ __ __ __ __ __ __ __ __
 72
    65
 73
     2
 40
1.905
 49
1.27
 74
     0
 49
-0.635
 74
     0
  0
LTYPE
  5
6F
330
5
100
AcDbSymbolTableRecord
100
AcDbLinetypeTableRecord
  2
PHANTOM
 70
     0
  3
Phantom ______  __  __  ______  __  __  ______
 72
    65
 73
     6
 40
12.7
 49
6.35
 74
     0
 49
-1.27
 74
     0
 49
1.27
 74
     0
 49
-1.27
 74
     0
 49
1.27
 74
     0
 49
-1.27
 74
     0
  0
LTYPE
  5
70
330
5
100
AcDbSymbolTableRecord
100
AcDbLinetypeTableRecord
  2
CENTER
 70
     0
  3
Center ____ _ ____ _ ____ _ ____ _ ____ _ ____
 72
    65
 73
     4
 40
10.16
 49
6.35
 74
     0
 49
-1.27
 74
     0
 49
1.27
 74
     0
 49
-1.27
 74
     0
  0
LTYPE
  5
71
330
5
100
AcDbSymbolTableRecord
100
AcDbLinetypeTableRecord
  2
CENTERX2
 70
     0
  3
Center (2x) ________  __  ________  __  _____
 72
    65
 73
     4
 40
20.32
 49
12.7
 74
     0
 49
-2.54
 74
     0
 49
2.54
 74
     0
 49
-2.54
 74
     0
  0
LTYPE
  5
72
330
5
100
AcDbSymbolTableRecord
100
AcDbLinetypeTableRecord
  2
DOT2
 70
     0
  3
Dot (.5x) ........................................
 72
    65
 73
     2
 40
0.635
 49
0.0
 74
     0
 49
-0.635
 74
     0
  0
ENDTAB
  0
TABLE
  2
LAYER
  5
2
330
0
100
AcDbSymbolTable
 70
     1
  0
LAYER
  5
10
330
2
100
AcDbSymbolTableRecord
100
AcDbLayerTableRecord
  2
0
 70
     0
 62
     7
  6
Continuous
370
    -3
390
F
  0
ENDTAB
  0
TABLE
  2
STYLE
  5
3
330
0
100
AcDbSymbolTable
 70
     2
  0
STYLE
  5
11
330
3
100
AcDbSymbolTableRecord
100
AcDbTextStyleTableRecord
  2
Standard
 70
     0
 40
0.0
 41
1.0
 50
0.0
 71
     0
 42
1.75
  3
txt
  4
bigfont
  0
STYLE
  5
76
330
3
100
AcDbSymbolTableRecord
100
AcDbTextStyleTableRecord
  2
SLDTEXTSTYLE0
 70
     0
 40
0.0
 41
0.7
 50
0.0
 71
     0
 42
1.75
  3
TXT
  4
bigfont
  0
ENDTAB
  0
TABLE
  2
VIEW
  5
6
330
0
100
AcDbSymbolTable
 70
     0
  0
ENDTAB
  0
TABLE
  2
UCS
  5
7
330
0
100
AcDbSymbolTable
 70
     0
  0
ENDTAB
  0
TABLE
  2
APPID
  5
9
330
0
100
AcDbSymbolTable
 70
     1
  0
APPID
  5
12
330
9
100
AcDbSymbolTableRecord
100
AcDbRegAppTableRecord
  2
ACAD
 70
     0
  0
ENDTAB
  0
TABLE
  2
DIMSTYLE
  5
A
330
0
100
AcDbSymbolTable
 70
     1
100
AcDbDimStyleTable
  0
DIMSTYLE
105
27
330
A
100
AcDbSymbolTableRecord
100
AcDbDimStyleTableRecord
  2
ISO-25
 70
     0
 41
2.5
 42
0.625
 43
3.75
 44
1.25
 73
     0
 74
     0
 77
     1
 78
     8
140
2.5
141
2.5
143
0.0393700787
147
0.625
171
     3
172
     1
178
     0
271
     2
272
     2
274
     3
278
    44
283
     0
284
     8
340
11
  0
ENDTAB
  0
TABLE
  2
BLOCK_RECORD
  5
1
330
0
100
AcDbSymbolTable
 70
     2
  0
BLOCK_RECORD
  5
1F
330
1
100
AcDbSymbolTableRecord
100
AcDbBlockTableRecord
  2
*Model_Space
340
22
  0
BLOCK_RECORD
  5
1B
330
1
100
AcDbSymbolTableRecord
100
AcDbBlockTableRecord
  2
*Paper_Space
340
1E
  0
BLOCK_RECORD
  5
23
330
1
100
AcDbSymbolTableRecord
100
AcDbBlockTableRecord
  2
*Paper_Space0
340
26
  0
BLOCK_RECORD
  5
73
330
1
100
AcDbSymbolTableRecord
100
AcDbBlockTableRecord
  2
SW_NOTE_0
340
0
102
{BLKREFS
331
79
102
}
  0
ENDTAB
  0
ENDSEC
  0
SECTION
  2
BLOCKS
  0
BLOCK
  5
20
330
1F
100
AcDbEntity
  8
0
100
AcDbBlockBegin
  2
*Model_Space
 70
     0
 10
0.0
 20
0.0
 30
0.0
  3
*Model_Space
  1

  0
ENDBLK
  5
21
330
1F
100
AcDbEntity
  8
0
100
AcDbBlockEnd
  0
BLOCK
  5
1C
330
1B
100
AcDbEntity
 67
     1
  8
0
100
AcDbBlockBegin
  2
*Paper_Space
 70
     0
 10
0.0
 20
0.0
 30
0.0
  3
*Paper_Space
  1

  0
ENDBLK
  5
1D
330
1B
100
AcDbEntity
 67
     1
  8
0
100
AcDbBlockEnd
  0
BLOCK
  5
24
330
23
100
AcDbEntity
  8
0
100
AcDbBlockBegin
  2
*Paper_Space0
 70
     0
 10
0.0
 20
0.0
 30
0.0
  3
*Paper_Space0
  1

  0
ENDBLK
  5
25
330
23
100
AcDbEntity
  8
0
100
AcDbBlockEnd
  0
BLOCK
  5
74
330
73
100
AcDbEntity
  8
0
100
AcDbBlockBegin
  2
SW_NOTE_0
 70
     0
 10
0.0
 20
0.0
 30
0.0
  3
SW_NOTE_0
  1

  0
MTEXT
  5
77
330
73
100
AcDbEntity
  8
0
  6
Continuous
 62
     0
370
     0
100
AcDbMText
 10
0.0
 20
3.4106583948
 30
0.0
 40
2.6458333333
 41
0.0
 71
     1
 72
     1
  1
HOA-D31K
  7
SLDTEXTSTYLE0
 73
     1
 44
1.0
  0
MTEXT
  5
78
330
73
100
AcDbEntity
  8
0
  6
Continuous
 62
     0
370
     0
100
AcDbMText
 10
0.0
 20
-0.6171194223
 30
0.0
 40
2.6458333333
 41
0.0
 71
     1
 72
     1
  1
HOA-D31O
  7
SLDTEXTSTYLE0
 73
     1
 44
1.0
  0
ENDBLK
  5
75
330
73
100
AcDbEntity
  8
0
100
AcDbBlockEnd
  0
ENDSEC
  0
SECTION
  2
ENTITIES
  0
INSERT
  5
79
330
1F
100
AcDbEntity
  8
0
  6
Continuous
 62
     7
370
     0
100
AcDbBlockReference
  2
SW_NOTE_0
 10
75.462556442
 20
24.5752007708
 30
0.0
  0
SPLINE
  5
7A
330
1F
100
AcDbEntity
  8
0
  6
Continuous
 62
     7
370
    25
100
AcDbSpline
210
0.0
220
0.0
230
1.0
 70
     8
 71
     3
 72
    28
 73
    24
 74
     0
 42
0.00000001
 43
0.00000001
 40
0.0
 40
0.0
 40
0.0
 40
0.0
 40
0.0011793555091213
 40
0.0064548143255065
 40
0.0083040748800797
 40
0.1150781551478412
 40
0.3367382032901033
 40
0.4660808076229027
 40
0.6768067749015065
 40
0.8403961586499503
 40
0.9591377235181129
 40
0.9613052726488794
 40
0.9641715225888734
 40
0.9665318335058932
 40
0.9729035259366512
 40
0.9733678248676088
 40
0.9749140984387279
 40
0.9797642895648011
 40
0.9815468851842496
 40
0.9870370030892519
 40
0.992562964292108
 40
0.9953768926675225
 40
1.0
 40
1.0
 40
1.0
 40
1.0
 10
50.80434251540552
 20
43.35178448000283
 30
0.0
 10
50.80434539640105
 20
43.35219782424038
 30
0.0
 10
50.80436116458213
 20
43.35446012791837
 30
0.0
 10
50.80418149292924
 20
43.35847417700064
 30
0.0
 10
50.80306906488966
 20
43.40618071058772
 30
0.0
 10
50.7405875085737
 20
43.75552364681997
 30
0.0
 10
50.69933220560373
 20
44.08284822506167
 30
0.0
 10
50.62960362083354
 20
44.54444656860401
 30
0.0
 10
50.56800227988807
 20
44.96002092554043
 30
0.0
 10
50.51562339019247
 20
45.33504490989591
 30
0.0
 10
50.46923458567767
 20
45.61706114546602
 30
0.0
 10
50.46241065161185
 20
45.68320733033243
 30
0.0
 10
50.46227396734501
 20
45.68668112650214
 30
0.0
 10
50.46184396899848
 20
45.6913614060587
 30
0.0
 10
50.46171656163743
 20
45.6948471807331
 30
0.0
 10
50.4613405714403
 20
45.69812126663101
 30
0.0
 10
50.46120622625334
 20
45.70072852649749
 30
0.0
 10
50.45963293032928
 20
45.70402998317732
 30
0.0
 10
50.45840552557728
 20
45.70843263813095
 30
0.0
 10
50.4566739634825
 20
45.71308439913436
 30
0.0
 10
50.45519487126149
 20
45.71770072145197
 30
0.0
 10
50.45351672189686
 20
45.72209854977888
 30
0.0
 10
50.45264528386249
 20
45.72457211416478
 30
0.0
 10
50.45210356916262
 20
45.72610976358573
 30
0.0
  0
SPLINE
  5
7B
330
1F
100
AcDbEntity
  8
0
  6
Continuous
 62
     7
370
    25
100
AcDbSpline
210
0.0
220
0.0
230
1.0
 70
     8
 71
     3
 72
    23
 73
    19
 74
     0
 42
0.00000001
 43
0.00000001
 40
0.0
 40
0.0
 40
0.0
 40
0.0
 40
0.0031129812358571
 40
0.0068189505038454
 40
0.0089593935170927
 40
0.0177355306633959
 40
0.0255070591065812
 40
0.0274147258696302
 40
0.0308568153489727
 40
0.0354843440838902
 40
0.0364222542110347
 40
0.0412086055462909
 40
0.156449482005918
 40
0.3298874526245151
 40
0.5297407385999259
 40
0.6775748143742006
 40
0.8567786862685574
 40
1.0
 40
1.0
 40
1.0
 40
1.0
 10
49.07228501347734
 20
45.74989145094414
 30
0.0
 10
49.07132319554861
 20
45.74890777408256
 30
0.0
 10
49.06921634415668
 20
45.74675304094329
 30
0.0
 10
49.06760013374056
 20
45.74389023402951
 30
0.0
 10
49.06442156209855
 20
45.73876040491435
 30
0.0
 10
49.06066357416646
 20
45.73279255077009
 30
0.0
 10
49.05681266174169
 20
45.72576477913992
 30
0.0
 10
49.05418792373111
 20
45.72123144297775
 30
0.0
 10
49.05188204405358
 20
45.7170956754054
 30
0.0
 10
49.05118903942221
 20
45.71419334077148
 30
0.0
 10
49.04978984689321
 20
45.70886927144367
 30
0.0
 10
49.0360879450507
 20
45.65770519671821
 30
0.0
 10
49.00266197330976
 20
45.35526729566306
 30
0.0
 10
48.94818697453814
 20
45.0090201176888
 30
0.0
 10
48.89027402156076
 20
44.58675773858105
 30
0.0
 10
48.83061145580999
 20
44.17173927561311
 30
0.0
 10
48.77807249227445
 20
43.80033317104925
 30
0.0
 10
48.74149637912787
 20
43.54466937488984
 30
0.0
 10
48.72524926441852
 20
43.43110347994137
 30
0.0
  0
SPLINE
  5
7C
330
1F
100
AcDbEntity
  8
0
  6
Continuous
 62
     7
370
    25
100
AcDbSpline
210
0.0
220
0.0
230
1.0
 70
     8
 71
     3
 72
    45
 73
    41
 74
     0
 42
0.00000001
 43
0.00000001
 40
0.0
 40
0.0
 40
0.0
 40
0.0
 40
0.0039960910711768
 40
0.0567217577037356
 40
0.0766428357941681
 40
0.1204107878854104
 40
0.1390734141702488
 40
0.1840549689784297
 40
0.2101033774290809
 40
0.2477024563860363
 40
0.2708622975638109
 40
0.3113788348419347
 40
0.3335478599110029
 40
0.3749932555095775
 40
0.3933824786418879
 40
0.4386765310170608
 40
0.4498233080582666
 40
0.5023898357021114
 40
0.5063913312627492
 40
0.5442456230609384
 40
0.564329418614485
 40
0.566105064401475
 40
0.6201973960558909
 40
0.6298355273463402
 40
0.6759636146438527
 40
0.6935838187235086
 40
0.7250270296291023
 40
0.7573635640554766
 40
0.7763409229682909
 40
0.8094017225427927
 40
0.817710841095256
 40
0.8212506581398178
 40
0.8650192563814562
 40
0.8851793292657689
 40
0.9080896777531439
 40
0.9418391440209704
 40
0.9467413581638483
 40
0.9491944587688216
 40
0.9887151568976011
 40
1.0
 40
1.0
 40
1.0
 40
1.0
 10
49.32305552056093
 20
43.04994829057738
 30
0.0
 10
49.32501607774367
 20
43.04969880742217
 30
0.0
 10
49.35284483527271
 20
43.04615756603687
 30
0.0
 10
49.3895224313133
 20
43.04059942052584
 30
0.0
 10
49.44903564222677
 20
43.03557116571844
 30
0.0
 10
49.49008790523138
 20
43.03076330879174
 30
0.0
 10
49.54621627432783
 20
43.02789142427838
 30
0.0
 10
49.59240700684813
 20
43.02404245431534
 30
0.0
 10
49.65004241283202
 20
43.02301902252334
 30
0.0
 10
49.69566834222007
 20
43.02083757586018
 30
0.0
 10
49.74947328819565
 20
43.0214871294789
 30
0.0
 10
49.79511444698809
 20
43.02063744623822
 30
0.0
 10
49.85000471582686
 20
43.02290326087633
 30
0.0
 10
49.89373370416939
 20
43.02337082502748
 30
0.0
 10
49.94821838456298
 20
43.02732276379157
 30
0.0
 10
49.9879312506092
 20
43.02884193770862
 30
0.0
 10
50.04314276192312
 20
43.03446419306882
 30
0.0
 10
50.07865268899703
 20
43.03673323657257
 30
0.0
 10
50.12501849316816
 20
43.04276458735162
 30
0.0
 10
50.15554857358902
 20
43.04668325041265
 30
0.0
 10
50.1848896853903
 20
43.05052340285042
 30
0.0
 10
50.22229075164174
 20
43.05532016596321
 30
0.0
 10
50.25166031509184
 20
43.06136241932556
 30
0.0
 10
50.3038430809919
 20
43.06969953829667
 30
0.0
 10
50.33474534916628
 20
43.07725547030129
 30
0.0
 10
50.37802241499865
 20
43.08563296905813
 30
0.0
 10
50.41022313156381
 20
43.09486922396916
 30
0.0
 10
50.44625934447466
 20
43.1029816207564
 30
0.0
 10
50.47724955630601
 20
43.11317033409394
 30
0.0
 10
50.50086821649438
 20
43.12023616424157
 30
0.0
 10
50.51790672069502
 20
43.12559522421576
 30
0.0
 10
50.53923604445045
 20
43.13215279631667
 30
0.0
 10
50.55972165204374
 20
43.14145562516533
 30
0.0
 10
50.59121774745333
 20
43.15245006342781
 30
0.0
 10
50.61294351982092
 20
43.1633695204036
 30
0.0
 10
50.63230046149214
 20
43.17199082505488
 30
0.0
 10
50.644626469254
 20
43.17776236616963
 30
0.0
 10
50.6589246649584
 20
43.18437465314858
 30
0.0
 10
50.67052414399953
 20
43.19250250136528
 30
0.0
 10
50.6840317605411
 20
43.20025743343272
 30
0.0
 10
50.68703205006985
 20
43.20197994616519
 30
0.0
  0
LINE
  5
7D
330
1F
100
AcDbEntity
  8
0
  6
Continuous
 62
     7
370
    25
100
AcDbLine
 10
50.8043419788
 20
43.350026997
 30
0.0
 11
50.8043425154
 21
43.35178448
 31
0.0
  0
SPLINE
  5
7E
330
1F
100
AcDbEntity
  8
0
  6
Continuous
 62
     7
370
    25
100
AcDbSpline
210
0.0
220
0.0
230
1.0
 70
     8
 71
     3
 72
    41
 73
    37
 74
     0
 42
0.00000001
 43
0.00000001
 40
0.0
 40
0.0
 40
0.0
 40
0.0
 40
0.0173973356939315
 40
0.0477448133003077
 40
0.0780938169127357
 40
0.1084282411646307
 40
0.1388033608953813
 40
0.1691709816789912
 40
0.1995017155146564
 40
0.2298549996009736
 40
0.2602135235160478
 40
0.2905550151414117
 40
0.3209186780312072
 40
0.351255968978313
 40
0.3816036413038665
 40
0.4119595035467892
 40
0.4423164795206506
 40
0.4726506128161455
 40
0.5030008490473645
 40
0.5333487392817692
 40
0.5636958271479865
 40
0.5940487456127124
 40
0.6243820112993861
 40
0.6547660031770866
 40
0.6851019429059305
 40
0.715468292116251
 40
0.7457983078140006
 40
0.7761621685428345
 40
0.8065012878425691
 40
0.836862138452113
 40
0.8671947396133611
 40
0.8975383825567297
 40
0.9278885000469258
 40
0.9582788424743817
 40
0.9886299040146016
 40
1.0
 40
1.0
 40
1.0
 40
1.0
 10
49.06057274121093
 20
45.79029018643174
 30
0.0
 10
49.05900847369465
 20
45.78627258430568
 30
0.0
 10
49.0547155370157
 20
45.77524677743508
 30
0.0
 10
49.05527172282371
 20
45.75689816193128
 30
0.0
 10
49.06128142871297
 20
45.73572021858525
 30
0.0
 10
49.07441761010353
 20
45.71490325068289
 30
0.0
 10
49.09395455945674
 20
45.69458529526294
 30
0.0
 10
49.11986743951866
 20
45.67484563245606
 30
0.0
 10
49.15180690277152
 20
45.65608122806353
 30
0.0
 10
49.1896413395147
 20
45.63854851509697
 30
0.0
 10
49.23291467025671
 20
45.62214585894387
 30
0.0
 10
49.28102444260321
 20
45.60700590000429
 30
0.0
 10
49.33390284601963
 20
45.59369178526109
 30
0.0
 10
49.39063410165981
 20
45.5817905168215
 30
0.0
 10
49.45095098825848
 20
45.57179598989845
 30
0.0
 10
49.51415921042782
 20
45.56381388966572
 30
0.0
 10
49.57967430011473
 20
45.55753729805635
 30
0.0
 10
49.64685354947252
 20
45.55358399322418
 30
0.0
 10
49.71503882956627
 20
45.55138061778057
 30
0.0
 10
49.7836081266848
 20
45.55167025514422
 30
0.0
 10
49.85188105353591
 20
45.55365296880683
 30
0.0
 10
49.9192097316046
 20
45.55782653381758
 30
0.0
 10
49.98493184936073
 20
45.56413534508138
 30
0.0
 10
50.04846856531437
 20
45.57223283720686
 30
0.0
 10
50.10911405529555
 20
45.58240668229585
 30
0.0
 10
50.16632799131672
 20
45.5942044174712
 30
0.0
 10
50.2195630252051
 20
45.60775958272414
 30
0.0
 10
50.26834068085373
 20
45.62284627296309
 30
0.0
 10
50.31202675196278
 20
45.639377704033
 30
0.0
 10
50.35056439835017
 20
45.65706959349718
 30
0.0
 10
50.38317425290524
 20
45.6757965865505
 30
0.0
 10
50.40973098423388
 20
45.69548262952995
 30
0.0
 10
50.43008894274922
 20
45.71581670387704
 30
0.0
 10
50.44341871326763
 20
45.73688562227883
 30
0.0
 10
50.45013577881748
 20
45.75349883374358
 30
0.0
 10
50.44991365813217
 20
45.76326363008277
 30
0.0
 10
50.4498531244926
 20
45.76592478998914
 30
0.0
  0
SPLINE
  5
7F
330
1F
100
AcDbEntity
  8
0
  6
Continuous
 62
     7
370
    25
100
AcDbSpline
210
0.0
220
0.0
230
1.0
 70
     8
 71
     3
 72
    16
 73
    12
 74
     0
 42
0.00000001
 43
0.00000001
 40
0.0
 40
0.0
 40
0.0
 40
0.0
 40
0.0763408003573673
 40
0.2003549299267915
 40
0.324230097192805
 40
0.4481457388257523
 40
0.5721395963606387
 40
0.6960954954949602
 40
0.8198803177089038
 40
0.9437915293388581
 40
1.0
 40
1.0
 40
1.0
 40
1.0
 10
50.19795900546441
 20
47.4735896986984
 30
0.0
 10
50.19816860163369
 20
47.47640971790597
 30
0.0
 10
50.19871868265997
 20
47.48381080288389
 30
0.0
 10
50.19459356763327
 20
47.49567154942919
 30
0.0
 10
50.18637156921508
 20
47.50913864700627
 30
0.0
 10
50.17367284484425
 20
47.52226646623011
 30
0.0
 10
50.15707957228359
 20
47.53496005893765
 30
0.0
 10
50.1363572839964
 20
47.54697683598031
 30
0.0
 10
50.11195237513724
 20
47.55835516460998
 30
0.0
 10
50.08952133140231
 20
47.56714433422495
 30
0.0
 10
50.07426910620729
 20
47.57178049780339
 30
0.0
 10
50.06950946949527
 20
47.57322726731334
 30
0.0
  0
SPLINE
  5
80
330
1F
100
AcDbEntity
  8
0
  6
Continuous
 62
     7
370
    25
100
AcDbSpline
210
0.0
220
0.0
230
1.0
 70
     8
 71
     3
 72
    16
 73
    12
 74
     0
 42
0.00000001
 43
0.00000001
 40
0.0
 40
0.0
 40
0.0
 40
0.0
 40
0.0939114933201375
 40
0.2160102071762754
 40
0.3380862850516916
 40
0.4599374284276105
 40
0.5821172927180206
 40
0.704187502552832
 40
0.8262126210022609
 40
0.948154039416698
 40
1.0
 40
1.0
 40
1.0
 40
1.0
 10
49.47456148014029
 20
47.5848278864372
 30
0.0
 10
49.46562318383705
 20
47.58264103102213
 30
0.0
 10
49.44506379149853
 20
47.57761094285532
 30
0.0
 10
49.41633230700693
 20
47.56849482607537
 30
0.0
 10
49.38795755274152
 20
47.55789605154489
 30
0.0
 10
49.36321176994275
 20
47.54650668537509
 30
0.0
 10
49.34206196748535
 20
47.53430498550556
 30
0.0
 10
49.32493952801247
 20
47.5216358405495
 30
0.0
 10
49.31204492544302
 20
47.50839497931883
 30
0.0
 10
49.30435025682513
 20
47.49763083545785
 30
0.0
 10
49.30242223064221
 20
47.49111635379365
 30
0.0
 10
49.30184704290384
 20
47.4891728895356
 30
0.0
  0
SPLINE
  5
81
330
1F
100
AcDbEntity
  8
0
  6
Continuous
 62
     7
370
    25
100
AcDbSpline
210
0.0
220
0.0
230
1.0
 70
     8
 71
     3
 72
    13
 73
     9
 74
     0
 42
0.00000001
 43
0.00000001
 40
0.0
 40
0.0
 40
0.0
 40
0.0
 40
0.2792174098611159
 40
0.4845481321307712
 40
0.7623207583752655
 40
0.9691548225711482
 40
0.9868585141190255
 40
1.0
 40
1.0
 40
1.0
 40
1.0
 10
49.30184704290384
 20
47.4891728895356
 30
0.0
 10
49.27959081431815
 20
47.33165094100058
 30
0.0
 10
49.24096781443129
 20
47.05829060157829
 30
0.0
 10
49.1788302013791
 20
46.62410299991303
 30
0.0
 10
49.12438440033263
 20
46.23626092298602
 30
0.0
 10
49.08287936896264
 20
45.94940636498287
 30
0.0
 10
49.06415903316815
 20
45.81530614886552
 30
0.0
 10
49.06164418427059
 20
45.79776397262932
 30
0.0
 10
49.06057274121093
 20
45.79029018643174
 30
0.0
  0
SPLINE
  5
82
330
1F
100
AcDbEntity
  8
0
  6
Continuous
 62
     7
370
    25
100
AcDbSpline
210
0.0
220
0.0
230
1.0
 70
     8
 71
     3
 72
    13
 73
     9
 74
     0
 42
0.00000001
 43
0.00000001
 40
0.0
 40
0.0
 40
0.0
 40
0.0
 40
0.011584718760794
 40
0.0308495327983115
 40
0.2139153972151901
 40
0.5154287963571671
 40
0.6971442020013948
 40
1.0
 40
1.0
 40
1.0
 40
1.0
 10
50.4498531244926
 20
45.76592478998914
 30
0.0
 10
50.44889003220946
 20
45.77250425529792
 30
0.0
 10
50.44632536511741
 20
45.79002504583497
 30
0.0
 10
50.4283034693678
 20
45.91213726276037
 30
0.0
 10
50.38601357465506
 20
46.1966759961113
 30
0.0
 10
50.33009839051132
 20
46.57873175404528
 30
0.0
 10
50.26409081119684
 20
47.02367235378775
 30
0.0
 10
50.22339425312093
 20
47.30054498948436
 30
0.0
 10
50.19795900546441
 20
47.4735896986984
 30
0.0
  0
SPLINE
  5
83
330
1F
100
AcDbEntity
  8
0
  6
Continuous
 62
     7
370
    25
100
AcDbSpline
210
0.0
220
0.0
230
1.0
 70
     8
 71
     3
 72
    28
 73
    24
 74
     0
 42
0.00000001
 43
0.00000001
 40
0.0
 40
0.0
 40
0.0
 40
0.0
 40
0.0063310428697268
 40
0.0078634854201057
 40
0.0098674543464257
 40
0.0195417818632188
 40
0.023143093669096
 40
0.0276660826700926
 40
0.0341181712512134
 40
0.0347423203073535
 40
0.0367456704921281
 40
0.0408762866381097
 40
0.0846537509712027
 40
0.3189616767736037
 40
0.5895373452522696
 40
0.6539249887511311
 40
0.8993457901399483
 40
0.9774216694807388
 40
0.9799794981862748
 40
0.9847366559551581
 40
0.9912374410859359
 40
0.995717086945596
 40
1.0
 40
1.0
 40
1.0
 40
1.0
 10
55.37633797695271
 20
44.17687531323264
 30
0.0
 10
55.37437682514054
 20
44.17497587082158
 30
0.0
 10
55.37194097231205
 20
44.1726166642875
 30
0.0
 10
55.36888015664626
 20
44.16966000734426
 30
0.0
 10
55.36479688655095
 20
44.16560046276426
 30
0.0
 10
55.36243145077395
 20
44.1610981776153
 30
0.0
 10
55.35797001661262
 20
44.15391080806671
 30
0.0
 10
55.35485960512781
 20
44.14910555739571
 30
0.0
 10
55.352098094314
 20
44.14430191544661
 30
0.0
 10
55.35000577449502
 20
44.14060318660414
 30
0.0
 10
55.34839122417349
 20
44.13763085350691
 30
0.0
 10
55.3431182766011
 20
44.11665565086674
 30
0.0
 10
55.27802857455195
 20
43.83284014617637
 30
0.0
 10
55.1874142050964
 20
43.44692043199795
 30
0.0
 10
55.07730804388513
 20
42.97203090644148
 30
0.0
 10
54.96686228757477
 20
42.49610106620638
 30
0.0
 10
54.90325672040538
 20
42.23575119320172
 30
0.0
 10
54.82764146403562
 20
41.88995023425453
 30
0.0
 10
54.81764083305199
 20
41.85678804074349
 30
0.0
 10
54.81579217390299
 20
41.85045598123532
 30
0.0
 10
54.81436882002382
 20
41.84534829505726
 30
0.0
 10
54.81269431795597
 20
41.83969543727157
 30
0.0
 10
54.81190596864139
 20
41.83681710066914
 30
0.0
 10
54.81152064380604
 20
41.83541024389016
 30
0.0
  0
SPLINE
  5
84
330
1F
100
AcDbEntity
  8
0
  6
Continuous
 62
     7
370
    25
100
AcDbSpline
210
0.0
220
0.0
230
1.0
 70
     8
 71
     3
 72
    24
 73
    20
 74
     0
 42
0.00000001
 43
0.00000001
 40
0.0
 40
0.0
 40
0.0
 40
0.0
 40
0.0703372506984402
 40
0.0799402966075399
 40
0.1889170375070981
 40
0.2345364142452716
 40
0.3073179906327858
 40
0.3917003097069461
 40
0.4256288836400402
 40
0.4600892055919895
 40
0.5437268221960214
 40
0.5937472519375679
 40
0.6617655017972256
 40
0.7545712929155024
 40
0.7797493195030459
 40
0.8829503432726883
 40
0.8976270480768798
 40
0.9401868383147546
 40
1.0
 40
1.0
 40
1.0
 40
1.0
 10
54.82916743733385
 20
41.7409196346093
 30
0.0
 10
54.83241641835972
 20
41.73418857914409
 30
0.0
 10
54.83610897819539
 20
41.72653854214339
 30
0.0
 10
54.8525465615315
 20
41.70857438582199
 30
0.0
 10
54.8634948352685
 20
41.69313653080335
 30
0.0
 10
54.89027835533356
 20
41.67228035777675
 30
0.0
 10
54.91052027206864
 20
41.65342307983426
 30
0.0
 10
54.93902556365325
 20
41.6367517445724
 30
0.0
 10
54.95831215339335
 20
41.62288589666981
 30
0.0
 10
54.98397503799301
 20
41.60985917926754
 30
0.0
 10
55.00827393687503
 20
41.59498783205764
 30
0.0
 10
55.04637280721136
 20
41.57860286733492
 30
0.0
 10
55.08267748647549
 20
41.56078591811192
 30
0.0
 10
55.12252247402503
 20
41.54673259484409
 30
0.0
 10
55.16627200164135
 20
41.52928617946257
 30
0.0
 10
55.19983293785614
 20
41.51944025060452
 30
0.0
 10
55.23479301738093
 20
41.50743008515474
 30
0.0
 10
55.26353697679347
 20
41.49982848255999
 30
0.0
 10
55.2876538653312
 20
41.49283641155067
 30
0.0
 10
55.3017445731437
 20
41.4887511735465
 30
0.0
  0
SPLINE
  5
85
330
1F
100
AcDbEntity
  8
0
  6
Continuous
 62
     7
370
    25
100
AcDbSpline
210
0.0
220
0.0
230
1.0
 70
     8
 71
     3
 72
    24
 73
    20
 74
     0
 42
0.00000001
 43
0.00000001
 40
0.0
 40
0.0
 40
0.0
 40
0.0
 40
0.2958223335882705
 40
0.3337842730242224
 40
0.6565274655310395
 40
0.9081711913617528
 40
0.9560581850899645
 40
0.9597806482012181
 40
0.9611132710417579
 40
0.9649589054420523
 40
0.9687186917482201
 40
0.9715303587886186
 40
0.9789439194779428
 40
0.9792834385761069
 40
0.9803118790191316
 40
0.98763107950117
 40
0.9911382461950751
 40
0.9964126294877661
 40
1.0
 40
1.0
 40
1.0
 40
1.0
 10
56.88515176731515
 20
41.76396218055942
 30
0.0
 10
56.87172477206369
 20
41.99435148992074
 30
0.0
 10
56.85657473320575
 20
42.25430592677794
 30
0.0
 10
56.82679935816873
 20
42.75895902509945
 30
0.0
 10
56.79689655913299
 20
43.25481567385565
 30
0.0
 10
56.77415693033968
 20
43.67968843297177
 30
0.0
 10
56.75553502024631
 20
43.96667455958342
 30
0.0
 10
56.75476697697633
 20
43.98927763182666
 30
0.0
 10
56.75457616907229
 20
43.99399167149972
 30
0.0
 10
56.75436281737921
 20
43.99707500050981
 30
0.0
 10
56.75428497923973
 20
44.00128973415631
 30
0.0
 10
56.75386483940752
 20
44.00629250613401
 30
0.0
 10
56.75382848314131
 20
44.0098377435874
 30
0.0
 10
56.75350232313016
 20
44.01293867399037
 30
0.0
 10
56.75343151089996
 20
44.0156659306127
 30
0.0
 10
56.75142967035806
 20
44.01988303254696
 30
0.0
 10
56.75005812299921
 20
44.02495705607087
 30
0.0
 10
56.74852472277535
 20
44.02907079717468
 30
0.0
 10
56.74759192829315
 20
44.03190616236561
 30
0.0
 10
56.74721431913213
 20
44.03305396061201
 30
0.0
  0
SPLINE
  5
86
330
1F
100
AcDbEntity
  8
0
  6
Continuous
 62
     7
370
    25
100
AcDbSpline
210
0.0
220
0.0
230
1.0
 70
     8
 71
     3
 72
    41
 73
    37
 74
     0
 42
0.00000001
 43
0.00000001
 40
0.0
 40
0.0
 40
0.0
 40
0.0
 40
0.0244070699566887
 40
0.0548245858776494
 40
0.0851952301212058
 40
0.1155735590043322
 40
0.1459549222883733
 40
0.1763687739547656
 40
0.206727112209288
 40
0.2371406719357659
 40
0.2675011711913184
 40
0.2979249742086916
 40
0.328302167344327
 40
0.3586963016475216
 40
0.3890511718923837
 40
0.4194273235719728
 40
0.4498359159624702
 40
0.4802357273361249
 40
0.5106153513315543
 40
0.5410107737384615
 40
0.5713770034351651
 40
0.6017683451327095
 40
0.6321419559362601
 40
0.6625277137940987
 40
0.6929114644347836
 40
0.7233133819563241
 40
0.7537059407937668
 40
0.7840686547249373
 40
0.8144787834283598
 40
0.8448572420416386
 40
0.8752309270202552
 40
0.9056142149595259
 40
0.9360065325147956
 40
0.9663894287624681
 40
0.9967990565558237
 40
0.9999999999999999
 40
0.9999999999999999
 40
0.9999999999999999
 40
0.9999999999999999
 10
55.36694720977872
 20
44.21822919807059
 30
0.0
 10
55.36466966702642
 20
44.21285331453117
 30
0.0
 10
55.35955371749068
 20
44.2007776909804
 30
0.0
 10
55.35958244416492
 20
44.18124196076577
 30
0.0
 10
55.36565018674708
 20
44.16001010959313
 30
0.0
 10
55.37833822782224
 20
44.13832045074188
 30
0.0
 10
55.39773958273172
 20
44.11690082091751
 30
0.0
 10
55.42334273834111
 20
44.09552754041147
 30
0.0
 10
55.45507333575168
 20
44.07455085002229
 30
0.0
 10
55.49257295462694
 20
44.05416296838855
 30
0.0
 10
55.53553331920344
 20
44.0345509511449
 30
0.0
 10
55.5834889003503
 20
44.0159378932747
 30
0.0
 10
55.63599276803019
 20
43.99841719429802
 30
0.0
 10
55.69245453592755
 20
43.98236493225662
 30
0.0
 10
55.75252353188916
 20
43.96773557862965
 30
0.0
 10
55.81541667285637
 20
43.95479717776352
 30
0.0
 10
55.88064966919721
 20
43.94339158162839
 30
0.0
 10
55.94761860953855
 20
43.93407907471324
 30
0.0
 10
56.01559711745121
 20
43.92661054856529
 30
0.0
 10
56.08392773540003
 20
43.92106193780121
 30
0.0
 10
56.1519938244029
 20
43.91784321687186
 30
0.0
 10
56.2191022972421
 20
43.91640808870827
 30
0.0
 10
56.28471518237666
 20
43.91739177041391
 30
0.0
 10
56.34803659545019
 20
43.92035394039881
 30
0.0
 10
56.40852445686886
 20
43.92532180121685
 30
0.0
 10
56.46576865039746
 20
43.93244689125533
 30
0.0
 10
56.51890755097175
 20
43.9413996334684
 30
0.0
 10
56.56765876753739
 20
43.95239770449207
 30
0.0
 10
56.61138698988435
 20
43.96499492323362
 30
0.0
 10
56.64985929055631
 20
43.97935862862463
 30
0.0
 10
56.68244129590236
 20
43.99519134009955
 30
0.0
 10
56.70922671042949
 20
44.01248082938886
 30
0.0
 10
56.72965201068202
 20
44.0307698426063
 30
0.0
 10
56.74304985921792
 20
44.05025631416158
 30
0.0
 10
56.74956113169472
 20
44.06432005487689
 30
0.0
 10
56.74965087556704
 20
44.07203379305547
 30
0.0
 10
56.74965942243337
 20
44.07276842024994
 30
0.0
  0
SPLINE
  5
87
330
1F
100
AcDbEntity
  8
0
  6
Continuous
 62
     7
370
    25
100
AcDbSpline
210
0.0
220
0.0
230
1.0
 70
     8
 71
     3
 72
    15
 73
    11
 74
     0
 42
0.00000001
 43
0.00000001
 40
0.0
 40
0.0
 40
0.0
 40
0.0
 40
0.1162569522435118
 40
0.2466067724513397
 40
0.376988260387142
 40
0.5071864561965402
 40
0.6375599276351204
 40
0.7679671231243144
 40
0.8983698798973877
 40
1.0
 40
1.0
 40
1.0
 40
1.0
 10
56.64813842563455
 20
45.79955898595072
 30
0.0
 10
56.64852915883217
 20
45.80356817303839
 30
0.0
 10
56.64935799057853
 20
45.81207254777696
 30
0.0
 10
56.64519374887954
 20
45.8253090635985
 30
0.0
 10
56.63691802334206
 20
45.8391218546323
 30
0.0
 10
56.62456432794652
 20
45.85303438597416
 30
0.0
 10
56.60795498798356
 20
45.8668823143252
 30
0.0
 10
56.58748199853804
 20
45.88035681670561
 30
0.0
 10
56.56532061577116
 20
45.89258922404933
 30
0.0
 10
56.54854452958011
 20
45.90002297678043
 30
0.0
 10
56.54119662407031
 20
45.90327895150713
 30
0.0
  0
SPLINE
  5
88
330
1F
100
AcDbEntity
  8
0
  6
Continuous
 62
     7
370
    25
100
AcDbSpline
210
0.0
220
0.0
230
1.0
 70
     8
 71
     3
 72
    17
 73
    13
 74
     0
 42
0.00000001
 43
0.00000001
 40
0.0
 40
0.0
 40
0.0
 40
0.0
 40
0.0505943270159128
 40
0.166458434946441
 40
0.2822185167273115
 40
0.3981570391929526
 40
0.513850114082899
 40
0.6297105231326406
 40
0.7453894006901327
 40
0.8612853142605561
 40
0.9770794441958022
 40
1.0
 40
1.0
 40
1.0
 40
1.0
 10
55.95210321918911
 20
45.97378134704142
 30
0.0
 10
55.94669981355118
 20
45.97314396534245
 30
0.0
 10
55.92892227802656
 20
45.97104694051121
 30
0.0
 10
55.90135372966314
 20
45.96613019407089
 30
0.0
 10
55.86991054309241
 20
45.95910576272448
 30
0.0
 10
55.84159848866781
 20
45.95105024702929
 30
0.0
 10
55.81692354998201
 20
45.94169908297235
 30
0.0
 10
55.79572787292649
 20
45.93147482251199
 30
0.0
 10
55.77851221514911
 20
45.92050110688466
 30
0.0
 10
55.76575642617702
 20
45.90842659964632
 30
0.0
 10
55.75828290943166
 20
45.89951164276393
 30
0.0
 10
55.75654979174313
 20
45.89425912262367
 30
0.0
 10
55.75626341960825
 20
45.89339122114414
 30
0.0
  0
SPLINE
  5
89
330
1F
100
AcDbEntity
  8
0
  6
Continuous
 62
     7
370
    25
100
AcDbSpline
210
0.0
220
0.0
230
1.0
 70
     8
 71
     3
 72
    13
 73
     9
 74
     0
 42
0.00000001
 43
0.00000001
 40
0.0
 40
0.0
 40
0.0
 40
0.0
 40
0.3942568513861328
 40
0.4845779979244291
 40
0.8737042664426914
 40
0.9691501686272685
 40
0.9939537887716162
 40
1.0
 40
1.0
 40
1.0
 40
1.0
 10
55.75626341960825
 20
45.89339122114414
 30
0.0
 10
55.70535058052688
 20
45.67396919250693
 30
0.0
 10
55.64277401009073
 20
45.40427930135169
 30
0.0
 10
55.52857913015473
 20
44.91401746957295
 30
0.0
 10
55.45482549442037
 20
44.59562962214466
 30
0.0
 10
55.38820140377991
 20
44.30917506953914
 30
0.0
 10
55.37174428155837
 20
44.23889642895898
 30
0.0
 10
55.36773331330671
 20
44.22161596897195
 30
0.0
 10
55.36694720977872
 20
44.21822919807059
 30
0.0
  0
SPLINE
  5
8A
330
1F
100
AcDbEntity
  8
0
  6
Continuous
 62
     7
370
    25
100
AcDbSpline
210
0.0
220
0.0
230
1.0
 70
     8
 71
     3
 72
    13
 73
     9
 74
     0
 42
0.00000001
 43
0.00000001
 40
0.0
 40
0.0
 40
0.0
 40
0.0
 40
0.0032448985227434
 40
0.0308630359893292
 40
0.0829121562181835
 40
0.5154329268182221
 40
0.5695900260401889
 40
1.0
 40
1.0
 40
1.0
 40
1.0
 10
56.74965942243337
 20
44.07276842024994
 30
0.0
 10
56.74955023943858
 20
44.07462700342542
 30
0.0
 10
56.74851177285048
 20
44.0923044497406
 30
0.0
 10
56.74571914025915
 20
44.14029467571589
 30
0.0
 10
56.72832137284795
 20
44.43298358054754
 30
0.0
 10
56.71011374397898
 20
44.74611512227112
 30
0.0
 10
56.67906295662377
 20
45.27161635723278
 30
0.0
 10
56.66268548626232
 20
45.55121202053925
 30
0.0
 10
56.64813842563455
 20
45.79955898595072
 30
0.0
  0
SPLINE
  5
8B
330
1F
100
AcDbEntity
  8
0
  6
Continuous
 62
     7
370
    25
100
AcDbSpline
210
0.0
220
0.0
230
1.0
 70
     8
 71
     3
 72
    29
 73
    25
 74
     0
 42
0.00000001
 43
0.00000001
 40
0.0
 40
0.0
 40
0.0
 40
0.0
 40
0.0605966388117948
 40
0.0805334173222827
 40
0.1626876764070785
 40
0.1741375103938597
 40
0.2653173662077154
 40
0.2669835855521568
 40
0.2672166569358878
 40
0.3593349478021011
 40
0.3751006113001352
 40
0.4513099476397335
 40
0.4886042214446126
 40
0.5427323567171872
 40
0.6108962399580176
 40
0.6339466231387961
 40
0.6839820478859828
 40
0.7250597248474553
 40
0.7568563233411161
 40
0.8165068872153757
 40
0.8719112417903729
 40
0.9081835147623024
 40
0.9907674302401989
 40
1.0
 40
1.0
 40
1.0
 40
1.0
 10
49.27970002373684
 20
124.1898894360639
 30
0.0
 10
49.28291710675212
 20
124.2037741805933
 30
0.0
 10
49.28719263579317
 20
124.222227117052
 30
0.0
 10
49.29574084844293
 20
124.260139411441
 30
0.0
 10
49.30289634948697
 20
124.2837858215992
 30
0.0
 10
49.31364290447081
 20
124.3249680808694
 30
0.0
 10
49.32100527192068
 20
124.3443532076759
 30
0.0
 10
49.32662460821475
 20
124.3643177171395
 30
0.0
 10
49.33267849848572
 20
124.3819002568597
 30
0.0
 10
49.33973983743441
 20
124.4052380317783
 30
0.0
 10
49.35202922778713
 20
124.4358049306689
 30
0.0
 10
49.361060930154
 20
124.4611751649107
 30
0.0
 10
49.37244031203432
 20
124.4844974025833
 30
0.0
 10
49.38403107004245
 20
124.5120831446913
 30
0.0
 10
49.39367649402545
 20
124.5274016516317
 30
0.0
 10
49.40397135763575
 20
124.5479572750395
 30
0.0
 10
49.41182436827155
 20
124.5571778914958
 30
0.0
 10
49.41953261574822
 20
124.5720485092648
 30
0.0
 10
49.42618123913212
 20
124.5788458499013
 30
0.0
 10
49.43545032710109
 20
124.593315620587
 30
0.0
 10
49.44284020934705
 20
124.5961778513766
 30
0.0
 10
49.44799323998514
 20
124.6037390435475
 30
0.0
 10
49.45145657216234
 20
124.6004594289302
 30
0.0
 10
49.45075798748336
 20
124.599870095399
 30
0.0
 10
49.45068774158182
 20
124.5998108352026
 30
0.0
  0
LINE
  5
8C
330
1F
100
AcDbEntity
  8
0
  6
Continuous
 62
     7
370
    25
100
AcDbLine
 10
49.1736571955
 20
124.6295246457
 30
0.0
 11
49.1771926585
 21
124.626581498
 31
0.0
  0
LWPOLYLINE
  5
8D
330
1F
100
AcDbEntity
  8
0
  6
Continuous
 62
     7
370
    25
100
AcDbPolyline
 90
        3
 70
   128
 43
0.0
 10
49.2665435617
 20
117.5231639033
 10
49.2918011537
 20
108.1267931458
 10
49.4548614725
 20
47.4897884663
  0
LWPOLYLINE
  5
8E
330
1F
100
AcDbEntity
  8
0
  6
Continuous
 62
     7
370
    25
100
AcDbPolyline
 90
        3
 70
   128
 43
0.0
 10
50.050053712
 20
47.4793811851
 10
49.8911461679
 20
106.5927244049
 10
49.8618055626
 20
117.5116475889
  0
SPLINE
  5
8F
330
1F
100
AcDbEntity
  8
0
  6
Continuous
 62
     7
370
    25
100
AcDbSpline
210
0.0
220
0.0
230
1.0
 70
     8
 71
     3
 72
    79
 73
    75
 74
     0
 42
0.00000001
 43
0.00000001
 40
0.0
 40
0.0
 40
0.0
 40
0.0
 40
0.5514538644474228
 40
0.5627120232367651
 40
0.5649997429807946
 40
0.5775637479637046
 40
0.5785256564291223
 40
0.5859368369018964
 40
0.592035517310543
 40
0.5930794854347948
 40
0.6055800382440266
 40
0.6095198235727749
 40
0.6191980638733825
 40
0.6273440610154222
 40
0.6329570642048308
 40
0.6467888943323324
 40
0.6469094655881433
 40
0.647151821041731
 40
0.6611830112602992
 40
0.6755511641567515
 40
0.6759096870001357
 40
0.6761795371460104
 40
0.6913171914762511
 40
0.6955231146542856
 40
0.7075908314147134
 40
0.7103682428661343
 40
0.7168410039155606
 40
0.7226689278147584
 40
0.7251361477086669
 40
0.7332985675178081
 40
0.7416789127600311
 40
0.7431484567067755
 40
0.7445806338621761
 40
0.7523912975362076
 40
0.7581947029290893
 40
0.761393547064691
 40
0.7657767159369752
 40
0.7701848507193823
 40
0.7731666745218448
 40
0.7789814965005486
 40
0.7874144059966051
 40
0.7879374761249607
 40
0.7883755845325504
 40
0.7972226356917409
 40
0.8064189028654789
 40
0.8070101358741095
 40
0.807640922130373
 40
0.8178347605174269
 40
0.8258538342196364
 40
0.8300186362414342
 40
0.8425043867532024
 40
0.8446847364974357
 40
0.8581528896461282
 40
0.8642369556681799
 40
0.8732261961893143
 40
0.8829904514932563
 40
0.8878593506790953
 40
0.8935994290270832
 40
0.9020641578078967
 40
0.9057797100843059
 40
0.9159881741570554
 40
0.9242618195164708
 40
0.929690679658551
 40
0.9413164194814609
 40
0.9432731171456941
 40
0.9546610699400385
 40
0.9567389296654387
 40
0.9570051779200065
 40
0.9701818767859837
 40
0.9719081715412919
 40
0.9836118463606769
 40
0.9866391498320092
 40
0.9970685330409191
 40
1.0
 40
1.0
 40
1.0
 40
1.0
 10
49.85278617327817
 20
120.8681570369934
 30
0.0
 10
49.85763516988303
 20
121.9847007857527
 30
0.0
 10
49.86258316075971
 20
123.1240392370778
 30
0.0
 10
49.84295659888764
 20
124.2590017578265
 30
0.0
 10
49.84209695732967
 20
124.3113140070949
 30
0.0
 10
49.83988471389094
 20
124.3418225003353
 30
0.0
 10
49.83795977624119
 20
124.3825580943168
 30
0.0
 10
49.83507380512511
 20
124.4092119269757
 30
0.0
 10
49.83323834148715
 20
124.4374263823465
 30
0.0
 10
49.82854856932512
 20
124.4733016789352
 30
0.0
 10
49.82536030040646
 20
124.5055352479491
 30
0.0
 10
49.81729440688937
 20
124.5510519949519
 30
0.0
 10
49.81177772906235
 20
124.5891319088259
 30
0.0
 10
49.8027381552667
 20
124.6279770464456
 30
0.0
 10
49.79354233496537
 20
124.6732684625673
 30
0.0
 10
49.78440885455242
 20
124.703540559382
 30
0.0
 10
49.77874890038324
 20
124.7255677245586
 30
0.0
 10
49.77166138230053
 20
124.746580161067
 30
0.0
 10
49.75743981151832
 20
124.7909967054876
 30
0.0
 10
49.7390002220904
 20
124.8311963293005
 30
0.0
 10
49.73055653254795
 20
124.8525570432222
 30
0.0
 10
49.71990912938125
 20
124.8735996647417
 30
0.0
 10
49.70532228754576
 20
124.9016976330652
 30
0.0
 10
49.67947326576019
 20
124.9420533450288
 30
0.0
 10
49.66134089478859
 20
124.9677062868775
 30
0.0
 10
49.63982551096799
 20
124.993988458873
 30
0.0
 10
49.6209738720633
 20
125.0120301405149
 30
0.0
 10
49.60529078925028
 20
125.0299054334901
 30
0.0
 10
49.58362212040559
 20
125.0488817364013
 30
0.0
 10
49.55793396256744
 20
125.0687945936779
 30
0.0
 10
49.5291941194055
 20
125.0854633046855
 30
0.0
 10
49.51276558730829
 20
125.0965697156718
 30
0.0
 10
49.4951765728779
 20
125.1052021247298
 30
0.0
 10
49.47029944842202
 20
125.1163430713073
 30
0.0
 10
49.44013209187854
 20
125.1248537389163
 30
0.0
 10
49.41704963574373
 20
125.1329440807661
 30
0.0
 10
49.3950028783191
 20
125.1371763668923
 30
0.0
 10
49.37333420852219
 20
125.1407717773304
 30
0.0
 10
49.34879145377134
 20
125.1412457308328
 30
0.0
 10
49.31669959056569
 20
125.1437099012033
 30
0.0
 10
49.28968130814039
 20
125.1418009085777
 30
0.0
 10
49.27242329174286
 20
125.1400305653687
 30
0.0
 10
49.25523878930704
 20
125.1358248861111
 30
0.0
 10
49.22088027740997
 20
125.1302742078508
 30
0.0
 10
49.19097955371466
 20
125.1184838980912
 30
0.0
 10
49.17280373533438
 20
125.113099367216
 30
0.0
 10
49.15471740324626
 20
125.1050551729783
 30
0.0
 10
49.12518098895438
 20
125.0898278691673
 30
0.0
 10
49.09341764648772
 20
125.0709267173801
 30
0.0
 10
49.06010509598014
 20
125.0467982380292
 30
0.0
 10
49.03733208641358
 20
125.028403302922
 30
0.0
 10
49.00471785533112
 20
124.9971076439333
 30
0.0
 10
48.98257761853148
 20
124.9736853334299
 30
0.0
 10
48.95414467727816
 20
124.9386825875867
 30
0.0
 10
48.93174635980114
 20
124.9095998060001
 30
0.0
 10
48.91220627665786
 20
124.8783827244625
 30
0.0
 10
48.89410720114629
 20
124.8520787532645
 30
0.0
 10
48.87897872911154
 20
124.8248119997146
 30
0.0
 10
48.86504776072272
 20
124.8006611755885
 30
0.0
 10
48.84926471722179
 20
124.7675938358914
 30
0.0
 10
48.83236987696259
 20
124.7349508426596
 30
0.0
 10
48.81672006472165
 20
124.6967270442225
 30
0.0
 10
48.79890636895791
 20
124.6567380530043
 30
0.0
 10
48.78736214632505
 20
124.6240320398716
 30
0.0
 10
48.77102728390432
 20
124.5819222695399
 30
0.0
 10
48.76246399815809
 20
124.5536142572525
 30
0.0
 10
48.75415722643774
 20
124.5299626204566
 30
0.0
 10
48.74580897810633
 20
124.5014116938857
 30
0.0
 10
48.73697180162924
 20
124.4740679296054
 30
0.0
 10
48.72391275099311
 20
124.4229739308071
 30
0.0
 10
48.71520075200178
 20
124.3917313890083
 30
0.0
 10
48.70418344939824
 20
124.3417011076141
 30
0.0
 10
48.69624828693497
 20
124.3096180727925
 30
0.0
 10
48.69103892112477
 20
124.2824270681209
 30
0.0
 10
48.6898959486673
 20
124.2764611654442
 30
0.0
  0
SPLINE
  5
90
330
1F
100
AcDbEntity
  8
0
  6
Continuous
 62
     7
370
    25
100
AcDbSpline
210
0.0
220
0.0
230
1.0
 70
     8
 71
     3
 72
    26
 73
    22
 74
     0
 42
0.00000001
 43
0.00000001
 40
0.0
 40
0.0
 40
0.0
 40
0.0
 40
0.0017801763192771
 40
0.0073700203573558
 40
0.0104238561137085
 40
0.1523638496265344
 40
0.3406544833821907
 40
0.511543068488856
 40
0.6825491541869335
 40
0.8158343844536137
 40
0.9664212066069896
 40
0.9686366490242527
 40
0.973628860543075
 40
0.9749877789099045
 40
0.9787853553059668
 40
0.9824037631668255
 40
0.9837577615430182
 40
0.9895738047897236
 40
0.9950060638006699
 40
0.9988054081240368
 40
1.0
 40
1.0
 40
1.0
 40
1.0
 10
53.03694167303653
 20
41.38514913030141
 30
0.0
 10
53.03695065280935
 20
41.38584458164281
 30
0.0
 10
53.03698782952478
 20
41.3887237855105
 30
0.0
 10
53.03685638598264
 20
41.39402609069698
 30
0.0
 10
53.03604914580038
 20
41.45862736965697
 30
0.0
 10
52.97027854945082
 20
41.8003243973343
 30
0.0
 10
52.92244888607738
 20
42.16183658304228
 30
0.0
 10
52.85605246478143
 20
42.58284191524965
 30
0.0
 10
52.79758540480753
 20
42.96209818050529
 30
0.0
 10
52.74970636404895
 20
43.3012689940002
 30
0.0
 10
52.69743267094724
 20
43.58149460744691
 30
0.0
 10
52.69206644961449
 20
43.66228682445276
 30
0.0
 10
52.69199732100954
 20
43.66624861792055
 30
0.0
 10
52.69170698202344
 20
43.67063860194187
 30
0.0
 10
52.69179611417176
 20
43.67433099235535
 30
0.0
 10
52.69053152587265
 20
43.67806363613083
 30
0.0
 10
52.68944804364588
 20
43.68265241353328
 30
0.0
 10
52.68782965960317
 20
43.68813951225552
 30
0.0
 10
52.68638600697206
 20
43.69393666985435
 30
0.0
 10
52.68524161633507
 20
43.6979708859139
 30
0.0
 10
52.68469531164176
 20
43.69987010705855
 30
0.0
 10
52.68456463092772
 20
43.70032441685738
 30
0.0
  0
SPLINE
  5
91
330
1F
100
AcDbEntity
  8
0
  6
Continuous
 62
     7
370
    25
100
AcDbSpline
210
0.0
220
0.0
230
1.0
 70
     8
 71
     3
 72
    24
 73
    20
 74
     0
 42
0.00000001
 43
0.00000001
 40
0.0
 40
0.0
 40
0.0
 40
0.0
 40
0.0002063242601594
 40
0.0050561855636172
 40
0.0079818459166634
 40
0.0163620955746363
 40
0.0272676681232353
 40
0.0277824200879897
 40
0.027908736120325
 40
0.0344888315191621
 40
0.1156782667720713
 40
0.3163612493262526
 40
0.5479975146754319
 40
0.6558477513183981
 40
0.857397040728628
 40
0.983744686338582
 40
0.9882822455994419
 40
0.9925116318566869
 40
1.0
 40
1.0
 40
1.0
 40
1.0
 10
51.29843899960998
 20
43.73108961451125
 30
0.0
 10
51.29837889125351
 20
43.73101065298079
 30
0.0
 10
51.29690587492483
 20
43.72907562047398
 30
0.0
 10
51.29568771111196
 20
43.7259240963706
 30
0.0
 10
51.29209618786705
 20
43.71913440352957
 30
0.0
 10
51.28796440584576
 20
43.71062074300695
 30
0.0
 10
51.28277699471183
 20
43.70179806970319
 30
0.0
 10
51.28153961206257
 20
43.69752827232759
 30
0.0
 10
51.28060179214867
 20
43.69363330164431
 30
0.0
 10
51.27068094012085
 20
43.6541618612215
 30
0.0
 10
51.23701928825641
 20
43.37055917011499
 30
0.0
 10
51.17917126963806
 20
43.00845024064327
 30
0.0
 10
51.11836022032564
 20
42.57477305412073
 30
0.0
 10
51.05611720516645
 20
42.14214443669629
 30
0.0
 10
51.00776038208456
 20
41.83511538629253
 30
0.0
 10
50.96696823992241
 20
41.49808190031664
 30
0.0
 10
50.95296387098101
 20
41.43773412441883
 30
0.0
 10
50.95129278251427
 20
41.43011890595014
 30
0.0
 10
50.9502381415223
 20
41.425689580155
 30
0.0
 10
50.94956416084844
 20
41.42285896764626
 30
0.0
  0
SPLINE
  5
92
330
1F
100
AcDbEntity
  8
0
  6
Continuous
 62
     7
370
    25
100
AcDbSpline
210
0.0
220
0.0
230
1.0
 70
     8
 71
     3
 72
    32
 73
    28
 74
     0
 42
0.00000001
 43
0.00000001
 40
0.0
 40
0.0
 40
0.0
 40
0.0
 40
0.0038365112152775
 40
0.0650976837061148
 40
0.1308921896218791
 40
0.1674876833346448
 40
0.2332950244980906
 40
0.3001268153009241
 40
0.3356725280830834
 40
0.3683799532806921
 40
0.4293509508652672
 40
0.4825519751760477
 40
0.523931875456472
 40
0.5697003748254388
 40
0.6108854137923884
 40
0.6337984813738585
 40
0.6854272102323911
 40
0.7441003008401217
 40
0.7533826001198612
 40
0.7713433064692735
 40
0.8278075177840178
 40
0.8493902383345023
 40
0.8870445219261284
 40
0.9407628491581037
 40
0.9493050500652758
 40
0.9735130346930135
 40
1.0
 40
1.0
 40
1.0
 40
1.0
 10
52.88870375364353
 20
41.18536162830712
 30
0.0
 10
52.88902104530111
 20
41.18558200660225
 30
0.0
 10
52.89440483041444
 20
41.18932137180867
 30
0.0
 10
52.90534198342326
 20
41.19695139705469
 30
0.0
 10
52.91844696850248
 20
41.20638457591424
 30
0.0
 10
52.93322168759475
 20
41.21629933791693
 30
0.0
 10
52.9435646137534
 20
41.2268798557051
 30
0.0
 10
52.95558745038117
 20
41.23722302021786
 30
0.0
 10
52.96454414897473
 20
41.24560074090419
 30
0.0
 10
52.97392518679935
 20
41.25361720131786
 30
0.0
 10
52.98055319808448
 20
41.26331441432794
 30
0.0
 10
52.98924883440114
 20
41.27332917056156
 30
0.0
 10
52.99627596220606
 20
41.28245624925738
 30
0.0
 10
53.00394849411963
 20
41.29102034877045
 30
0.0
 10
53.00721585992726
 20
41.29840895650232
 30
0.0
 10
53.01170554799568
 20
41.30647655308957
 30
0.0
 10
53.01633807121103
 20
41.31563936214276
 30
0.0
 10
53.0209924445027
 20
41.32416737676169
 30
0.0
 10
53.02399683478555
 20
41.33034525514989
 30
0.0
 10
53.02730676968978
 20
41.33633400848414
 30
0.0
 10
53.02803804983613
 20
41.34290463166602
 30
0.0
 10
53.03056917817764
 20
41.3517231821989
 30
0.0
 10
53.03245777893949
 20
41.3602495364696
 30
0.0
 10
53.03451436120857
 20
41.36737136942968
 30
0.0
 10
53.03594722481947
 20
41.37421697813823
 30
0.0
 10
53.03727891455049
 20
41.37899358959846
 30
0.0
 10
53.037057406162
 20
41.38303669771232
 30
0.0
 10
53.03694167303653
 20
41.38514913030141
 30
0.0
  0
SPLINE
  5
93
330
1F
100
AcDbEntity
  8
0
  6
Continuous
 62
     7
370
    25
100
AcDbSpline
210
0.0
220
0.0
230
1.0
 70
     8
 71
     3
 72
    16
 73
    12
 74
     0
 42
0.00000001
 43
0.00000001
 40
0.0
 40
0.0
 40
0.0
 40
0.0
 40
0.0655402967504321
 40
0.1956127320023829
 40
0.3256795734515723
 40
0.4557586536215824
 40
0.5860816088705758
 40
0.7161992682730608
 40
0.8463225920952818
 40
0.9763004198845425
 40
1.0
 40
1.0
 40
1.0
 40
1.0
 10
52.42512352862379
 20
45.40406621070915
 30
0.0
 10
52.42529053607698
 20
45.40687853299928
 30
0.0
 10
52.42578898948355
 20
45.41527223998138
 30
0.0
 10
52.421737358341
 20
45.42900097760566
 30
0.0
 10
52.41368080934279
 20
45.44541739388429
 30
0.0
 10
52.40114088969388
 20
45.46137766879345
 30
0.0
 10
52.38439174280592
 20
45.47676672936292
 30
0.0
 10
52.36403127542044
 20
45.49150897663023
 30
0.0
 10
52.33937435847593
 20
45.50530015370934
 30
0.0
 10
52.31986690195916
 20
45.51477904981316
 30
0.0
 10
52.30757709268542
 20
45.51938910127687
 30
0.0
 10
52.30568180226207
 20
45.52010004692262
 30
0.0
  0
SPLINE
  5
94
330
1F
100
AcDbEntity
  8
0
  6
Continuous
 62
     7
370
    25
100
AcDbSpline
210
0.0
220
0.0
230
1.0
 70
     8
 71
     3
 72
    17
 73
    13
 74
     0
 42
0.00000001
 43
0.00000001
 40
0.0
 40
0.0
 40
0.0
 40
0.0
 40
0.0041773729909233
 40
0.1238254716255436
 40
0.2436696732175867
 40
0.3634941121379324
 40
0.4833477787986519
 40
0.6029958891588026
 40
0.7226412530460556
 40
0.842583560472671
 40
0.9624035369538634
 40
1.0
 40
1.0
 40
1.0
 40
1.0
 10
51.71152222738722
 20
45.54015867478857
 30
0.0
 10
51.71109326523352
 20
45.54005059874075
 30
0.0
 10
51.69837799151775
 20
45.53684701418617
 30
0.0
 10
51.67554627987987
 20
45.52943344725364
 30
0.0
 10
51.64384910403098
 20
45.51758427583313
 30
0.0
 10
51.61559577912523
 20
45.50476283384815
 30
0.0
 10
51.59070969128956
 20
45.49076533518101
 30
0.0
 10
51.5696494232131
 20
45.47611784923772
 30
0.0
 10
51.55234175792973
 20
45.46070522969151
 30
0.0
 10
51.5394289774888
 20
45.44472286810315
 30
0.0
 10
51.53184216116122
 20
45.43204392700803
 30
0.0
 10
51.53000381372669
 20
45.42477017741277
 30
0.0
 10
51.52956475309493
 20
45.42303295569256
 30
0.0
  0
SPLINE
  5
95
330
1F
100
AcDbEntity
  8
0
  6
Continuous
 62
     7
370
    25
100
AcDbSpline
210
0.0
220
0.0
230
1.0
 70
     8
 71
     3
 72
    41
 73
    37
 74
     0
 42
0.00000001
 43
0.00000001
 40
0.0
 40
0.0
 40
0.0
 40
0.0
 40
0.0204074595537341
 40
0.0505474029755483
 40
0.0807178795794211
 40
0.1108518277153146
 40
0.141000566023255
 40
0.1711386879629816
 40
0.20127793447649
 40
0.2314404301223082
 40
0.2615593353906686
 40
0.2917043178497548
 40
0.3218599242685724
 40
0.3520104275271267
 40
0.3821401460097178
 40
0.4122927119438598
 40
0.4424460868284907
 40
0.4726077605125605
 40
0.502750002226293
 40
0.532886599859156
 40
0.5630199072920465
 40
0.5931546587321672
 40
0.6233067414818836
 40
0.6534494933837411
 40
0.6835953970466374
 40
0.713766023777411
 40
0.74389496689652
 40
0.7740491142065535
 40
0.8041718673214072
 40
0.8343327437108918
 40
0.8644727610672276
 40
0.8946337889339849
 40
0.9247585182680056
 40
0.9549267959475504
 40
0.9850432345986979
 40
1.0
 40
1.0
 40
1.0
 40
1.0
 10
51.2909220858412
 20
43.77071175022485
 30
0.0
 10
51.28902095130545
 20
43.76493217735342
 30
0.0
 10
51.2843120156716
 20
43.75061670618028
 30
0.0
 10
51.28459272676746
 20
43.72738904755843
 30
0.0
 10
51.29065312396276
 20
43.70173535567603
 30
0.0
 10
51.30347354204041
 20
43.67636250734324
 30
0.0
 10
51.32293610095667
 20
43.65158628499681
 30
0.0
 10
51.34870068635969
 20
43.62773319331475
 30
0.0
 10
51.38061489813462
 20
43.60503607496575
 30
0.0
 10
51.41822754734753
 20
43.58356637117901
 30
0.0
 10
51.46145001149338
 20
43.56351197947846
 30
0.0
 10
51.50950583483936
 20
43.5453810769732
 30
0.0
 10
51.56220243323358
 20
43.52893903478705
 30
0.0
 10
51.61902138612478
 20
43.5147278491395
 30
0.0
 10
51.67918474939419
 20
43.50240186673118
 30
0.0
 10
51.74237726267527
 20
43.49270359868031
 30
0.0
 10
51.80788230649185
 20
43.48524241805418
 30
0.0
 10
51.87504441476577
 20
43.48015097927578
 30
0.0
 10
51.94323980564254
 20
43.47763137086785
 30
0.0
 10
52.01179521876312
 20
43.47777580389491
 30
0.0
 10
52.08006023730979
 20
43.48035243202438
 30
0.0
 10
52.14741884649051
 20
43.48535609486204
 30
0.0
 10
52.21315918122728
 20
43.4930630198641
 30
0.0
 10
52.27670285065594
 20
43.50293382959832
 30
0.0
 10
52.33741120338561
 20
43.51518694782334
 30
0.0
 10
52.39471887915379
 20
43.52958377588853
 30
0.0
 10
52.4480602806879
 20
43.54616181344453
 30
0.0
 10
52.49692223506202
 20
43.56432233041306
 30
0.0
 10
52.54080713594968
 20
43.58441239727635
 30
0.0
 10
52.57919286563953
 20
43.60595697532226
 30
0.0
 10
52.61209995095272
 20
43.62883671132774
 30
0.0
 10
52.63876141413552
 20
43.65267181276916
 30
0.0
 10
52.65910117230481
 20
43.67751732704596
 30
0.0
 10
52.67280162086711
 20
43.70279798459958
 30
0.0
 10
52.6796248814186
 20
43.72433983352501
 30
0.0
 10
52.67937669499927
 20
43.73718580029884
 30
0.0
 10
52.67929433861641
 20
43.74144851282234
 30
0.0
  0
SPLINE
  5
96
330
1F
100
AcDbEntity
  8
0
  6
Continuous
 62
     7
370
    25
100
AcDbSpline
210
0.0
220
0.0
230
1.0
 70
     8
 71
     3
 72
    13
 73
     9
 74
     0
 42
0.00000001
 43
0.00000001
 40
0.0
 40
0.0
 40
0.0
 40
0.0
 40
0.3308594896758818
 40
0.4845474612085222
 40
0.8123096384337775
 40
0.9691357573587857
 40
0.99006061383606
 40
0.9999999999999999
 40
0.9999999999999999
 40
0.9999999999999999
 40
0.9999999999999999
 10
51.52956475309493
 20
45.42303295569256
 30
0.0
 10
51.50348679878975
 20
45.24159991833024
 30
0.0
 10
51.46529534003949
 20
44.97588918499333
 30
0.0
 10
51.39972527818569
 20
44.525349122836
 30
0.0
 10
51.35006248515433
 20
44.177358161965
 30
0.0
 10
51.3087801903901
 20
43.8962918080063
 30
0.0
 10
51.29420594257021
 20
43.79333163882161
 30
0.0
 10
51.29172200293418
 20
43.7762217456427
 30
0.0
 10
51.2909220858412
 20
43.77071175022485
 30
0.0
  0
SPLINE
  5
97
330
1F
100
AcDbEntity
  8
0
  6
Continuous
 62
     7
370
    25
100
AcDbSpline
210
0.0
220
0.0
230
1.0
 70
     8
 71
     3
 72
    13
 73
     9
 74
     0
 42
0.00000001
 43
0.00000001
 40
0.0
 40
0.0
 40
0.0
 40
0.0
 40
0.0152430754672631
 40
0.0308224636120753
 40
0.269490434577344
 40
0.5154367044299809
 40
0.7562291290706203
 40
1.0
 40
1.0
 40
1.0
 40
1.0
 10
52.67929433861641
 20
43.74144851282234
 30
0.0
 10
52.67799536652826
 20
43.74984345591837
 30
0.0
 10
52.67536876272994
 20
43.76681856233035
 30
0.0
 10
52.65269358916441
 20
43.91672381369438
 30
0.0
 10
52.61013823176643
 20
44.19101506185874
 30
0.0
 10
52.54878476715029
 20
44.5967917409798
 30
0.0
 10
52.48681893577243
 20
44.99847361369093
 30
0.0
 10
52.44577276330854
 20
45.26831580222173
 30
0.0
 10
52.42512352862379
 20
45.40406621070916
 30
0.0
  0
SPLINE
  5
98
330
1F
100
AcDbEntity
  8
0
  6
Continuous
 62
     7
370
    25
100
AcDbSpline
210
0.0
220
0.0
230
1.0
 70
     8
 71
     3
 72
    35
 73
    31
 74
     0
 42
0.00000001
 43
0.00000001
 40
0.0
 40
0.0
 40
0.0
 40
0.0
 40
0.0524292134888382
 40
0.0658824583132431
 40
0.1334159323913013
 40
0.1397693623654855
 40
0.1863157351287774
 40
0.2131725825957059
 40
0.2171783198461215
 40
0.2861851592487838
 40
0.3048288725097755
 40
0.3587904430304305
 40
0.397959346273899
 40
0.4311615301661758
 40
0.4969818921148385
 40
0.5031534041651503
 40
0.5163251985778243
 40
0.5751902201748907
 40
0.6132404839687292
 40
0.6475127263979439
 40
0.6871758267355923
 40
0.7196825982413224
 40
0.7660305629457825
 40
0.7913026856614338
 40
0.8060200245465239
 40
0.8632016990338442
 40
0.8998726739154655
 40
0.9360716407733726
 40
0.9804499517098538
 40
0.9999999999999999
 40
0.9999999999999999
 40
0.9999999999999999
 40
0.9999999999999999
 10
50.92218916572601
 20
132.6839564432441
 30
0.0
 10
50.92791609233122
 20
132.6977752256276
 30
0.0
 10
50.93511253832428
 20
132.7151398834917
 30
0.0
 10
50.94936989825487
 20
132.7506337912877
 30
0.0
 10
50.96060177924556
 20
132.771794468052
 30
0.0
 10
50.97490310476294
 20
132.8024894011888
 30
0.0
 10
50.98598981043538
 20
132.8202272277143
 30
0.0
 10
50.99535219139037
 20
132.8398079451014
 30
0.0
 10
51.00867267265927
 20
132.8616457466704
 30
0.0
 10
51.02070463859621
 20
132.8839246192624
 30
0.0
 10
51.0404775418485
 20
132.911642786995
 30
0.0
 10
51.05613619750277
 20
132.936263923244
 30
0.0
 10
51.07417882249793
 20
132.9573391058584
 30
0.0
 10
51.09431138979847
 20
132.9841618555421
 30
0.0
 10
51.10935764555334
 20
132.9981338371659
 30
0.0
 10
51.12200465962666
 20
133.0123057546704
 30
0.0
 10
51.13329556149987
 20
133.0213878099785
 30
0.0
 10
51.14849990693388
 20
133.0390575407583
 30
0.0
 10
51.16507755283888
 20
133.0503466736338
 30
0.0
 10
51.18058773236781
 20
133.0640522870661
 30
0.0
 10
51.19355590123698
 20
133.0697255339715
 30
0.0
 10
51.20705832000208
 20
133.080815266224
 30
0.0
 10
51.2161043534186
 20
133.0832355688466
 30
0.0
 10
51.22557342636188
 20
133.0889789581189
 30
0.0
 10
51.23351318181154
 20
133.0896801132442
 30
0.0
 10
51.24108310698185
 20
133.0956427508983
 30
0.0
 10
51.24777424113732
 20
133.0931277310461
 30
0.0
 10
51.25192465710988
 20
133.0967732235051
 30
0.0
 10
51.25397991122353
 20
133.0934505500931
 30
0.0
 10
51.25430741387668
 20
133.0942236921049
 30
0.0
 10
51.25440756806118
 20
133.0944601280756
 30
0.0
  0
SPLINE
  5
99
330
1F
100
AcDbEntity
  8
0
  6
Continuous
 62
     7
370
    25
100
AcDbSpline
210
0.0
220
0.0
230
1.0
 70
     8
 71
     3
 72
    23
 73
    19
 74
     0
 42
0.00000001
 43
0.00000001
 40
0.0
 40
0.0
 40
0.0
 40
0.0
 40
0.0005791221344464
 40
0.0006252276338745
 40
0.0006617406960054
 40
0.0012828479295206
 40
0.0017697155537686
 40
0.0019409159109616
 40
0.0022368035414507
 40
0.0026042377594581
 40
0.0027673674096293
 40
0.0032726841891852
 40
0.0036661938640915
 40
0.0039487115167742
 40
0.0045003672414142
 40
0.0046374490416855
 40
0.897627830670402
 40
1.0
 40
1.0
 40
1.0
 40
1.0
 10
51.26327184685119
 20
133.0762956163121
 30
0.0
 10
51.26708632900268
 20
133.0693686126195
 30
0.0
 10
51.2712044925267
 20
133.0618901311888
 30
0.0
 10
51.27550938728398
 20
133.0554734922099
 30
0.0
 10
51.27944468111462
 20
133.0447900592314
 30
0.0
 10
51.2892942650121
 20
133.0312379370257
 30
0.0
 10
51.29639910778515
 20
133.0051440026238
 30
0.0
 10
51.30248863988669
 20
132.9894221992938
 30
0.0
 10
51.30586265087846
 20
132.9706109980406
 30
0.0
 10
51.31170908522746
 20
132.955107264408
 30
0.0
 10
51.3157377867725
 20
132.929644936622
 30
0.0
 10
51.32124406765984
 20
132.9071390561441
 30
0.0
 10
51.323671245503
 20
132.875166195283
 30
0.0
 10
51.32771662827263
 20
132.8452813714507
 30
0.0
 10
51.32784632090888
 20
132.8170842355159
 30
0.0
 10
52.4029434835593
 20
108.5543711981146
 30
0.0
 10
51.51843509357341
 20
77.46420941080216
 30
0.0
 10
51.67479351463787
 20
48.40929268395653
 30
0.0
 10
51.69087484173011
 20
45.4210198660227
 30
0.0
  0
SPLINE
  5
9A
330
1F
100
AcDbEntity
  8
0
  6
Continuous
 62
     7
370
    25
100
AcDbSpline
210
0.0
220
0.0
230
1.0
 70
     8
 71
     3
 72
    71
 73
    67
 74
     0
 42
0.00000001
 43
0.00000001
 40
0.0
 40
0.0
 40
0.0
 40
0.0
 40
0.1117895075904396
 40
0.9697129977384555
 40
0.969896810703608
 40
0.9706712270265226
 40
0.9710485829331631
 40
0.9716353140148338
 40
0.9723364922266815
 40
0.9726017970790908
 40
0.9732344832653875
 40
0.9735760688098437
 40
0.9737789126408127
 40
0.974561027131309
 40
0.9755360184367861
 40
0.9755611058711864
 40
0.9755880163133991
 40
0.9765811430187475
 40
0.9772922042901556
 40
0.9776265535277107
 40
0.9786811003088598
 40
0.9787039580299901
 40
0.9790196466987089
 40
0.9798179697182282
 40
0.9798706649487973
 40
0.9809576149310655
 40
0.9809588363141905
 40
0.9809674406273884
 40
0.9819709511156438
 40
0.9821126308276567
 40
0.9829615215793924
 40
0.9832707278980505
 40
0.9839630961391657
 40
0.9844189302058938
 40
0.9849827218733715
 40
0.9855524999282944
 40
0.9860616977460456
 40
0.9866611223578401
 40
0.9872573605187296
 40
0.987745042419874
 40
0.988618499493031
 40
0.9888067877904221
 40
0.989138465819154
 40
0.9898486827984573
 40
0.9903311277858037
 40
0.9908777760800541
 40
0.991346285940181
 40
0.9918886268884541
 40
0.992672250466803
 40
0.992878724686126
 40
0.992973386904889
 40
0.9938509659648811
 40
0.9943026792943848
 40
0.9948118314695565
 40
0.995530392984734
 40
0.9957616905517142
 40
0.9966639703457767
 40
0.9967067954583478
 40
0.9969707749402124
 40
0.997648264752703
 40
0.9977385327264864
 40
0.99858913335703
 40
0.9987630267438476
 40
0.9995331313389181
 40
0.9997657364995516
 40
0.9999999999999999
 40
0.9999999999999999
 40
0.9999999999999999
 40
0.9999999999999999
 10
52.28632352652158
 20
45.40841424885862
 30
0.0
 10
52.2684172157733
 20
48.76702236818077
 30
0.0
 10
52.11308973783353
 20
77.9011156996298
 30
0.0
 10
52.86017607284958
 20
106.8060998461446
 30
0.0
 10
51.92310284557118
 20
132.8180729539992
 30
0.0
 10
51.92301914909301
 20
132.858557034221
 30
0.0
 10
51.91747227819436
 20
132.9102061225659
 30
0.0
 10
51.9142777760317
 20
132.9600644882339
 30
0.0
 10
51.906034873646
 20
133.0044086745645
 30
0.0
 10
51.89972786485431
 20
133.0506794822619
 30
0.0
 10
51.89110970535275
 20
133.084500406829
 30
0.0
 10
51.88435875730217
 20
133.1179195348014
 30
0.0
 10
51.87276509721919
 20
133.1532384895015
 30
0.0
 10
51.85862392013178
 20
133.2064878457857
 30
0.0
 10
51.83867090856302
 20
133.2511341885696
 30
0.0
 10
51.82894896433611
 20
133.2776138719788
 30
0.0
 10
51.81646957286561
 20
133.3026692799133
 30
0.0
 10
51.79591329821104
 20
133.3458956439157
 30
0.0
 10
51.7670629216588
 20
133.3915665120612
 30
0.0
 10
51.73577505998441
 20
133.4392002035543
 30
0.0
 10
51.71176600147935
 20
133.4677262213278
 30
0.0
 10
51.68711031814909
 20
133.4961909307301
 30
0.0
 10
51.66371476192292
 20
133.5157517663357
 30
0.0
 10
51.64305079181978
 20
133.5398612036946
 30
0.0
 10
51.60248095200511
 20
133.5717718003307
 30
0.0
 10
51.57781628913914
 20
133.5909546676631
 30
0.0
 10
51.55235766145665
 20
133.6058647739918
 30
0.0
 10
51.52744155053908
 20
133.6177464162044
 30
0.0
 10
51.50062825044721
 20
133.6336241488654
 30
0.0
 10
51.45097657302048
 20
133.6554785434124
 30
0.0
 10
51.41697911860784
 20
133.6653401676628
 30
0.0
 10
51.36854103405082
 20
133.6787993846928
 30
0.0
 10
51.32933305675999
 20
133.6841466183829
 30
0.0
 10
51.28335221299653
 20
133.6899481904288
 30
0.0
 10
51.23991202519554
 20
133.689434367922
 30
0.0
 10
51.19573666888889
 20
133.68854474087
 30
0.0
 10
51.15040992375128
 20
133.6816242397404
 30
0.0
 10
51.10560430756458
 20
133.674109442173
 30
0.0
 10
51.06167921151999
 20
133.6608500471099
 30
0.0
 10
51.01198148405471
 20
133.6451122454714
 30
0.0
 10
50.97332103014033
 20
133.6271867422245
 30
0.0
 10
50.93956848515769
 20
133.6118620510796
 30
0.0
 10
50.91121251116927
 20
133.5940244441946
 30
0.0
 10
50.87456430274655
 20
133.5753311955682
 30
0.0
 10
50.83549519845185
 20
133.5469983262335
 30
0.0
 10
50.80211112041429
 20
133.5239155011888
 30
0.0
 10
50.7696994170195
 20
133.494800848015
 30
0.0
 10
50.73073023284151
 20
133.4635766473742
 30
0.0
 10
50.70020489776771
 20
133.4313512326534
 30
0.0
 10
50.67819560122074
 20
133.4101230150462
 30
0.0
 10
50.65613402823546
 20
133.3840937293572
 30
0.0
 10
50.6278469434286
 20
133.3543870303019
 30
0.0
 10
50.59535911774361
 20
133.3102649494245
 30
0.0
 10
50.56414867193691
 20
133.2714114104247
 30
0.0
 10
50.54029714469801
 20
133.2338117402613
 30
0.0
 10
50.508256220692
 20
133.1877838202893
 30
0.0
 10
50.49073990268895
 20
133.1555649943964
 30
0.0
 10
50.47126095692681
 20
133.1236644029495
 30
0.0
 10
50.45751979051689
 20
133.0956709120887
 30
0.0
 10
50.44130432446928
 20
133.0681053945575
 30
0.0
 10
50.41996788918154
 20
133.021300438013
 30
0.0
 10
50.40383765840365
 20
132.9899783429682
 30
0.0
 10
50.38261623650011
 20
132.9363719260124
 30
0.0
 10
50.36728411308917
 20
132.9019158101152
 30
0.0
 10
50.35436723610881
 20
132.8640550715308
 30
0.0
 10
50.34936721892687
 20
132.8498260546842
 30
0.0
 10
50.34685833018582
 20
132.8426862751867
 30
0.0
  0
SPLINE
  5
9B
330
1F
100
AcDbEntity
  8
0
  6
Continuous
 62
     7
370
    25
100
AcDbSpline
210
0.0
220
0.0
230
1.0
 70
     8
 71
     3
 72
    66
 73
    62
 74
     0
 42
0.00000001
 43
0.00000001
 40
0.0
 40
0.0
 40
0.0
 40
0.0
 40
0.0005847017590316
 40
0.0008722460384684
 40
0.001428353318124
 40
0.0018471762065746
 40
0.0022655697743492
 40
0.0028565178327673
 40
0.003098935606413
 40
0.0039225898813837
 40
0.0039273108191194
 40
0.0039406335832223
 40
0.0047534920295633
 40
0.0050960291088919
 40
0.0055780013746724
 40
0.0063835123502083
 40
0.0064030048070383
 40
0.0064325206033242
 40
0.0072327369747517
 40
0.0079692135457068
 40
0.0080616869539857
 40
0.0081449322851657
 40
0.0088843274537443
 40
0.0095166379596407
 40
0.0097043433135298
 40
0.0101103930951656
 40
0.0105259917676692
 40
0.0107051986846893
 40
0.0113511507944667
 40
0.0117935231641931
 40
0.0121820806400537
 40
0.0128402788891655
 40
0.0130158506594018
 40
0.0137134875092449
 40
0.0138515685094228
 40
0.0138867187679847
 40
0.0146901171850097
 40
0.0149806176834648
 40
0.0155297019201902
 40
0.0161689726827243
 40
0.0163679157874894
 40
0.016689987561088
 40
0.0171933366118785
 40
0.0175440591773671
 40
0.0180152990319468
 40
0.0184885919001309
 40
0.0188339063785428
 40
0.0192597039825139
 40
0.0196515308024974
 40
0.0198921258722716
 40
0.0204732827088501
 40
0.0211266087990255
 40
0.0212997218490142
 40
0.0217678395685546
 40
0.0221313322821368
 40
0.0222486367310782
 40
0.0229734429669621
 40
0.0233042524254049
 40
0.0238313869498212
 40
0.5159409401676546
 40
1.0
 40
1.0
 40
1.0
 40
1.0
 10
61.00114617115811
 20
112.8697132129113
 30
0.0
 10
61.00828528360791
 20
112.8816104349322
 30
0.0
 10
61.01893526448504
 20
112.8993584656438
 30
0.0
 10
61.03850987458836
 20
112.9252987701015
 30
0.0
 10
61.05504433615678
 20
112.9499092421529
 30
0.0
 10
61.0751974164024
 20
112.9727575935225
 30
0.0
 10
61.09535138947612
 20
112.9985183951768
 30
0.0
 10
61.11432070431159
 20
113.0164697800238
 30
0.0
 10
61.13896613801737
 20
113.043043104998
 30
0.0
 10
61.15551986963573
 20
113.0557913887772
 30
0.0
 10
61.16851036030216
 20
113.0677097196788
 30
0.0
 10
61.18144277270611
 20
113.0767557692776
 30
0.0
 10
61.19891991723318
 20
113.0937370745057
 30
0.0
 10
61.22322756104095
 20
113.1086118271843
 30
0.0
 10
61.24836230438398
 20
113.1268415098005
 30
0.0
 10
61.26677700185972
 20
113.1344776623427
 30
0.0
 10
61.27976504160009
 20
113.141791087299
 30
0.0
 10
61.29176359772881
 20
113.1459302207281
 30
0.0
 10
61.31381754455815
 20
113.1593228015713
 30
0.0
 10
61.33324545720997
 20
113.1627666718365
 30
0.0
 10
61.34545447508925
 20
113.1671764052247
 30
0.0
 10
61.3560889268575
 20
113.1681735984516
 30
0.0
 10
61.3730957981479
 20
113.1755499544818
 30
0.0
 10
61.38840186419022
 20
113.1735550201823
 30
0.0
 10
61.4003177632443
 20
113.1767204329172
 30
0.0
 10
61.40802520361552
 20
113.1753899232306
 30
0.0
 10
61.41748338482456
 20
113.1767296491711
 30
0.0
 10
61.42619610454859
 20
113.1737219710162
 30
0.0
 10
61.43602855704911
 20
113.1760252637173
 30
0.0
 10
61.44435011631564
 20
113.1709233756141
 30
0.0
 10
61.45422529618762
 20
113.1721523263898
 30
0.0
 10
61.45994993824426
 20
113.1668048294785
 30
0.0
 10
61.46945503402749
 20
113.1665269436597
 30
0.0
 10
61.47429873214933
 20
113.1621535483773
 30
0.0
 10
61.47933558725587
 20
113.1608467107361
 30
0.0
 10
61.48387020819758
 20
113.1565607425989
 30
0.0
 10
61.49192669985372
 20
113.1559552623852
 30
0.0
 10
61.50002924399501
 20
113.1462150513148
 30
0.0
 10
61.51119052905467
 20
113.1421716746976
 30
0.0
 10
61.51794942972518
 20
113.1310140402499
 30
0.0
 10
61.52678132788309
 20
113.1252609607558
 30
0.0
 10
61.53344677982717
 20
113.1153186761995
 30
0.0
 10
61.54180038659329
 20
113.1077693917178
 30
0.0
 10
61.54901100995932
 20
113.0926926709645
 30
0.0
 10
61.55923101649963
 20
113.081512158653
 30
0.0
 10
61.56656299780796
 20
113.0634386826893
 30
0.0
 10
61.57470282919916
 20
113.0497114630886
 30
0.0
 10
61.57971242930771
 20
113.0313301165952
 30
0.0
 10
61.58710125631551
 20
113.0173256679622
 30
0.0
 10
61.59225349740499
 20
112.9963600029993
 30
0.0
 10
61.60022306029958
 20
112.974424915265
 30
0.0
 10
61.60388078765531
 20
112.9470836121853
 30
0.0
 10
61.60865256412966
 20
112.9245375678212
 30
0.0
 10
61.60925563182624
 20
112.903755022471
 30
0.0
 10
61.6126953125494
 20
112.886036156716
 30
0.0
 10
61.61326957531456
 20
112.8606311459615
 30
0.0
 10
61.61570476378416
 20
112.8375763291887
 30
0.0
 10
61.61372312781568
 20
112.8023604720914
 30
0.0
 10
61.25519449123294
 20
102.1119203331875
 30
0.0
 10
58.50849828451483
 20
78.9940286145937
 30
0.0
 10
56.77989979802668
 20
56.85588017677897
 30
0.0
 10
55.92272845794174
 20
45.87809296258727
 30
0.0
  0
SPLINE
  5
9C
330
1F
100
AcDbEntity
  8
0
  6
Continuous
 62
     7
370
    25
100
AcDbSpline
210
0.0
220
0.0
230
1.0
 70
     8
 71
     3
 72
    68
 73
    64
 74
     0
 42
0.00000001
 43
0.00000001
 40
0.0
 40
0.0
 40
0.0
 40
0.0
 40
0.4620268757342824
 40
0.959305391510269
 40
0.9601009227749581
 40
0.9606199259066542
 40
0.9617201188604237
 40
0.961941536235247
 40
0.9626736219974755
 40
0.9632662533820714
 40
0.9634946354083763
 40
0.9645955415855662
 40
0.9654759742140941
 40
0.9659348068398819
 40
0.9667260665327085
 40
0.9672876313738686
 40
0.9677357709866394
 40
0.968659337878844
 40
0.9695935528669406
 40
0.9700536629513561
 40
0.9707409712529342
 40
0.9714750581930429
 40
0.9719179662554728
 40
0.972924349340563
 40
0.973978578598703
 40
0.9743907058232043
 40
0.9757946840949863
 40
0.9758609325011446
 40
0.9758802268630026
 40
0.9773286902799058
 40
0.9777316720660375
 40
0.9787935678110901
 40
0.9795801589845686
 40
0.9802522101623623
 40
0.9814810184794192
 40
0.9817020860099029
 40
0.9822297317581157
 40
0.9831381778702059
 40
0.9835463938114586
 40
0.9845646496121683
 40
0.9858906381207849
 40
0.9859784521825431
 40
0.9860736961056589
 40
0.9873851304552946
 40
0.9887480041534642
 40
0.9887742035735559
 40
0.9887920508008375
 40
0.9901389675218266
 40
0.9909143948490737
 40
0.9914804384825442
 40
0.9928019664865607
 40
0.9928067764414968
 40
0.992808386559931
 40
0.9941204618460127
 40
0.9944969169090034
 40
0.9954250941842265
 40
0.9960791404585416
 40
0.9967251803995469
 40
0.997587414009543
 40
0.9980249720050081
 40
0.9990394460194515
 40
0.9993275031967364
 40
1.0
 40
1.0
 40
1.0
 40
1.0
 10
56.51436402232329
 20
45.81586041302271
 30
0.0
 10
57.37400625339398
 20
56.56964185965477
 30
0.0
 10
59.1588795374977
 20
78.89769475588972
 30
0.0
 10
61.64263716210554
 20
101.0592759701675
 30
0.0
 10
62.20699751529639
 20
112.7605612592801
 30
0.0
 10
62.210762915194
 20
112.8171258190033
 30
0.0
 10
62.20844335441948
 20
112.8598583909405
 30
0.0
 10
62.20840133364354
 20
112.9076242372944
 30
0.0
 10
62.20391409209395
 20
112.9425035082682
 30
0.0
 10
62.20200353398693
 20
112.9784628925557
 30
0.0
 10
62.19422032612631
 20
113.0212669698556
 30
0.0
 10
62.18810702982853
 20
113.0713040871102
 30
0.0
 10
62.17340293839401
 20
113.1235753297958
 30
0.0
 10
62.16321458840176
 20
113.1701577488317
 30
0.0
 10
62.1494807307356
 20
113.207103809223
 30
0.0
 10
62.13753096199076
 20
113.24528676937
 30
0.0
 10
62.11942180191891
 20
113.2831875803585
 30
0.0
 10
62.10090246558889
 20
113.3302162407327
 30
0.0
 10
62.07561340663746
 20
113.3730163430205
 30
0.0
 10
62.05376764664768
 20
113.4127528095666
 30
0.0
 10
62.02902138439427
 20
113.4445126791321
 30
0.0
 10
62.0075263767403
 20
113.4785104485272
 30
0.0
 10
61.9767404793784
 20
113.5131315274504
 30
0.0
 10
61.941635170353
 20
113.5538210888693
 30
0.0
 10
61.90201373266945
 20
113.5881074119877
 30
0.0
 10
61.85590292979295
 20
113.6284699205668
 30
0.0
 10
61.82079348147901
 20
113.6480946472755
 30
0.0
 10
61.79545545156218
 20
113.6671961087568
 30
0.0
 10
61.76697786084905
 20
113.6828030759573
 30
0.0
 10
61.73235279592686
 20
113.7024242663513
 30
0.0
 10
61.67448701678587
 20
113.7246504474125
 30
0.0
 10
61.62978162308053
 20
113.7415844034453
 30
0.0
 10
61.57733530657883
 20
113.7535128662001
 30
0.0
 10
61.52164095031808
 20
113.765926847473
 30
0.0
 10
61.47613752047487
 20
113.7692604711045
 30
0.0
 10
61.43420072956447
 20
113.7729609048514
 30
0.0
 10
61.3987112686705
 20
113.7703749080431
 30
0.0
 10
61.3592468066586
 20
113.7721337522084
 30
0.0
 10
61.30923438256417
 20
113.7655538419102
 30
0.0
 10
61.25065470592409
 20
113.7584472019357
 30
0.0
 10
61.19943216669697
 20
113.7444236282834
 30
0.0
 10
61.16795263954293
 20
113.7367787278055
 30
0.0
 10
61.13744728928884
 20
113.725024204532
 30
0.0
 10
61.07966078779477
 20
113.7077388751305
 30
0.0
 10
61.02586878876249
 20
113.6802835749958
 30
0.0
 10
60.99772338418538
 20
113.6675009885855
 30
0.0
 10
60.97105106148009
 20
113.6514675220172
 30
0.0
 10
60.928434956508
 20
113.6299509749735
 30
0.0
 10
60.87916396548689
 20
113.5939902030974
 30
0.0
 10
60.82870692301484
 20
113.5611594486601
 30
0.0
 10
60.79581384648555
 20
113.5317122551076
 30
0.0
 10
60.77183339507503
 20
113.5130886932138
 30
0.0
 10
60.74965098013509
 20
113.4919316825368
 30
0.0
 10
60.71955793992424
 20
113.4667505917169
 30
0.0
 10
60.67810047373764
 20
113.421012080859
 30
0.0
 10
60.64543961197771
 20
113.3886053753596
 30
0.0
 10
60.61262007874002
 20
113.3465266378041
 30
0.0
 10
60.57893867886136
 20
113.3075953273466
 30
0.0
 10
60.55275330161076
 20
113.2684369215801
 30
0.0
 10
60.5193500725949
 20
113.2239682095624
 30
0.0
 10
60.49817328686846
 20
113.1870847704626
 30
0.0
 10
60.47203037314907
 20
113.1469064054977
 30
0.0
 10
60.4612076532415
 20
113.1260828410822
 30
0.0
 10
60.45363052099505
 20
113.1115039826468
 30
0.0
  0
SPLINE
  5
9D
330
1F
100
AcDbEntity
  8
0
  6
Continuous
 62
     7
370
    25
100
AcDbSpline
210
0.0
220
0.0
230
1.0
 70
     8
 71
     3
 72
    16
 73
    12
 74
     0
 42
0.00000001
 43
0.00000001
 40
0.0
 40
0.0
 40
0.0
 40
0.0
 40
0.0356084009493735
 40
0.1663129472216106
 40
0.297118928674412
 40
0.4279648344572941
 40
0.5588001374439242
 40
0.6897209358265117
 40
0.8206899171686617
 40
0.9515291177889634
 40
1.0
 40
1.0
 40
1.0
 40
1.0
 10
47.55689804043176
 20
44.91041122060725
 30
0.0
 10
47.55686227492471
 20
44.91195686338712
 30
0.0
 10
47.55669522819618
 20
44.91917595773614
 30
0.0
 10
47.55216730377472
 20
44.93174501919415
 30
0.0
 10
47.54310915320715
 20
44.94755152931359
 30
0.0
 10
47.52960292925343
 20
44.96264125913216
 30
0.0
 10
47.51201897011444
 20
44.9765172751149
 30
0.0
 10
47.490793325954
 20
44.98962156496588
 30
0.0
 10
47.46543524509013
 20
45.00106097238935
 30
0.0
 10
47.4434500869703
 20
45.00953474457061
 30
0.0
 10
47.42886947058593
 20
45.01349211539394
 30
0.0
 10
47.42492805620381
 20
45.01456186703319
 30
0.0
  0
SPLINE
  5
9E
330
1F
100
AcDbEntity
  8
0
  6
Continuous
 62
     7
370
    25
100
AcDbSpline
210
0.0
220
0.0
230
1.0
 70
     8
 71
     3
 72
    16
 73
    12
 74
     0
 42
0.00000001
 43
0.00000001
 40
0.0
 40
0.0
 40
0.0
 40
0.0
 40
0.1019682887995694
 40
0.2217440816135293
 40
0.3414366765371901
 40
0.461418798836164
 40
0.5813475041233596
 40
0.7012253134270807
 40
0.8208829072525815
 40
0.9408607110484201
 40
1.0
 40
1.0
 40
1.0
 40
1.0
 10
46.83257030038994
 20
44.96955246835043
 30
0.0
 10
46.82292297638075
 20
44.96552170101908
 30
0.0
 10
46.80194354220929
 20
44.95675624255536
 30
0.0
 10
46.77313780212621
 20
44.94220031805428
 30
0.0
 10
46.74567961213363
 20
44.92601190694219
 30
0.0
 10
46.72195197770883
 20
44.90931500096657
 30
0.0
 10
46.7018299069172
 20
44.89197266464399
 30
0.0
 10
46.68567265446308
 20
44.87451412720772
 30
0.0
 10
46.67376873206186
 20
44.85684892791284
 30
0.0
 10
46.66662813299993
 20
44.84209071633551
 30
0.0
 10
46.6651841000201
 20
44.83340864073961
 30
0.0
 10
46.66470732205134
 20
44.83054207022146
 30
0.0
  0
SPLINE
  5
9F
330
1F
100
AcDbEntity
  8
0
  6
Continuous
 62
     7
370
    25
100
AcDbSpline
210
0.0
220
0.0
230
1.0
 70
     8
 71
     3
 72
    41
 73
    37
 74
     0
 42
0.00000001
 43
0.00000001
 40
0.0
 40
0.0
 40
0.0
 40
0.0
 40
0.0150901076797316
 40
0.0451951210895057
 40
0.075286869158293
 40
0.1053821768537814
 40
0.1354812399458304
 40
0.1655552467686272
 40
0.1956599393172563
 40
0.2257288563327308
 40
0.2558311243156762
 40
0.2859014316346377
 40
0.3160086114741893
 40
0.346088828471187
 40
0.376163246574634
 40
0.406236825436431
 40
0.4363499177732826
 40
0.4664225374772067
 40
0.4965159349661906
 40
0.5266120198839469
 40
0.5567239857036492
 40
0.5868049466049656
 40
0.616888871274984
 40
0.6469754930582273
 40
0.6770815639533915
 40
0.7071417171566635
 40
0.737260928256249
 40
0.7673299039148633
 40
0.7974209128493045
 40
0.8275142189815844
 40
0.8575948299993621
 40
0.8876791805414485
 40
0.9177777455955892
 40
0.9478827679754027
 40
0.9779648468648607
 40
1.0
 40
1.0
 40
1.0
 40
1.0
 10
46.60912758807411
 20
43.1689884216356
 30
0.0
 10
46.60802997182514
 20
43.16445452719617
 30
0.0
 10
46.60474259307775
 20
43.15087543866046
 30
0.0
 10
46.60672760818243
 20
43.12888120998839
 30
0.0
 10
46.61412319027664
 20
43.10303758476363
 30
0.0
 10
46.62863404863895
 20
43.07842618088188
 30
0.0
 10
46.64954721132931
 20
43.05527567567665
 30
0.0
 10
46.67668520330874
 20
43.03338978472947
 30
0.0
 10
46.70986988153017
 20
43.01351501467911
 30
0.0
 10
46.74868234481369
 20
42.99534566048967
 30
0.0
 10
46.79285938049966
 20
42.97943839101553
 30
0.0
 10
46.84185184160707
 20
42.9656839480468
 30
0.0
 10
46.89524831190501
 20
42.95439317729251
 30
0.0
 10
46.95258371565819
 20
42.94548775623778
 30
0.0
 10
47.01327375809909
 20
42.93948469673031
 30
0.0
 10
47.07665635377518
 20
42.93576918403656
 30
0.0
 10
47.14225564057671
 20
42.93492197615949
 30
0.0
 10
47.20932845541328
 20
42.93669327859779
 30
0.0
 10
47.27730313972637
 20
42.94116248295087
 30
0.0
 10
47.34550618417476
 20
42.94827654378463
 30
0.0
 10
47.41324547094636
 20
42.95807351642496
 30
0.0
 10
47.47990513358943
 20
42.97017643481114
 30
0.0
 10
47.54482158940534
 20
42.98461315040078
 30
0.0
 10
47.60735070276316
 20
43.00143058024695
 30
0.0
 10
47.66691366142628
 20
43.02015329172082
 30
0.0
 10
47.72304300936032
 20
43.04081222063208
 30
0.0
 10
47.77492621661074
 20
43.06315688889737
 30
0.0
 10
47.82240813562003
 20
43.08694074576373
 30
0.0
 10
47.86473596235768
 20
43.11183356185313
 30
0.0
 10
47.90159439742463
 20
43.13798953567382
 30
0.0
 10
47.93276540685543
 20
43.16453808634267
 30
0.0
 10
47.95787124690118
 20
43.19189783254023
 30
0.0
 10
47.97653819744273
 20
43.2191866932495
 30
0.0
 10
47.98858778721652
 20
43.24666527357471
 30
0.0
 10
47.99420067690695
 20
43.27138145518931
 30
0.0
 10
47.99283232742192
 20
43.28658804906384
 30
0.0
 10
47.99225378958955
 20
43.29301739328786
 30
0.0
  0
SPLINE
  5
A0
330
1F
100
AcDbEntity
  8
0
  6
Continuous
 62
     7
370
    25
100
AcDbSpline
210
0.0
220
0.0
230
1.0
 70
     8
 71
     3
 72
    13
 73
     9
 74
     0
 42
0.00000001
 43
0.00000001
 40
0.0
 40
0.0
 40
0.0
 40
0.0
 40
0.2457172622890878
 40
0.4845874835460313
 40
0.729941040126342
 40
0.9691749505676329
 40
0.9846561692431295
 40
1.0
 40
1.0
 40
1.0
 40
1.0
 10
46.66470732205134
 20
44.83054207022146
 30
0.0
 10
46.66030109718919
 20
44.69513867667011
 30
0.0
 10
46.65161142924319
 20
44.42810497650032
 30
0.0
 10
46.63743608832851
 20
44.02078908294572
 30
0.0
 10
46.62480885916947
 20
43.62368087630105
 30
0.0
 10
46.61485076153114
 20
43.34365451318942
 30
0.0
 10
46.61000569453881
 20
43.1946604609122
 30
0.0
 10
46.60941941921504
 20
43.17752030337562
 30
0.0
 10
46.60912758807411
 20
43.1689884216356
 30
0.0
  0
SPLINE
  5
A1
330
1F
100
AcDbEntity
  8
0
  6
Continuous
 62
     7
370
    25
100
AcDbSpline
210
0.0
220
0.0
230
1.0
 70
     8
 71
     3
 72
    13
 73
     9
 74
     0
 42
0.00000001
 43
0.00000001
 40
0.0
 40
0.0
 40
0.0
 40
0.0
 40
0.0225465214062113
 40
0.0308127144063746
 40
0.3823254011306249
 40
0.5154050018505606
 40
0.8683276306535122
 40
1.0
 40
1.0
 40
1.0
 40
1.0
 10
47.99225378958955
 20
43.29301739328786
 30
0.0
 10
47.98898066588979
 20
43.30510922428834
 30
0.0
 10
47.98450752238529
 20
43.32163426283222
 30
0.0
 10
47.92896190121179
 20
43.52909894563516
 30
0.0
 10
47.85762031067534
 20
43.79120770408568
 30
0.0
 10
47.73593724361314
 20
44.24635378665951
 30
0.0
 10
47.64639958729807
 20
44.57629446550026
 30
0.0
 10
47.57602104021666
 20
44.83902346408518
 30
0.0
 10
47.55689804043176
 20
44.91041122060725
 30
0.0
  0
SPLINE
  5
A2
330
1F
100
AcDbEntity
  8
0
  6
Continuous
 62
     7
370
    25
100
AcDbSpline
210
0.0
220
0.0
230
1.0
 70
     8
 71
     3
 72
    35
 73
    31
 74
     0
 42
0.00000001
 43
0.00000001
 40
0.0
 40
0.0
 40
0.0
 40
0.0
 40
0.058718970284118
 40
0.0645637916235294
 40
0.1311617113115117
 40
0.1378884560873637
 40
0.1384996519896032
 40
0.2106792778392241
 40
0.2212750837074911
 40
0.2831732633858108
 40
0.3072503545155215
 40
0.3552773297862962
 40
0.3988526645024269
 40
0.427049554060848
 40
0.4957663097580021
 40
0.4985966934233013
 40
0.5049892834143057
 40
0.5701468366330081
 40
0.6090567455854928
 40
0.6419568931102533
 40
0.6829281412417386
 40
0.7134690990499069
 40
0.7513939467949061
 40
0.7843745463171006
 40
0.8061780365662887
 40
0.8553548371117269
 40
0.9026482932641987
 40
0.927093241696395
 40
0.9847047681356961
 40
1.0
 40
1.0
 40
1.0
 40
1.0
 10
40.06633234802121
 20
99.73536762763545
 30
0.0
 10
40.07113876184481
 20
99.75156212931665
 30
0.0
 10
40.07642360078292
 20
99.7693686137787
 30
0.0
 10
40.08703986174
 20
99.80574688723803
 30
0.0
 10
40.09582714282006
 20
99.82563125606852
 30
0.0
 10
40.10226487933971
 20
99.84588689787218
 30
0.0
 10
40.11051087373171
 20
99.86592754537926
 30
0.0
 10
40.11852398860096
 20
99.88849594649467
 30
0.0
 10
40.13496789082428
 20
99.92238261467939
 30
0.0
 10
40.14549587110041
 20
99.94709565963086
 30
0.0
 10
40.16194995047818
 20
99.97545182505651
 30
0.0
 10
40.17580910512337
 20
100.0025712016085
 30
0.0
 10
40.19120624726394
 20
100.0246367999345
 30
0.0
 10
40.20929026741872
 20
100.0542101446797
 30
0.0
 10
40.2226839601464
 20
100.0691693508998
 30
0.0
 10
40.23319142952902
 20
100.0834805910326
 30
0.0
 10
40.24329826366972
 20
100.0937169666961
 30
0.0
 10
40.25716793124824
 20
100.1136905544935
 30
0.0
 10
40.27402454521397
 20
100.127905042395
 30
0.0
 10
40.28871638732788
 20
100.143641615829
 30
0.0
 10
40.30156823384469
 20
100.1510067170292
 30
0.0
 10
40.31380510247198
 20
100.1631876805807
 30
0.0
 10
40.32335232218547
 20
100.1674711719527
 30
0.0
 10
40.33364090808693
 20
100.1754649538085
 30
0.0
 10
40.34300999028084
 20
100.1774157586141
 30
0.0
 10
40.35171061393266
 20
100.1848587270956
 30
0.0
 10
40.35950047197225
 20
100.1834832876041
 30
0.0
 10
40.36498422953988
 20
100.1878478058197
 30
0.0
 10
40.36825517291436
 20
100.1847572084943
 30
0.0
 10
40.36942131928188
 20
100.1859666877188
 30
0.0
 10
40.36966596709636
 20
100.1862204264065
 30
0.0
  0
SPLINE
  5
A3
330
1F
100
AcDbEntity
  8
0
  6
Continuous
 62
     7
370
    25
100
AcDbSpline
210
0.0
220
0.0
230
1.0
 70
     8
 71
     3
 72
    17
 73
    13
 74
     0
 42
0.00000001
 43
0.00000001
 40
0.0
 40
0.0
 40
0.0
 40
0.0
 40
0.0674395096034776
 40
0.1131197670548494
 40
0.27141386093508
 40
0.3321773690456336
 40
0.4686565707524022
 40
0.5552698968284113
 40
0.6646577812600387
 40
0.7783867009467326
 40
0.8678836027716024
 40
1.0
 40
1.0
 40
1.0
 40
1.0
 10
40.37008663013884
 20
100.1851719478777
 30
0.0
 10
40.37024058986181
 20
100.1847663934178
 30
0.0
 10
40.37049883444425
 20
100.1840861360092
 30
0.0
 10
40.36986262021947
 20
100.1860259198356
 30
0.0
 10
40.36866592459168
 20
100.1822253170087
 30
0.0
 10
40.36676127356824
 20
100.1854548687068
 30
0.0
 10
40.36405489580934
 20
100.1823205600988
 30
0.0
 10
40.36201824686837
 20
100.1862938068754
 30
0.0
 10
40.35895243614156
 20
100.1838645289416
 30
0.0
 10
40.35865706366003
 20
100.1879989391382
 30
0.0
 10
40.35699031722251
 20
100.1860015370072
 30
0.0
 10
40.35798931631962
 20
100.1874574021918
 30
0.0
 10
40.35858487697463
 20
100.1883253269232
 30
0.0
  0
SPLINE
  5
A4
330
1F
100
AcDbEntity
  8
0
  6
Continuous
 62
     7
370
    25
100
AcDbSpline
210
0.0
220
0.0
230
1.0
 70
     8
 71
     3
 72
     9
 73
     5
 74
     0
 42
0.00000001
 43
0.00000001
 40
0.0
 40
0.0
 40
0.0
 40
0.0
 40
0.5332978017682818
 40
0.9999999999999999
 40
0.9999999999999999
 40
0.9999999999999999
 40
0.9999999999999999
 10
40.36258432785332
 20
100.1867073684685
 30
0.0
 10
40.36300347621819
 20
100.1867638328158
 30
0.0
 10
40.36378943176401
 20
100.1868697105208
 30
0.0
 10
40.3646626711561
 20
100.1858901810718
 30
0.0
 10
40.36507021389995
 20
100.1854330325248
 30
0.0
  0
SPLINE
  5
A5
330
1F
100
AcDbEntity
  8
0
  6
Continuous
 62
     7
370
    25
100
AcDbSpline
210
0.0
220
0.0
230
1.0
 70
     8
 71
     3
 72
    25
 73
    21
 74
     0
 42
0.00000001
 43
0.00000001
 40
0.0
 40
0.0
 40
0.0
 40
0.0
 40
0.0000501803113073
 40
0.0002178936296465
 40
0.0004788469680024
 40
0.0012442811701745
 40
0.0018295671088469
 40
0.0022692645742352
 40
0.0026239722280165
 40
0.0032944187785813
 40
0.0042802339999658
 40
0.0043256206650385
 40
0.0044196417362571
 40
0.005367239404224
 40
0.0057305919531588
 40
0.0064195336858003
 40
0.0070639908848541
 40
0.0074907839387771
 40
0.7339767616204914
 40
1.0
 40
1.0
 40
1.0
 40
1.0
 10
40.3828571930013
 20
100.1701496093544
 30
0.0
 10
40.38304632271469
 20
100.1699376317626
 30
0.0
 10
40.38386756432626
 20
100.1690171797832
 30
0.0
 10
40.38660591908554
 20
100.1674797282018
 30
0.0
 10
40.39257373399529
 20
100.1584404317181
 30
0.0
 10
40.40092456825575
 20
100.1515358813476
 30
0.0
 10
40.40882773365291
 20
100.134193045389
 30
0.0
 10
40.41725306821699
 20
100.1241104923948
 30
0.0
 10
40.42491354673747
 20
100.1067217248162
 30
0.0
 10
40.43579818361079
 20
100.0881894848768
 30
0.0
 10
40.44340250856018
 20
100.0636693926873
 30
0.0
 10
40.44875637461491
 20
100.0502917945442
 30
0.0
 10
40.45278343432864
 20
100.0340750469162
 30
0.0
 10
40.46061230573574
 20
100.0164411434259
 30
0.0
 10
40.46724691439311
 20
99.98349601628404
 30
0.0
 10
40.47414077575581
 20
99.95865831239517
 30
0.0
 10
40.47825578780557
 20
99.92687061148762
 30
0.0
 10
42.45204032358929
 20
87.56382873012717
 30
0.0
 10
44.08456203463872
 20
67.96195527440116
 30
0.0
 10
46.24645053741247
 20
49.73189711907067
 30
0.0
 10
46.82590367620108
 20
44.84567638897658
 30
0.0
  0
SPLINE
  5
A6
330
1F
100
AcDbEntity
  8
0
  6
Continuous
 62
     7
370
    25
100
AcDbSpline
210
0.0
220
0.0
230
1.0
 70
     8
 71
     3
 72
    69
 73
    65
 74
     0
 42
0.00000001
 43
0.00000001
 40
0.0
 40
0.0
 40
0.0
 40
0.0
 40
0.2471605847952364
 40
0.9531936813576696
 40
0.9537707275877912
 40
0.9546794323284414
 40
0.9556166678692579
 40
0.9561761135150202
 40
0.9576626198128632
 40
0.9576775263293421
 40
0.957712947518774
 40
0.9591900580838058
 40
0.960083003830284
 40
0.9607212966216442
 40
0.9615086114419347
 40
0.9622770641979854
 40
0.9633009696214383
 40
0.9638643690498687
 40
0.964231377415149
 40
0.9654918671830395
 40
0.9664480177101765
 40
0.9671651715508683
 40
0.9683463754022035
 40
0.9688930180539796
 40
0.9700580383154636
 40
0.9706611992259587
 40
0.9716828344438722
 40
0.9724400955209287
 40
0.9732534104131498
 40
0.9742185440615329
 40
0.9748319367643564
 40
0.9759807727830967
 40
0.9764571396658133
 40
0.9777150951181474
 40
0.978175864137476
 40
0.9794144169281452
 40
0.9800672755598576
 40
0.9810755903822372
 40
0.9822653878625331
 40
0.9827036574765263
 40
0.9833853947556309
 40
0.9843071904609315
 40
0.9850054098246395
 40
0.9858926586310041
 40
0.9866076843643921
 40
0.9874517228645752
 40
0.9888051335844976
 40
0.9889793329372264
 40
0.9890526613059443
 40
0.9904810689047451
 40
0.9910682170269713
 40
0.9919658166607197
 40
0.9929480027273456
 40
0.9934347625754285
 40
0.9947019753026582
 40
0.9948955517924948
 40
0.9962840165658077
 40
0.996351903712175
 40
0.9963597494194664
 40
0.9978096408192105
 40
0.9979497768825741
 40
0.9992700891976802
 40
0.9994843043061021
 40
1.0
 40
1.0
 40
1.0
 40
1.0
 10
47.41870813898215
 20
44.89891521732075
 30
0.0
 10
46.85721280359818
 20
49.65975737916737
 30
0.0
 10
44.69176313757151
 20
68.02030896296044
 30
0.0
 10
43.11464356581559
 20
86.29765718488599
 30
0.0
 10
41.06914525280366
 20
99.9960197882095
 30
0.0
 10
41.06336293035191
 20
100.0430673059085
 30
0.0
 10
41.05292936483873
 20
100.0883215158834
 30
0.0
 10
41.0423494680545
 20
100.1449893079472
 30
0.0
 10
41.0304158640938
 20
100.1817946531532
 30
0.0
 10
41.02311773837079
 20
100.2098029028711
 30
0.0
 10
41.01359527570733
 20
100.2361174048624
 30
0.0
 10
41.00023188373754
 20
100.2794522234139
 30
0.0
 10
40.97705204415291
 20
100.3287801139961
 30
0.0
 10
40.96107925525243
 20
100.3680052256368
 30
0.0
 10
40.94210818307822
 20
100.4018877414514
 30
0.0
 10
40.92022356857711
 20
100.4433091123766
 30
0.0
 10
40.89568331080356
 20
100.4766542053529
 30
0.0
 10
40.87754108875611
 20
100.5060988140813
 30
0.0
 10
40.85346497132115
 20
100.535471518415
 30
0.0
 10
40.8245394707868
 20
100.5712839174934
 30
0.0
 10
40.78812857374988
 20
100.6061886942767
 30
0.0
 10
40.75127107994862
 20
100.6404981139161
 30
0.0
 10
40.71681503563168
 20
100.665257763682
 30
0.0
 10
40.67503198364575
 20
100.6945543358399
 30
0.0
 10
40.63892816985881
 20
100.7130280071278
 30
0.0
 10
40.59487142700257
 20
100.7352794516876
 30
0.0
 10
40.55541500588505
 20
100.7486428945728
 30
0.0
 10
40.51177412671119
 20
100.7631399430299
 30
0.0
 10
40.46783506272635
 20
100.7711740936678
 30
0.0
 10
40.42627254976141
 20
100.7784785737776
 30
0.0
 10
40.37811430742128
 20
100.7802494686189
 30
0.0
 10
40.33895071227546
 20
100.7812508883414
 30
0.0
 10
40.28827390369834
 20
100.7756698573251
 30
0.0
 10
40.25030899271049
 20
100.7710598766726
 30
0.0
 10
40.19971902146501
 20
100.757978481154
 30
0.0
 10
40.16034163629918
 20
100.7471540794204
 30
0.0
 10
40.11300511946266
 20
100.7275027161408
 30
0.0
 10
40.06786237914717
 20
100.7080312306276
 30
0.0
 10
40.02740712246196
 20
100.684211387874
 30
0.0
 10
39.99284444221844
 20
100.6640979849446
 30
0.0
 10
39.96436447814821
 20
100.641687057469
 30
0.0
 10
39.93058559552404
 20
100.6194295697046
 30
0.0
 10
39.89667601578141
 20
100.5890870000419
 30
0.0
 10
39.86566386341202
 20
100.5627731743544
 30
0.0
 10
39.83553176954678
 20
100.5297114230147
 30
0.0
 10
39.79785770617237
 20
100.4926826059539
 30
0.0
 10
39.77061594651347
 20
100.4570818104031
 30
0.0
 10
39.75158530319077
 20
100.4346401923983
 30
0.0
 10
39.73358487157945
 20
100.4086303675154
 30
0.0
 10
39.7093985537696
 20
100.377826131054
 30
0.0
 10
39.68045755657875
 20
100.3293194730865
 30
0.0
 10
39.65427242391466
 20
100.2894270758211
 30
0.0
 10
39.63312445986644
 20
100.2475242367414
 30
0.0
 10
39.60669217723288
 20
100.2006098239752
 30
0.0
 10
39.59115149202562
 20
100.164223467911
 30
0.0
 10
39.56636008625305
 20
100.1126211132846
 30
0.0
 10
39.55519281718298
 20
100.0802557075425
 30
0.0
 10
39.54339410543996
 20
100.053033810508
 30
0.0
 10
39.53319068954998
 20
100.0232345204152
 30
0.0
 10
39.52114524967642
 20
99.99272224160252
 30
0.0
 10
39.50445812299437
 20
99.93440169211581
 30
0.0
 10
39.49335342421833
 20
99.9014436487882
 30
0.0
 10
39.4835534309623
 20
99.85958419338404
 30
0.0
 10
39.47997984257712
 20
99.84471194352432
 30
0.0
 10
39.47745503524978
 20
99.83420441960926
 30
0.0
  0
SPLINE
  5
A7
330
1F
100
AcDbEntity
  8
0
  6
Continuous
 62
     7
370
    25
100
AcDbSpline
210
0.0
220
0.0
230
1.0
 70
     8
 71
     3
 72
    29
 73
    25
 74
     0
 42
0.00000001
 43
0.00000001
 40
0.0
 40
0.0
 40
0.0
 40
0.0
 40
0.0006353573641178
 40
0.0101096917768329
 40
0.0155674304719576
 40
0.0195967549222348
 40
0.0254204957542843
 40
0.253210362600834
 40
0.3509870860101255
 40
0.5962992016729374
 40
0.6880706141745604
 40
0.7593461427889459
 40
0.967949061455262
 40
0.9688667337561122
 40
0.9726124412375725
 40
0.9740780022975056
 40
0.9744820692762307
 40
0.9810323495818164
 40
0.9848539641069296
 40
0.9891816589033254
 40
0.9957614304241982
 40
0.9970159883578563
 40
0.9995584526288093
 40
1.0
 40
1.0
 40
1.0
 40
1.0
 10
48.60709026926199
 20
40.98390793063036
 30
0.0
 10
48.60707996717088
 20
40.984159618509
 30
0.0
 10
48.6069160421554
 20
40.98816443063643
 30
0.0
 10
48.60625524660171
 20
40.99518005196281
 30
0.0
 10
48.60604588805187
 20
41.00193183918273
 30
0.0
 10
48.60528328545552
 20
41.00955166672409
 30
0.0
 10
48.5964695080712
 20
41.10814392873591
 30
0.0
 10
48.48253230611158
 20
41.45746766383102
 30
0.0
 10
48.3732643356791
 20
41.88472286189914
 30
0.0
 10
48.27969879198988
 20
42.22410063500849
 30
0.0
 10
48.19335470497949
 20
42.54440546483137
 30
0.0
 10
48.12076846209958
 20
42.82478126478386
 30
0.0
 10
48.02861780619477
 20
43.10952727206745
 30
0.0
 10
48.01420446725248
 20
43.21525719228337
 30
0.0
 10
48.01409544596273
 20
43.21830658516033
 30
0.0
 10
48.01306453953957
 20
43.22117859965434
 30
0.0
 10
48.01189147718341
 20
43.22513568616728
 30
0.0
 10
48.01028639057616
 20
43.22971586759632
 30
0.0
 10
48.00841409877594
 20
43.23565921984559
 30
0.0
 10
48.00625958849832
 20
43.24160981607442
 30
0.0
 10
48.00453813067775
 20
43.24677389745244
 30
0.0
 10
48.00300927717456
 20
43.25080043911731
 30
0.0
 10
48.0026736475421
 20
43.25245107722121
 30
0.0
 10
48.00199261180954
 20
43.25355982610823
 30
0.0
 10
48.00189183822905
 20
43.25372388885833
 30
0.0
  0
SPLINE
  5
A8
330
1F
100
AcDbEntity
  8
0
  6
Continuous
 62
     7
370
    25
100
AcDbSpline
210
0.0
220
0.0
230
1.0
 70
     8
 71
     3
 72
    20
 73
    16
 74
     0
 42
0.00000001
 43
0.00000001
 40
0.0
 40
0.0
 40
0.0
 40
0.0
 40
0.0028595108594516
 40
0.0114654856846668
 40
0.0164506931926524
 40
0.0221673852243411
 40
0.0260493672810327
 40
0.0273954251809445
 40
0.0338410610295797
 40
0.1687506021911295
 40
0.3446347948429551
 40
0.5338246826871587
 40
0.7189295750392701
 40
0.884914821162901
 40
0.9999999999999999
 40
0.9999999999999999
 40
0.9999999999999999
 40
0.9999999999999999
 10
46.61993065352092
 20
43.12829339271226
 30
0.0
 10
46.61947815461478
 20
43.12725848385354
 30
0.0
 10
46.61766381643399
 20
43.12310891657165
 30
0.0
 10
46.61506411203153
 20
43.11643849772793
 30
0.0
 10
46.61220224933356
 20
43.10935028018882
 30
0.0
 10
46.60948283628409
 20
43.10288747375687
 30
0.0
 10
46.60883344896709
 20
43.09844434981642
 30
0.0
 10
46.60794011682075
 20
43.09307267939127
 30
0.0
 10
46.59707124909191
 20
43.030028509139
 30
0.0
 10
46.59951317989523
 20
42.74306648755056
 30
0.0
 10
46.58222944592755
 20
42.41177783920784
 30
0.0
 10
46.57117240087541
 20
42.011340724172
 30
0.0
 10
46.55739670998383
 20
41.62377458073742
 30
0.0
 10
46.54632264632215
 20
41.28922936262964
 30
0.0
 10
46.53930095841354
 20
41.08650116511887
 30
0.0
 10
46.53642590598206
 20
41.00349346030927
 30
0.0
  0
SPLINE
  5
A9
330
1F
100
AcDbEntity
  8
0
  6
Continuous
 62
     7
370
    25
100
AcDbSpline
210
0.0
220
0.0
230
1.0
 70
     8
 71
     3
 72
    29
 73
    25
 74
     0
 42
0.00000001
 43
0.00000001
 40
0.0
 40
0.0
 40
0.0
 40
0.0
 40
0.0084939091100621
 40
0.0759151806857076
 40
0.1296383607174373
 40
0.2063299232672592
 40
0.286583343540192
 40
0.3192357597110586
 40
0.3444725211840443
 40
0.4256023109966915
 40
0.4906166754225415
 40
0.524949212594362
 40
0.5598294411333781
 40
0.6152363997824359
 40
0.6478798616669456
 40
0.6993063620023786
 40
0.7754477339133345
 40
0.7825941458770045
 40
0.7868919307049425
 40
0.8614461879849578
 40
0.9039304794729406
 40
0.9316429985801664
 40
0.9914489451194234
 40
1.0
 40
1.0
 40
1.0
 40
1.0
 10
48.4834651081371
 20
40.78087371378667
 30
0.0
 10
48.48409758110187
 20
40.78141535636245
 30
0.0
 10
48.48975037285856
 20
40.78625634223537
 30
0.0
 10
48.49903102444348
 20
40.79462233150069
 30
0.0
 10
48.51446628834373
 20
40.80711674346947
 30
0.0
 10
48.52551943338555
 20
40.82068899834422
 30
0.0
 10
48.53745880423451
 20
40.83326581514041
 30
0.0
 10
48.54543167611926
 20
40.84224361201125
 30
0.0
 10
48.55416784239669
 20
40.85153535628454
 30
0.0
 10
48.56026315266116
 20
40.86275292394952
 30
0.0
 10
48.56903382630266
 20
40.87510166101497
 30
0.0
 10
48.57472539072289
 20
40.88399412362826
 30
0.0
 10
48.58098317260433
 20
40.89271729887793
 30
0.0
 10
48.58365801069881
 20
40.9008764384949
 30
0.0
 10
48.58819453010378
 20
40.91063476021593
 30
0.0
 10
48.59233205130612
 20
40.92156222057269
 30
0.0
 10
48.59788512272637
 20
40.93117674216399
 30
0.0
 10
48.59903824230722
 20
40.93715747794828
 30
0.0
 10
48.6002677021521
 20
40.94310700182705
 30
0.0
 10
48.60172484927264
 20
40.95156454223374
 30
0.0
 10
48.60380110666487
 20
40.96190374056585
 30
0.0
 10
48.60517102136772
 20
40.97136766463122
 30
0.0
 10
48.60741056858568
 20
40.97841976421558
 30
0.0
 10
48.60712588187823
 20
40.98329772651828
 30
0.0
 10
48.60709026926199
 20
40.98390793063036
 30
0.0
  0
SPLINE
  5
AA
330
1F
100
AcDbEntity
  8
0
  6
Continuous
 62
     7
370
    25
100
AcDbSpline
210
0.0
220
0.0
230
1.0
 70
     8
 71
     3
 72
    19
 73
    15
 74
     0
 42
0.00000001
 43
0.00000001
 40
0.0
 40
0.0
 40
0.0
 40
0.0
 40
0.298093201625223
 40
0.3766647416750163
 40
0.6662239676776176
 40
0.8830985440532964
 40
0.9718645978876207
 40
0.9763914893097023
 40
0.9803050354094998
 40
0.9836504363079394
 40
0.9905032929980635
 40
0.9907876213065773
 40
0.9914414000799873
 40
1.0
 40
1.0
 40
1.0
 40
1.0
 10
54.44859862906765
 20
39.69019244653668
 30
0.0
 10
54.43324403319122
 20
39.90388597302131
 30
0.0
 10
54.41384226603319
 20
40.17390493525231
 30
0.0
 10
54.37968001410296
 20
40.64111328006913
 30
0.0
 10
54.34709788285141
 20
41.06902331758047
 30
0.0
 10
54.32307889544519
 20
41.46041094598115
 30
0.0
 10
54.29884571736412
 20
41.72400395849499
 30
0.0
 10
54.2982769244269
 20
41.76959864633289
 30
0.0
 10
54.29805056969364
 20
41.7758523930224
 30
0.0
 10
54.29792141209732
 20
41.78170802888089
 30
0.0
 10
54.29779108411419
 20
41.78712101516427
 30
0.0
 10
54.29763738443554
 20
41.79053430957448
 30
0.0
 10
54.29761768388393
 20
41.79443575825616
 30
0.0
 10
54.29646888228614
 20
41.7982869929228
 30
0.0
 10
54.29540160817702
 20
41.80186491539067
 30
0.0
  0
SPLINE
  5
AB
330
1F
100
AcDbEntity
  8
0
  6
Continuous
 62
     7
370
    25
100
AcDbSpline
210
0.0
220
0.0
230
1.0
 70
     8
 71
     3
 72
    23
 73
    19
 74
     0
 42
0.00000001
 43
0.00000001
 40
0.0
 40
0.0
 40
0.0
 40
0.0
 40
0.0040653523268602
 40
0.006260582014109
 40
0.0084404080580375
 40
0.019614793697418
 40
0.0233982733532146
 40
0.0270037041333306
 40
0.2350144032499019
 40
0.3091958531906703
 40
0.3906859551044075
 40
0.6490935649047057
 40
0.7235663307931322
 40
0.9773912366939735
 40
0.9844687090251494
 40
0.9890583526814156
 40
0.9928911608980346
 40
1.0
 40
1.0
 40
1.0
 40
1.0
 10
52.91386266843183
 20
41.95788471624492
 30
0.0
 10
52.91269269382543
 20
41.95615908922684
 30
0.0
 10
52.91089095036291
 20
41.95350164932891
 30
0.0
 10
52.90847982493379
 20
41.94996385734578
 30
0.0
 10
52.90395857015751
 20
41.94317348617619
 30
0.0
 10
52.90165068904868
 20
41.93632989588964
 30
0.0
 10
52.89747929280618
 20
41.92618030734088
 30
0.0
 10
52.85307474295634
 20
41.81975595014407
 30
0.0
 10
52.80826076679359
 20
41.54706175677163
 30
0.0
 10
52.74296588874743
 20
41.28676736470538
 30
0.0
 10
52.67109995520851
 20
40.9802632779888
 30
0.0
 10
52.59691004658847
 20
40.66635902267657
 30
0.0
 10
52.49242932788911
 20
40.24672118446603
 30
0.0
 10
52.44295669859208
 20
39.91476636043304
 30
0.0
 10
52.38480061602765
 20
39.79445518474454
 30
0.0
 10
52.38337370254686
 20
39.7868174030875
 30
0.0
 10
52.38185375175233
 20
39.78015010452382
 30
0.0
 10
52.38080309330427
 20
39.77534641260036
 30
0.0
 10
52.38012047562879
 20
39.7722254316379
 30
0.0
  0
SPLINE
  5
AC
330
1F
100
AcDbEntity
  8
0
  6
Continuous
 62
     7
370
    25
100
AcDbSpline
210
0.0
220
0.0
230
1.0
 70
     8
 71
     3
 72
    15
 73
    11
 74
     0
 42
0.00000001
 43
0.00000001
 40
0.0
 40
0.0
 40
0.0
 40
0.0
 40
0.105317317141832
 40
0.2386203224001674
 40
0.3718359303858519
 40
0.5051326254741957
 40
0.6385034360769073
 40
0.7716064850235176
 40
0.9048595341615282
 40
1.0
 40
1.0
 40
1.0
 40
1.0
 10
54.17466211894388
 20
43.45690526844152
 30
0.0
 10
54.17494837764841
 20
43.46219125416952
 30
0.0
 10
54.17559696181498
 20
43.47416785643063
 30
0.0
 10
54.17152111682275
 20
43.49303785209703
 30
0.0
 10
54.1633723967346
 20
43.51336508141227
 30
0.0
 10
54.15086211632607
 20
43.5333676151545
 30
0.0
 10
54.13429689176559
 20
43.55322685923525
 30
0.0
 10
54.11370739643316
 20
43.57217794931724
 30
0.0
 10
54.092081278283
 20
43.58896454979106
 30
0.0
 10
54.07591761261241
 20
43.59880147014555
 30
0.0
 10
54.06918441494822
 20
43.6028991748682
 30
0.0
  0
SPLINE
  5
AD
330
1F
100
AcDbEntity
  8
0
  6
Continuous
 62
     7
370
    25
100
AcDbSpline
210
0.0
220
0.0
230
1.0
 70
     8
 71
     3
 72
    16
 73
    12
 74
     0
 42
0.00000001
 43
0.00000001
 40
0.0
 40
0.0
 40
0.0
 40
0.0
 40
0.061325352327111
 40
0.1824776585257653
 40
0.3033394642654547
 40
0.4245391043597515
 40
0.5455291555354087
 40
0.6663774434787049
 40
0.7875706562668038
 40
0.90854282843032
 40
1.0
 40
1.0
 40
1.0
 40
1.0
 10
53.48042092388044
 20
43.67976576173078
 30
0.0
 10
53.47414269248581
 20
43.67834026431152
 30
0.0
 10
53.45546139802764
 20
43.67409860207182
 30
0.0
 10
53.42710176369412
 20
43.66515089565067
 30
0.0
 10
53.39555923703055
 20
43.65311451698187
 30
0.0
 10
53.36739815359974
 20
43.63951100103877
 30
0.0
 10
53.34254703254754
 20
43.6242902827896
 30
0.0
 10
53.32150204493483
 20
43.60809598821838
 30
0.0
 10
53.30436503691163
 20
43.59062705281798
 30
0.0
 10
53.29193627242154
 20
43.57381648848825
 30
0.0
 10
53.28720524593052
 20
43.5625334597226
 30
0.0
 10
53.28516839784784
 20
43.55767577914274
 30
0.0
  0
SPLINE
  5
AE
330
1F
100
AcDbEntity
  8
0
  6
Continuous
 62
     7
370
    25
100
AcDbSpline
210
0.0
220
0.0
230
1.0
 70
     8
 71
     3
 72
    42
 73
    38
 74
     0
 42
0.00000001
 43
0.00000001
 40
0.0
 40
0.0
 40
0.0
 40
0.0
 40
0.0072299318902196
 40
0.0371091817322873
 40
0.0670356261526057
 40
0.0968892133169446
 40
0.1267868896694021
 40
0.1566645519432046
 40
0.1865559363598941
 40
0.2164595488674214
 40
0.2463564963672292
 40
0.2762607209112172
 40
0.306164601053981
 40
0.3360286871905944
 40
0.36592853522826
 40
0.3958293892429401
 40
0.4256959774311398
 40
0.45559961759913
 40
0.4854814825954471
 40
0.5153777769945855
 40
0.5452688316090357
 40
0.5751552267055717
 40
0.605025084849762
 40
0.6349573449758299
 40
0.6648452977424106
 40
0.694702977119426
 40
0.7245978523861553
 40
0.7545121308327039
 40
0.7843831269609901
 40
0.8142770372719914
 40
0.8441780750462123
 40
0.8740755362177215
 40
0.9039791351982033
 40
0.9338279099785745
 40
0.9637316213806596
 40
0.9936418975496952
 40
1.0
 40
1.0
 40
1.0
 40
1.0
 10
52.91320820468177
 20
41.99858632297089
 30
0.0
 10
52.91205129066643
 20
41.99620502314659
 30
0.0
 10
52.90611318044691
 20
41.98398248920284
 30
0.0
 10
52.9018768781526
 20
41.96097712370327
 30
0.0
 10
52.90093066244551
 20
41.92981116631735
 30
0.0
 10
52.90733584930668
 20
41.89834329218993
 30
0.0
 10
52.91997690904178
 20
41.86694046841305
 30
0.0
 10
52.93950211977526
 20
41.83564376807827
 30
0.0
 10
52.96507751435286
 20
41.80523935795825
 30
0.0
 10
52.99700745513013
 20
41.77546156456417
 30
0.0
 10
53.03444503397086
 20
41.74699536943429
 30
0.0
 10
53.07746945808242
 20
41.72000199728787
 30
0.0
 10
53.12557253201376
 20
41.69466933516874
 30
0.0
 10
53.17802783857325
 20
41.67126254333598
 30
0.0
 10
53.23465792068521
 20
41.65024123336322
 30
0.0
 10
53.29468832335453
 20
41.63138246137191
 30
0.0
 10
53.35770307967265
 20
41.61517864631568
 30
0.0
 10
53.42299269346813
 20
41.60182204456714
 30
0.0
 10
53.48998095219714
 20
41.59112864504196
 30
0.0
 10
53.55799885843563
 20
41.58356186259386
 30
0.0
 10
53.62638003038087
 20
41.57881805846264
 30
0.0
 10
53.69449153789189
 20
41.57724457633498
 30
0.0
 10
53.76166795891788
 20
41.57890391779281
 30
0.0
 10
53.82728397817525
 20
41.58340631712684
 30
0.0
 10
53.89068305481882
 20
41.59114147050056
 30
0.0
 10
53.95122178464101
 20
41.60176753804616
 30
0.0
 10
54.00832965570362
 20
41.61527375422416
 30
0.0
 10
54.06157137903795
 20
41.63143259566911
 30
0.0
 10
54.11026732958154
 20
41.65025873556623
 30
0.0
 10
54.15407376951578
 20
41.67124704975651
 30
0.0
 10
54.19242860753352
 20
41.69477174190605
 30
0.0
 10
54.22531294989506
 20
41.71995798420799
 30
0.0
 10
54.25175564596604
 20
41.746976233855
 30
0.0
 10
54.27230884994839
 20
41.77554641503308
 30
0.0
 10
54.28556035732969
 20
41.80521220916332
 30
0.0
 10
54.29230262921406
 20
41.8276770560981
 30
0.0
 10
54.29225759893674
 20
41.84026017899899
 30
0.0
 10
54.29224970481168
 20
41.84246608914977
 30
0.0
  0
SPLINE
  5
AF
330
1F
100
AcDbEntity
  8
0
  6
Continuous
 62
     7
370
    25
100
AcDbSpline
210
0.0
220
0.0
230
1.0
 70
     8
 71
     3
 72
    13
 73
     9
 74
     0
 42
0.00000001
 43
0.00000001
 40
0.0
 40
0.0
 40
0.0
 40
0.0
 40
0.117104395309178
 40
0.4846023908111904
 40
0.5994445689562371
 40
0.9691530127455923
 40
0.9765774863941465
 40
0.9999999999999999
 40
0.9999999999999999
 40
0.9999999999999999
 40
0.9999999999999999
 10
53.28516839784784
 20
43.55767577914274
 30
0.0
 10
53.27083262072255
 20
43.49720120126567
 30
0.0
 10
53.21150818758996
 20
43.2469447959006
 30
0.0
 10
53.13552204622437
 20
42.93194222308264
 30
0.0
 10
53.03160115557883
 20
42.49286703795916
 30
0.0
 10
52.96924778871634
 20
42.23357925844946
 30
0.0
 10
52.9199456397311
 20
42.02688404134042
 30
0.0
 10
52.91611605645137
 20
42.01079951238702
 30
0.0
 10
52.91320820468177
 20
41.99858632297089
 30
0.0
  0
SPLINE
  5
B0
330
1F
100
AcDbEntity
  8
0
  6
Continuous
 62
     7
370
    25
100
AcDbSpline
210
0.0
220
0.0
230
1.0
 70
     8
 71
     3
 72
    13
 73
     9
 74
     0
 42
0.00000001
 43
0.00000001
 40
0.0
 40
0.0
 40
0.0
 40
0.0
 40
0.0065669309986244
 40
0.030817154360954
 40
0.1324174006628574
 40
0.5154051292853047
 40
0.6178611566186422
 40
0.9999999999999999
 40
0.9999999999999999
 40
0.9999999999999999
 40
0.9999999999999999
 10
54.29224970481168
 20
41.84246608914977
 30
0.0
 10
54.29199193845794
 20
41.84598037638805
 30
0.0
 10
54.290782297986
 20
41.86247214892436
 30
0.0
 10
54.28557398379512
 20
41.93385799904089
 30
0.0
 10
54.26564835647041
 20
42.20490104071888
 30
0.0
 10
54.24263727007444
 20
42.52503858065324
 30
0.0
 10
54.2085649040281
 20
42.98825361902193
 30
0.0
 10
54.18960969842393
 20
43.25027894671739
 30
0.0
 10
54.17466211894388
 20
43.45690526844152
 30
0.0
  0
SPLINE
  5
B1
330
1F
100
AcDbEntity
  8
0
  6
Continuous
 62
     7
370
    25
100
AcDbSpline
210
0.0
220
0.0
230
1.0
 70
     8
 71
     3
 72
    37
 73
    33
 74
     0
 42
0.00000001
 43
0.00000001
 40
0.0
 40
0.0
 40
0.0
 40
0.0
 40
0.0583482791188426
 40
0.0598480922045766
 40
0.0821633526173755
 40
0.1282915184129735
 40
0.1314045382777557
 40
0.19647950810749
 40
0.2059938017488017
 40
0.264204815506391
 40
0.2834823597356492
 40
0.3318180285417444
 40
0.3650446055574376
 40
0.3990528461725978
 40
0.450813366761207
 40
0.4661765105274412
 40
0.5086814358169005
 40
0.5331925028282878
 40
0.5443907393272049
 40
0.6004269817313812
 40
0.6525849053408346
 40
0.6673662051431937
 40
0.6858804868803638
 40
0.7336531391437786
 40
0.7921760792120012
 40
0.7994631810145132
 40
0.8044321842893922
 40
0.8654878353329691
 40
0.8973223754882175
 40
0.9321769616462565
 40
0.976318048444276
 40
1.0
 40
1.0
 40
1.0
 40
1.0
 10
56.55323219832307
 20
87.96342916466901
 30
0.0
 10
56.56194594223313
 20
87.97937663283429
 30
0.0
 10
56.57088366853544
 20
87.99573402262531
 30
0.0
 10
56.58310353574307
 20
88.01823870560898
 30
0.0
 10
56.59505880955472
 20
88.03593673466091
 30
0.0
 10
56.60566771272049
 20
88.05581227471208
 30
0.0
 10
56.62515486141907
 20
88.08417732450053
 30
0.0
 10
56.63793228782822
 20
88.10481364290305
 30
0.0
 10
56.66169119122717
 20
88.13541003113303
 30
0.0
 10
56.67700520589693
 20
88.15717114054189
 30
0.0
 10
56.70021930484399
 20
88.18336668289611
 30
0.0
 10
56.71880660972575
 20
88.20656756503872
 30
0.0
 10
56.74051807780474
 20
88.22762005972528
 30
0.0
 10
56.76327017385817
 20
88.25227222209104
 30
0.0
 10
56.78210625950135
 20
88.26753140430735
 30
0.0
 10
56.80328253293464
 20
88.28735381272236
 30
0.0
 10
56.81872591792979
 20
88.29720462091676
 30
0.0
 10
56.83327742457989
 20
88.3102562838258
 30
0.0
 10
56.84906224741462
 20
88.32052116488171
 30
0.0
 10
56.87161963556163
 20
88.33776236276051
 30
0.0
 10
56.89067945379745
 20
88.34629300933128
 30
0.0
 10
56.90582696705064
 20
88.35536440052515
 30
0.0
 10
56.91789146542641
 20
88.35905945576545
 30
0.0
 10
56.93663790433958
 20
88.37048150980687
 30
0.0
 10
56.94907634855099
 20
88.37185175982664
 30
0.0
 10
56.95887847320923
 20
88.3755399703204
 30
0.0
 10
56.96646419273207
 20
88.37571195628627
 30
0.0
 10
56.97644036960948
 20
88.38125226922064
 30
0.0
 10
56.9854538871588
 20
88.378565881713
 30
0.0
 10
56.99254125828761
 20
88.38208518606527
 30
0.0
 10
56.99611177950963
 20
88.37870449447047
 30
0.0
 10
56.99800404603213
 20
88.37983261772511
 30
0.0
 10
56.99866477379078
 20
88.38022652753678
 30
0.0
  0
SPLINE
  5
B2
330
1F
100
AcDbEntity
  8
0
  6
Continuous
 62
     7
370
    25
100
AcDbSpline
210
0.0
220
0.0
230
1.0
 70
     8
 71
     3
 72
     9
 73
     5
 74
     0
 42
0.00000001
 43
0.00000001
 40
0.0
 40
0.0
 40
0.0
 40
0.0
 40
0.594959912709328
 40
1.0
 40
1.0
 40
1.0
 40
1.0
 10
57.00010104760441
 20
88.37891573896717
 30
0.0
 10
57.00011934276566
 20
88.37888975918722
 30
0.0
 10
57.00015009300758
 20
88.37884609274951
 30
0.0
 10
57.00016409693443
 20
88.37889638441327
 30
0.0
 10
57.00016976908618
 20
88.37891675455313
 30
0.0
  0
SPLINE
  5
B3
330
1F
100
AcDbEntity
  8
0
  6
Continuous
 62
     7
370
    25
100
AcDbSpline
210
0.0
220
0.0
230
1.0
 70
     8
 71
     3
 72
    23
 73
    19
 74
     0
 42
0.00000001
 43
0.00000001
 40
0.0
 40
0.0
 40
0.0
 40
0.0
 40
0.0010267080499469
 40
0.0010812858284105
 40
0.0011620268504565
 40
0.0023007771180678
 40
0.0032376161542032
 40
0.0035182000930306
 40
0.0037367459057519
 40
0.0047416089317749
 40
0.0057198799505575
 40
0.0059724216645717
 40
0.0065140698600742
 40
0.0072184500455111
 40
0.0074739695753859
 40
0.0084864874536281
 40
0.4168165725407433
 40
1.0
 40
1.0
 40
1.0
 40
1.0
 10
57.01333925775526
 20
88.37282317263575
 30
0.0
 10
57.01548163524623
 20
88.36831775487275
 30
0.0
 10
57.01773789730652
 20
88.36357283797211
 30
0.0
 10
57.02206127657197
 20
88.35892923662999
 30
0.0
 10
57.02568211591935
 20
88.35005784620573
 30
0.0
 10
57.03327777493303
 20
88.34059327653377
 30
0.0
 10
57.03703814767107
 20
88.31920946492313
 30
0.0
 10
57.04197034060489
 20
88.30848684875588
 30
0.0
 10
57.04487197125577
 20
88.29280692363805
 30
0.0
 10
57.05087064750325
 20
88.27471831459744
 30
0.0
 10
57.05255647809047
 20
88.24692069154996
 30
0.0
 10
57.05526849453279
 20
88.22835122554979
 30
0.0
 10
57.05471331833972
 20
88.20861602390498
 30
0.0
 10
57.05724014274785
 20
88.19151032080448
 30
0.0
 10
57.05589050370426
 20
88.16359990651573
 30
0.0
 10
56.92851170136267
 20
82.64933458111246
 30
0.0
 10
55.12495141016358
 20
66.75284015981563
 30
0.0
 10
54.06812569240756
 20
52.1354736843015
 30
0.0
 10
53.44652726080856
 20
43.5379046408643
 30
0.0
  0
SPLINE
  5
B4
330
1F
100
AcDbEntity
  8
0
  6
Continuous
 62
     7
370
    25
100
AcDbSpline
210
0.0
220
0.0
230
1.0
 70
     8
 71
     3
 72
    69
 73
    65
 74
     0
 42
0.00000001
 43
0.00000001
 40
0.0
 40
0.0
 40
0.0
 40
0.0
 40
0.5489644101199438
 40
0.9444703720548926
 40
0.9458359224444702
 40
0.9462494210338493
 40
0.9474852632252494
 40
0.9480448004322796
 40
0.9483156846780536
 40
0.9498496031951301
 40
0.9512616659711778
 40
0.9516723309770566
 40
0.9522132213318364
 40
0.953518228261563
 40
0.9550944387965749
 40
0.9553981962473533
 40
0.9556078289940785
 40
0.9573218062349651
 40
0.9582974189471998
 40
0.9592943622622414
 40
0.9606214339515217
 40
0.961322957810968
 40
0.9627347026882896
 40
0.963406125021509
 40
0.9647085656349202
 40
0.9655228192493474
 40
0.9666135898025684
 40
0.9676356186414494
 40
0.9685330214453804
 40
0.96972648615764
 40
0.9704998548964575
 40
0.9717846699477304
 40
0.9725810913096217
 40
0.9737962299261994
 40
0.9749084503641349
 40
0.9757640830304278
 40
0.9776026266576204
 40
0.9776920990259863
 40
0.9778263404502885
 40
0.9795884125897388
 40
0.9809953525053804
 40
0.9814604744907609
 40
0.9818263284008442
 40
0.9833172802451738
 40
0.9848504891429374
 40
0.9851482072492633
 40
0.9857550079149744
 40
0.9869464636873135
 40
0.9873652432740617
 40
0.9887169053220931
 40
0.989618284161081
 40
0.9904695193044103
 40
0.9917246939082165
 40
0.9922070241970455
 40
0.9937278196069471
 40
0.9939369011946284
 40
0.995629323055509
 40
0.9956622265956959
 40
0.9961843622515192
 40
0.9973914410293829
 40
0.997457522325704
 40
0.9991272346137927
 40
0.9992631052081428
 40
1.0
 40
1.0
 40
1.0
 40
1.0
 10
54.03770007109392
 20
43.47112247072331
 30
0.0
 10
54.69596252300457
 20
52.1415083151139
 30
0.0
 10
55.82847561748731
 20
67.05854554621936
 30
0.0
 10
57.32721537483219
 20
81.73166366421707
 30
0.0
 10
57.64934378936116
 20
88.11858312452487
 30
0.0
 10
57.65242270410693
 20
88.16694404501338
 30
0.0
 10
57.6507796659659
 20
88.2016567346758
 30
0.0
 10
57.65104953405956
 20
88.23488032361755
 30
0.0
 10
57.64719526211854
 20
88.27159370332735
 30
0.0
 10
57.64469012734448
 20
88.32202741441938
 30
0.0
 10
57.63461428942367
 20
88.37227838143758
 30
0.0
 10
57.62960418559071
 20
88.40811509008067
 30
0.0
 10
57.621052850185
 20
88.44051737563984
 30
0.0
 10
57.60931547069314
 20
88.4911766750415
 30
0.0
 10
57.59143604810663
 20
88.53480840691529
 30
0.0
 10
57.58202731085266
 20
88.56437471929755
 30
0.0
 10
57.56830838869698
 20
88.59383254711453
 30
0.0
 10
57.55050715834358
 20
88.63347098322299
 30
0.0
 10
57.52227044460042
 20
88.67903736618383
 30
0.0
 10
57.49593842685516
 20
88.72047057848157
 30
0.0
 10
57.46773724246765
 20
88.75432241178873
 30
0.0
 10
57.43457174318402
 20
88.79318270204575
 30
0.0
 10
57.40419817160044
 20
88.82027818770668
 30
0.0
 10
57.36631257768872
 20
88.85350700005556
 30
0.0
 10
57.33178254404215
 20
88.87602543804874
 30
0.0
 10
57.29157746062415
 20
88.90199194564107
 30
0.0
 10
57.25189267843131
 20
88.9203152850127
 30
0.0
 10
57.21116887110909
 20
88.93889471857328
 30
0.0
 10
57.16658473909335
 20
88.95203689756315
 30
0.0
 10
57.12564259187216
 20
88.9637090758427
 30
0.0
 10
57.07743470986778
 20
88.97055156846586
 30
0.0
 10
57.03550091670669
 20
88.97613940668312
 30
0.0
 10
56.98601610596646
 20
88.97615226439659
 30
0.0
 10
56.94016418033648
 20
88.97555203458457
 30
0.0
 10
56.89271164420796
 20
88.96890785767353
 30
0.0
 10
56.83746807793053
 20
88.96040938656336
 30
0.0
 10
56.79681469934761
 20
88.94867809103988
 30
0.0
 10
56.76740654128339
 20
88.9405813487744
 30
0.0
 10
56.73975770377405
 20
88.92922613105874
 30
0.0
 10
56.69266634897137
 20
88.9142957238109
 30
0.0
 10
56.64266136839706
 20
88.88870596623283
 30
0.0
 10
56.61218892775607
 20
88.87422381896334
 30
0.0
 10
56.58166875282726
 20
88.85506426454303
 30
0.0
 10
56.53562429704807
 20
88.82997750357569
 30
0.0
 10
56.49351129797335
 20
88.79796346511931
 30
0.0
 10
56.46160790384859
 20
88.7764016078436
 30
0.0
 10
56.4355977363811
 20
88.75424034464457
 30
0.0
 10
56.40758978918208
 20
88.73295906287963
 30
0.0
 10
56.37241018662439
 20
88.6992798517002
 30
0.0
 10
56.33942694525386
 20
88.67056935262721
 30
0.0
 10
56.30428664088791
 20
88.63207083750274
 30
0.0
 10
56.26878360621894
 20
88.59653538152317
 30
0.0
 10
56.24112551689718
 20
88.56182127499137
 30
0.0
 10
56.20465012201251
 20
88.52013602999087
 30
0.0
 10
56.18235793081822
 20
88.48862865980591
 30
0.0
 10
56.14621365830681
 20
88.44187191574277
 30
0.0
 10
56.12823591102581
 20
88.41288407876945
 30
0.0
 10
56.10595728468273
 20
88.3805547701943
 30
0.0
 10
56.09063034360491
 20
88.35336101720917
 30
0.0
 10
56.07283143806234
 20
88.32743023491682
 30
0.0
 10
56.04806861855629
 20
88.28160661167387
 30
0.0
 10
56.03103998079906
 20
88.2531668876324
 30
0.0
 10
56.011637065782
 20
88.21249956360869
 30
0.0
 10
56.00490624121926
 20
88.19857607828285
 30
0.0
 10
55.9992232596946
 20
88.186820176888
 30
0.0
  0
SPLINE
  5
B5
330
1F
100
AcDbEntity
  8
0
  6
Continuous
 62
     7
370
    25
100
AcDbSpline
210
0.0
220
0.0
230
1.0
 70
     8
 71
     3
 72
     9
 73
     5
 74
     0
 42
0.00000001
 43
0.00000001
 40
0.0
 40
0.0
 40
0.0
 40
0.0
 40
0.1974946712893752
 40
1.0
 40
1.0
 40
1.0
 40
1.0
 10
36.7588913381524
 20
93.80316324079716
 30
0.0
 10
36.75759603766077
 20
93.8031344319199
 30
0.0
 10
36.75103737720083
 20
93.8029885602513
 30
0.0
 10
36.7529676314424
 20
93.80138450670654
 30
0.0
 10
36.75451667075701
 20
93.80009724518936
 30
0.0
  0
SPLINE
  5
B6
330
1F
100
AcDbEntity
  8
0
  6
Continuous
 62
     7
370
    25
100
AcDbSpline
210
0.0
220
0.0
230
1.0
 70
     8
 71
     3
 72
    39
 73
    35
 74
     0
 42
0.00000001
 43
0.00000001
 40
0.0
 40
0.0
 40
0.0
 40
0.0
 40
0.0083708052029881
 40
0.0408810323290049
 40
0.0733789341190116
 40
0.1058738597085577
 40
0.13838751878085
 40
0.1708765424821866
 40
0.2033904058287972
 40
0.2358969749675787
 40
0.2683854600430511
 40
0.3009015327474299
 40
0.3334002337033488
 40
0.3659063399251244
 40
0.398410957586506
 40
0.4309104701814601
 40
0.4634158803226548
 40
0.4959156877291203
 40
0.528428411369445
 40
0.5609223602923903
 40
0.5934226800373499
 40
0.625924899074542
 40
0.6584289198609048
 40
0.6909350780920396
 40
0.7234434823240091
 40
0.7559490081383017
 40
0.7884484254608337
 40
0.8209428914594553
 40
0.8534431084416095
 40
0.8859424727921137
 40
0.9184529131964234
 40
0.9509618318054215
 40
0.9834557812715564
 40
1.0
 40
1.0
 40
1.0
 40
1.0
 10
36.8915536362008
 20
93.73953985686182
 30
0.0
 10
36.89133257188401
 20
93.739252815406
 30
0.0
 10
36.89025294605808
 20
93.73785097284119
 30
0.0
 10
36.90534235415917
 20
93.73253929394518
 30
0.0
 10
36.93722292607048
 20
93.72346078853089
 30
0.0
 10
36.98696464864825
 20
93.71166953253524
 30
0.0
 10
37.05246353104565
 20
93.69710627856198
 30
0.0
 10
37.13362122076538
 20
93.680382662021
 30
0.0
 10
37.22941493680504
 20
93.66117821884735
 30
0.0
 10
37.33916306449794
 20
93.63997450755573
 30
0.0
 10
37.46162532124132
 20
93.61682553160375
 30
0.0
 10
37.59576717865231
 20
93.59206436262326
 30
0.0
 10
37.7405435662721
 20
93.56577467170341
 30
0.0
 10
37.89413872114194
 20
93.53832395588542
 30
0.0
 10
38.05551901813152
 20
93.50977092337132
 30
0.0
 10
38.22300841165546
 20
93.48082568747559
 30
0.0
 10
38.39506196129572
 20
93.45119984170726
 30
0.0
 10
38.57011001128387
 20
93.42158241713635
 30
0.0
 10
38.74648476275306
 20
93.39218685296879
 30
0.0
 10
38.92249669956523
 20
93.36286891853915
 30
0.0
 10
39.09656836984526
 20
93.3345909423397
 30
0.0
 10
39.26706342580904
 20
93.30711680332044
 30
0.0
 10
39.43240153816903
 20
93.28090746447778
 30
0.0
 10
39.59102774215423
 20
93.25608932395743
 30
0.0
 10
39.74153723816694
 20
93.23301802909393
 30
0.0
 10
39.88222991478104
 20
93.2118225042851
 30
0.0
 10
40.01211003410177
 20
93.1925902085696
 30
0.0
 10
40.12991524540578
 20
93.17594072277151
 30
0.0
 10
40.2344207054209
 20
93.16141937314835
 30
0.0
 10
40.32460993781338
 20
93.14968473635518
 30
0.0
 10
40.40023311048156
 20
93.14049563785515
 30
0.0
 10
40.45894684165712
 20
93.13412522124217
 30
0.0
 10
40.49720116518451
 20
93.13093960814275
 30
0.0
 10
40.50927458771957
 20
93.13073968442228
 30
0.0
 10
40.51334785045704
 20
93.13067223529275
 30
0.0
  0
SPLINE
  5
B7
330
1F
100
AcDbEntity
  8
0
  6
Continuous
 62
     7
370
    25
100
AcDbSpline
210
0.0
220
0.0
230
1.0
 70
     8
 71
     3
 72
     9
 73
     5
 74
     0
 42
0.00000001
 43
0.00000001
 40
0.0
 40
0.0
 40
0.0
 40
0.0
 40
0.5326091367380589
 40
1.0
 40
1.0
 40
1.0
 40
1.0
 10
40.66104230326939
 20
93.14342832639738
 30
0.0
 10
40.66652792074417
 20
93.14317156820292
 30
0.0
 10
40.67682743890185
 20
93.14268949199212
 30
0.0
 10
40.67866281476122
 20
93.14361762731163
 30
0.0
 10
40.67952065266854
 20
93.14405142927984
 30
0.0
  0
SPLINE
  5
B8
330
1F
100
AcDbEntity
  8
0
  6
Continuous
 62
     7
370
    25
100
AcDbSpline
210
0.0
220
0.0
230
1.0
 70
     8
 71
     3
 72
     9
 73
     5
 74
     0
 42
0.00000001
 43
0.00000001
 40
0.0
 40
0.0
 40
0.0
 40
0.0
 40
0.2572462190851908
 40
1.0
 40
1.0
 40
1.0
 40
1.0
 10
36.75451667075701
 20
93.80009724518936
 30
0.0
 10
36.7662630707621
 20
93.79488056428261
 30
0.0
 10
36.81192516075068
 20
93.77460162325363
 30
0.0
 10
36.85761634003379
 20
93.7544830231532
 30
0.0
 10
36.89155363620079
 20
93.73953985686184
 30
0.0
  0
SPLINE
  5
B9
330
1F
100
AcDbEntity
  8
0
  6
Continuous
 62
     7
370
    25
100
AcDbSpline
210
0.0
220
0.0
230
1.0
 70
     8
 71
     3
 72
     9
 73
     5
 74
     0
 42
0.00000001
 43
0.00000001
 40
0.0
 40
0.0
 40
0.0
 40
0.0
 40
0.5083748472092491
 40
1.0
 40
1.0
 40
1.0
 40
1.0
 10
40.51334785045704
 20
93.13067223529275
 30
0.0
 10
40.53863873675774
 20
93.13283730659828
 30
0.0
 10
40.58838723717928
 20
93.1370961154623
 30
0.0
 10
40.63709589964329
 20
93.1413412912179
 30
0.0
 10
40.66104230326939
 20
93.14342832639738
 30
0.0
  0
LINE
  5
BA
330
1F
100
AcDbEntity
  8
0
  6
Continuous
 62
     7
370
    25
100
AcDbLine
 10
39.539423396
 20
99.7267568187
 30
0.0
 11
39.5393962443
 21
99.7266508431
 31
0.0
  0
SPLINE
  5
BB
330
1F
100
AcDbEntity
  8
0
  6
Continuous
 62
     7
370
    25
100
AcDbSpline
210
0.0
220
0.0
230
1.0
 70
     8
 71
     3
 72
    49
 73
    45
 74
     0
 42
0.00000001
 43
0.00000001
 40
0.0
 40
0.0
 40
0.0
 40
0.0
 40
0.0852096705049058
 40
0.1968296332071053
 40
0.2819694596615709
 40
0.3936640149535405
 40
0.4785427795216886
 40
0.5904939790395971
 40
0.6753908388555913
 40
0.7873289110775263
 40
0.8700569957986223
 40
0.9741746016094908
 40
0.9749999792317477
 40
0.9756565941600894
 40
0.9764136884805833
 40
0.9770437476702839
 40
0.9777426752071368
 40
0.9783329107544969
 40
0.978957745881636
 40
0.9795219673814071
 40
0.9800871213739967
 40
0.9806314971777483
 40
0.9811345242859645
 40
0.9816673602722021
 40
0.9821060238831892
 40
0.9826464905670094
 40
0.983020245936862
 40
0.9835800896382879
 40
0.9839079245795231
 40
0.9845388904224941
 40
0.9848151816515286
 40
0.9856522234717909
 40
0.9858121203035322
 40
0.9868383845826576
 40
0.9870418398525338
 40
0.9871666304238336
 40
0.9883683439831645
 40
0.9907472424331258
 40
0.9910841193584565
 40
0.9916995738696641
 40
0.9940159812927151
 40
0.9963116748415899
 40
0.9975960117210738
 40
1.0
 40
1.0
 40
1.0
 40
1.0
 10
40.67952065266854
 20
93.14405142927984
 30
0.0
 10
40.66304707857758
 20
93.33398976637477
 30
0.0
 10
40.62499403217191
 20
93.77273683581933
 30
0.0
 10
40.57227474048783
 20
94.40167640647057
 30
0.0
 10
40.51217430143866
 20
95.08912980209084
 30
0.0
 10
40.45967889273474
 20
95.71753422462662
 30
0.0
 10
40.39956689864313
 20
96.40514426398572
 30
0.0
 10
40.34716729755549
 20
97.03358889451404
 30
0.0
 10
40.28675040901378
 20
97.72174904252648
 30
0.0
 10
40.23549620395672
 20
98.34544678371803
 30
0.0
 10
40.17471698811185
 20
99.01107838006533
 30
0.0
 10
40.14700052956518
 20
99.43053012499125
 30
0.0
 10
40.12130228358762
 20
99.66533949560971
 30
0.0
 10
40.12090072433875
 20
99.67033854224341
 30
0.0
 10
40.12013957752103
 20
99.67484758453925
 30
0.0
 10
40.11952603967632
 20
99.67947030696021
 30
0.0
 10
40.11860041837768
 20
99.68366675647384
 30
0.0
 10
40.11794636075555
 20
99.68789724706808
 30
0.0
 10
40.11678637800407
 20
99.69171600583445
 30
0.0
 10
40.11591956952353
 20
99.6955089196013
 30
0.0
 10
40.11460077776066
 20
99.6990669439303
 30
0.0
 10
40.11367649441991
 20
99.70242865220753
 30
0.0
 10
40.11208534133845
 20
99.70569219951132
 30
0.0
 10
40.11116561596705
 20
99.70864609529525
 30
0.0
 10
40.10927571365136
 20
99.7116731591341
 30
0.0
 10
40.10835084091749
 20
99.71404363301173
 30
0.0
 10
40.10619228309606
 20
99.71687036111406
 30
0.0
 10
40.10528974940232
 20
99.71886217424039
 30
0.0
 10
40.10261651859607
 20
99.72148224641556
 30
0.0
 10
40.10202906676331
 20
99.72286831381174
 30
0.0
 10
40.09861537093536
 20
99.72540131471965
 30
0.0
 10
40.09884888818109
 20
99.72599484476561
 30
0.0
 10
40.09465076670165
 20
99.7284157210679
 30
0.0
 10
40.09554537180944
 20
99.72829718882925
 30
0.0
 10
40.09349210957054
 20
99.72957974873425
 30
0.0
 10
40.09307013752258
 20
99.72986620035564
 30
0.0
 10
40.08665090912456
 20
99.73245515657474
 30
0.0
 10
40.08973224901776
 20
99.73168246498635
 30
0.0
 10
40.08648545631262
 20
99.73252764707625
 30
0.0
 10
40.08726013374718
 20
99.73251981038167
 30
0.0
 10
40.08168524904816
 20
99.73398376721352
 30
0.0
 10
40.08135450847694
 20
99.73425959926033
 30
0.0
 10
40.07665120595976
 20
99.73540870948746
 30
0.0
 10
40.07450867916688
 20
99.73592703258791
 30
0.0
 10
40.07311221625319
 20
99.73626486686352
 30
0.0
  0
SPLINE
  5
BC
330
1F
100
AcDbEntity
  8
0
  6
Continuous
 62
     7
370
    25
100
AcDbSpline
210
0.0
220
0.0
230
1.0
 70
     8
 71
     3
 72
    46
 73
    42
 74
     0
 42
0.00000001
 43
0.00000001
 40
0.0
 40
0.0
 40
0.0
 40
0.0
 40
0.0004941002410054
 40
0.0035010178990497
 40
0.0064133228789455
 40
0.0081003218393132
 40
0.010282541502241
 40
0.0127828470093498
 40
0.013826427881976
 40
0.0140026548170014
 40
0.0151811330561572
 40
0.0155319501327887
 40
0.0162000415848105
 40
0.0166577138323792
 40
0.0171687916995283
 40
0.0177336360662936
 40
0.0181058222204737
 40
0.0187501383477586
 40
0.0190637759340127
 40
0.0198041715608252
 40
0.0201082411363272
 40
0.0209599773874428
 40
0.0212261852490667
 40
0.0221411679904418
 40
0.0224132267548164
 40
0.0234182353534127
 40
0.0236977074128509
 40
0.0247943592847469
 40
0.0250762610913774
 40
0.0262868149881242
 40
0.0265678741303752
 40
0.0610761732379208
 40
0.2132765405355491
 40
0.2488508066873484
 40
0.4099652484156856
 40
0.4463936106533383
 40
0.6066388443936189
 40
0.642411573893956
 40
0.8033280135999132
 40
0.8395580718590466
 40
1.0
 40
1.0
 40
1.0
 40
1.0
 10
39.48489089543762
 20
99.8352297617997
 30
0.0
 10
39.4844150614317
 20
99.83528337233746
 30
0.0
 10
39.48104347155292
 20
99.8356632374675
 30
0.0
 10
39.47580064900344
 20
99.83630301452945
 30
0.0
 10
39.46955606416632
 20
99.83683888104915
 30
0.0
 10
39.46498804182334
 20
99.8372794568024
 30
0.0
 10
39.46112704796671
 20
99.83777973152588
 30
0.0
 10
39.45514154375153
 20
99.83729654910915
 30
0.0
 10
39.45410874874232
 20
99.8379481754062
 30
0.0
 10
39.44845627103869
 20
99.83666290819895
 30
0.0
 10
39.44858582276379
 20
99.83731858586772
 30
0.0
 10
39.44321548719619
 20
99.83495180642434
 30
0.0
 10
39.44189097834906
 20
99.83493986507254
 30
0.0
 10
39.43813753487964
 20
99.83255427092749
 30
0.0
 10
39.43627845905701
 20
99.83192254052337
 30
0.0
 10
39.43328228123398
 20
99.82950333194236
 30
0.0
 10
39.43080903109261
 20
99.82802194491984
 30
0.0
 10
39.4285500282988
 20
99.82559089039015
 30
0.0
 10
39.42580919019204
 20
99.82345387302308
 30
0.0
 10
39.42380969144214
 20
99.82086137917061
 30
0.0
 10
39.42097546729931
 20
99.81806922899064
 30
0.0
 10
39.41911644213775
 20
99.81532353058888
 30
0.0
 10
39.41624011731918
 20
99.81185245153854
 30
0.0
 10
39.41466701546424
 20
99.80895244584889
 30
0.0
 10
39.41185172818172
 20
99.80495449243615
 30
0.0
 10
39.41024592073416
 20
99.80183798536424
 30
0.0
 10
39.40745588763062
 20
99.79730201001419
 30
0.0
 10
39.40586826082657
 20
99.7939306619749
 30
0.0
 10
39.40314862954095
 20
99.78881461161416
 30
0.0
 10
39.40151230552514
 20
99.78518912624557
 30
0.0
 10
39.36700282176638
 20
99.71234413948746
 30
0.0
 10
39.20538954677841
 20
99.32701814782362
 30
0.0
 10
38.99758914773124
 20
98.87374584458955
 30
0.0
 10
38.68483547340039
 20
98.15938124839677
 30
0.0
 10
38.47150481016581
 20
97.68214516542898
 30
0.0
 10
38.15030819251293
 20
96.94975740329315
 30
0.0
 10
37.93777585380735
 20
96.47380523118146
 30
0.0
 10
37.6172144589878
 20
95.74318956462973
 30
0.0
 10
37.40437316929104
 20
95.2662673295272
 30
0.0
 10
37.0831556317263
 20
94.53429923793252
 30
0.0
 10
36.90457479200247
 20
94.13164349412027
 30
0.0
 10
36.7588913381524
 20
93.80316324079716
 30
0.0
  0
SPLINE
  5
BD
330
1F
100
AcDbEntity
  8
0
  6
Continuous
 62
     7
370
    25
100
AcDbSpline
210
0.0
220
0.0
230
1.0
 70
     8
 71
     3
 72
    12
 73
     8
 74
     0
 42
0.00000001
 43
0.00000001
 40
0.0
 40
0.0
 40
0.0
 40
0.0
 40
0.0513587155542241
 40
0.3025414317932217
 40
0.5538206551788536
 40
0.80521048469939
 40
1.0
 40
1.0
 40
1.0
 40
1.0
 10
52.09229834183704
 20
82.90397196995157
 30
0.0
 10
52.09033362610029
 20
82.90330863601483
 30
0.0
 10
52.07875997388475
 20
82.89940110061784
 30
0.0
 10
52.07424164225816
 20
82.88544108865315
 30
0.0
 10
52.0805353349076
 20
82.86175822292948
 30
0.0
 10
52.10180799970168
 20
82.83379473117327
 30
0.0
 10
52.12805573673079
 20
82.81127265526362
 30
0.0
 10
52.13951477003877
 20
82.80144014217014
 30
0.0
  0
SPLINE
  5
BE
330
1F
100
AcDbEntity
  8
0
  6
Continuous
 62
     7
370
    25
100
AcDbSpline
210
0.0
220
0.0
230
1.0
 70
     8
 71
     3
 72
    33
 73
    29
 74
     0
 42
0.00000001
 43
0.00000001
 40
0.0
 40
0.0
 40
0.0
 40
0.0
 40
0.0089890135453575
 40
0.0489505505221788
 40
0.0888979719440283
 40
0.1288558143275217
 40
0.1688076798927341
 40
0.2087613332520114
 40
0.2487120682764881
 40
0.2886509918842371
 40
0.3286091898598976
 40
0.3685626218884372
 40
0.4085273942743394
 40
0.4484781187359463
 40
0.4884224811481738
 40
0.5283839486901298
 40
0.5683299946076413
 40
0.6082869673844561
 40
0.6482343874077192
 40
0.68819123649511
 40
0.7281378620038317
 40
0.768086429436801
 40
0.8080373112468823
 40
0.8479961230763571
 40
0.8879576440499972
 40
0.9279027890811289
 40
0.9678608569200101
 40
1.0
 40
1.0
 40
1.0
 40
1.0
 10
52.25641710554813
 20
82.71999815659339
 30
0.0
 10
52.25919387925234
 20
82.71746684615083
 30
0.0
 10
52.27431507145112
 20
82.70368234809884
 30
0.0
 10
52.31703153939264
 20
82.6731379808662
 30
0.0
 10
52.38476224367746
 20
82.62858516184578
 30
0.0
 10
52.46809154019461
 20
82.57894942280673
 30
0.0
 10
52.56445354814557
 20
82.52499482304748
 30
0.0
 10
52.67375381499572
 20
82.4674139870596
 30
0.0
 10
52.79454126680503
 20
82.4065749271948
 30
0.0
 10
52.92581152642414
 20
82.34301746494762
 30
0.0
 10
53.06633919950151
 20
82.27740335242348
 30
0.0
 10
53.21480666914128
 20
82.21026407167983
 30
0.0
 10
53.36994450433697
 20
82.14255668879417
 30
0.0
 10
53.53010489120212
 20
82.07442788382966
 30
0.0
 10
53.69389345876627
 20
82.00687612622886
 30
0.0
 10
53.85977054277232
 20
81.94033443415334
 30
0.0
 10
54.02616424387416
 20
81.87542672987894
 30
0.0
 10
54.19160877772142
 20
81.81298656183084
 30
0.0
 10
54.35445734107866
 20
81.7533902181407
 30
0.0
 10
54.51316976497639
 20
81.69703479937847
 30
0.0
 10
54.66638293258244
 20
81.64496778053397
 30
0.0
 10
54.81256499544078
 20
81.5971376810811
 30
0.0
 10
54.95049748244003
 20
81.55433347418247
 30
0.0
 10
55.07870823511221
 20
81.51671130765068
 30
0.0
 10
55.19614739934819
 20
81.4848008894777
 30
0.0
 10
55.30127109164172
 20
81.45899980146072
 30
0.0
 10
55.38890745488403
 20
81.4399066437858
 30
0.0
 10
55.43458245988349
 20
81.43261897797395
 30
0.0
 10
55.45494324086444
 20
81.42937031784881
 30
0.0
  0
SPLINE
  5
BF
330
1F
100
AcDbEntity
  8
0
  6
Continuous
 62
     7
370
    25
100
AcDbSpline
210
0.0
220
0.0
230
1.0
 70
     8
 71
     3
 72
    12
 73
     8
 74
     0
 42
0.00000001
 43
0.00000001
 40
0.0
 40
0.0
 40
0.0
 40
0.0
 40
0.048070683853637
 40
0.3000192186510836
 40
0.5520085049145022
 40
0.8040463267593291
 40
1.0
 40
1.0
 40
1.0
 40
1.0
 10
55.58991657668937
 20
81.40937773348996
 30
0.0
 10
55.59538194729095
 20
81.40843046807356
 30
0.0
 10
55.62949247133754
 20
81.40251838596245
 30
0.0
 10
55.67715577981961
 20
81.39828150805555
 30
0.0
 10
55.73071546877569
 20
81.39773551468613
 30
0.0
 10
55.76554247350666
 20
81.40350812142074
 30
0.0
 10
55.77485532620472
 20
81.41244392657212
 30
0.0
 10
55.77892881356899
 20
81.41635249149351
 30
0.0
  0
SPLINE
  5
C0
330
1F
100
AcDbEntity
  8
0
  6
Continuous
 62
     7
370
    25
100
AcDbSpline
210
0.0
220
0.0
230
1.0
 70
     8
 71
     3
 72
     9
 73
     5
 74
     0
 42
0.00000001
 43
0.00000001
 40
0.0
 40
0.0
 40
0.0
 40
0.0
 40
0.2791362141229704
 40
1.0
 40
1.0
 40
1.0
 40
1.0
 10
55.63464053989841
 20
81.44023929848888
 30
0.0
 10
55.63465944963863
 20
81.43966661850175
 30
0.0
 10
55.63472719341128
 20
81.4376150037053
 30
0.0
 10
55.63233422388084
 20
81.43654776467018
 30
0.0
 10
55.63060921880563
 20
81.4357784306989
 30
0.0
  0
SPLINE
  5
C1
330
1F
100
AcDbEntity
  8
0
  6
Continuous
 62
     7
370
    25
100
AcDbSpline
210
0.0
220
0.0
230
1.0
 70
     8
 71
     3
 72
     9
 73
     5
 74
     0
 42
0.00000001
 43
0.00000001
 40
0.0
 40
0.0
 40
0.0
 40
0.0
 40
0.2250502595255233
 40
1.0
 40
1.0
 40
1.0
 40
1.0
 10
52.13951477003877
 20
82.80144014217014
 30
0.0
 10
52.14847355420375
 20
82.79515784805875
 30
0.0
 10
52.18828148059257
 20
82.76724277644486
 30
0.0
 10
52.22666883511977
 20
82.74062533552573
 30
0.0
 10
52.25641710554813
 20
82.71999815659338
 30
0.0
  0
SPLINE
  5
C2
330
1F
100
AcDbEntity
  8
0
  6
Continuous
 62
     7
370
    25
100
AcDbSpline
210
0.0
220
0.0
230
1.0
 70
     8
 71
     3
 72
     9
 73
     5
 74
     0
 42
0.00000001
 43
0.00000001
 40
0.0
 40
0.0
 40
0.0
 40
0.0
 40
0.8099364209908465
 40
1.0
 40
1.0
 40
1.0
 40
1.0
 10
55.45494324086444
 20
81.42937031784882
 30
0.0
 10
55.49249458741408
 20
81.42378404599488
 30
0.0
 10
55.53885791369058
 20
81.41688687269932
 30
0.0
 10
55.58176206091379
 20
81.41057700880484
 30
0.0
 10
55.58991657668937
 20
81.40937773348996
 30
0.0
  0
SPLINE
  5
C3
330
1F
100
AcDbEntity
  8
0
  6
Continuous
 62
     7
370
    25
100
AcDbSpline
210
0.0
220
0.0
230
1.0
 70
     8
 71
     3
 72
    48
 73
    44
 74
     0
 42
0.00000001
 43
0.00000001
 40
0.0
 40
0.0
 40
0.0
 40
0.0
 40
0.1533878091212422
 40
0.1970738971353684
 40
0.3507409153711999
 40
0.3941628666171078
 40
0.5470191052171949
 40
0.5912404738810593
 40
0.7442977687022404
 40
0.788328610770323
 40
0.9355008041557787
 40
0.9754230928896918
 40
0.9757335025939967
 40
0.9769219803670003
 40
0.9771619748670664
 40
0.9783310151975116
 40
0.9784863843869623
 40
0.9796536075934154
 40
0.9797301697427251
 40
0.9807991237327044
 40
0.9808845325137772
 40
0.9808907239237996
 40
0.9819762857115727
 40
0.9820718326912862
 40
0.9830299707019786
 40
0.9832471226665709
 40
0.9840865532942832
 40
0.9844986170151474
 40
0.9851710820123056
 40
0.9859140244486116
 40
0.9863515457505135
 40
0.9877181394393585
 40
0.9878196370437032
 40
0.9881939887735228
 40
0.9894440816906255
 40
0.9904033186247388
 40
0.9914353224282318
 40
0.9931184119322322
 40
0.9939565526915664
 40
0.9953943902077711
 40
0.9968376648369581
 40
0.9978638599591441
 40
1.0
 40
1.0
 40
1.0
 40
1.0
 10
55.77892881356899
 20
81.41635249149351
 30
0.0
 10
55.82102258895278
 20
81.75470337191665
 30
0.0
 10
55.87510501184904
 20
82.18941931828928
 30
0.0
 10
55.97463291393056
 20
82.96552092476396
 30
0.0
 10
56.03939957527524
 20
83.49569287510397
 30
0.0
 10
56.13894950415951
 20
84.27016827752188
 30
0.0
 10
56.20342193350159
 20
84.79963152890585
 30
0.0
 10
56.30304333964188
 20
85.57453098506514
 30
0.0
 10
56.36784735291719
 20
86.10584348613622
 30
0.0
 10
56.46597709144167
 20
86.8676926184061
 30
0.0
 10
56.52663200488659
 20
87.37716519363896
 30
0.0
 10
56.58195468432655
 20
87.79111403411568
 30
0.0
 10
56.59282642691664
 20
87.88297453774987
 30
0.0
 10
56.59341319943353
 20
87.88683027783996
 30
0.0
 10
56.5938058066036
 20
87.89260052535016
 30
0.0
 10
56.59434337884447
 20
87.89601540382351
 30
0.0
 10
56.59441431588003
 20
87.9015756459452
 30
0.0
 10
56.59467165747039
 20
87.90462585755678
 30
0.0
 10
56.59455703009197
 20
87.90975047548783
 30
0.0
 10
56.59460442952395
 20
87.9123892372854
 30
0.0
 10
56.59450908857936
 20
87.91496335580976
 30
0.0
 10
56.59438472821179
 20
87.91748244456198
 30
0.0
 10
56.59390423148251
 20
87.92020066335078
 30
0.0
 10
56.59351257106596
 20
87.92446972617303
 30
0.0
 10
56.5927425016044
 20
87.927274174983
 30
0.0
 10
56.59217073571285
 20
87.93095077867902
 30
0.0
 10
56.59118726860584
 20
87.93387346429479
 30
0.0
 10
56.59065386906664
 20
87.93679066041274
 30
0.0
 10
56.58915324142652
 20
87.94017491105005
 30
0.0
 10
56.58882764471188
 20
87.94205976555058
 30
0.0
 10
56.58650473239265
 20
87.9462980672216
 30
0.0
 10
56.58695225475439
 20
87.94686158353926
 30
0.0
 10
56.58534527786796
 20
87.94927459903529
 30
0.0
 10
56.58518858293672
 20
87.95004146772965
 30
0.0
 10
56.58246973828565
 20
87.95334762326051
 30
0.0
 10
56.58170656004813
 20
87.9548731640322
 30
0.0
 10
56.57887089124643
 20
87.95793094276122
 30
0.0
 10
56.5785311513971
 20
87.95901669351505
 30
0.0
 10
56.57552046457714
 20
87.96182908917949
 30
0.0
 10
56.57404357022811
 20
87.96346997271948
 30
0.0
 10
56.57133312654911
 20
87.96576725093198
 30
0.0
 10
56.56957689376573
 20
87.96760640552942
 30
0.0
 10
56.56698336066083
 20
87.96952295375345
 30
0.0
 10
56.56523144328744
 20
87.97081757155661
 30
0.0
  0
SPLINE
  5
C4
330
1F
100
AcDbEntity
  8
0
  6
Continuous
 62
     7
370
    25
100
AcDbSpline
210
0.0
220
0.0
230
1.0
 70
     8
 71
     3
 72
    43
 73
    39
 74
     0
 42
0.00000001
 43
0.00000001
 40
0.0
 40
0.0
 40
0.0
 40
0.0
 40
0.0005997469242462
 40
0.0047613698627495
 40
0.0052799837595285
 40
0.0058612406294946
 40
0.0100589809707153
 40
0.0107802177422351
 40
0.0113932267778176
 40
0.013494744689901
 40
0.0152031062379307
 40
0.0153055145987522
 40
0.0153276106698251
 40
0.0166692614075286
 40
0.0169602957173951
 40
0.0178410300856557
 40
0.018295363579833
 40
0.019034099757834
 40
0.0196582682858649
 40
0.020209627843993
 40
0.0209803137872928
 40
0.021454077544357
 40
0.0223474657016179
 40
0.0227789351423165
 40
0.0238160918155969
 40
0.0241821112395259
 40
0.0253205546929372
 40
0.0256711871164978
 40
0.0668863939765666
 40
0.2125587410002345
 40
0.252784118695732
 40
0.4094221023203805
 40
0.4494486644400587
 40
0.60627953593542
 40
0.6466873203418556
 40
0.8031447204163653
 40
0.8433787482357158
 40
1.0
 40
1.0
 40
1.0
 40
1.0
 10
56.01166788936887
 20
88.19497736075175
 30
0.0
 10
56.01097542517914
 20
88.19511304200684
 30
0.0
 10
56.00547797618733
 20
88.19619021074703
 30
0.0
 10
56.00046985260511
 20
88.19664337620698
 30
0.0
 10
55.99518693296789
 20
88.19749667110247
 30
0.0
 10
55.99048626437194
 20
88.19782353490505
 30
0.0
 10
55.98373179671052
 20
88.1982453730627
 30
0.0
 10
55.9791776136863
 20
88.19822087320908
 30
0.0
 10
55.97455954293403
 20
88.19756631029851
 30
0.0
 10
55.97125970122788
 20
88.1975528350099
 30
0.0
 10
55.96449782955739
 20
88.1958670184689
 30
0.0
 10
55.96239055863099
 20
88.19536129953929
 30
0.0
 10
55.95962069853955
 20
88.19412872449658
 30
0.0
 10
55.95796847830876
 20
88.19373691661569
 30
0.0
 10
55.95321907439691
 20
88.19096159003182
 30
0.0
 10
55.95068920542735
 20
88.18980496404431
 30
0.0
 10
55.9468813433277
 20
88.18695974531454
 30
0.0
 10
55.94399672905262
 20
88.18527561782497
 30
0.0
 10
55.94067022571099
 20
88.18238308769811
 30
0.0
 10
55.93742956577785
 20
88.17986042107525
 30
0.0
 10
55.93458456304946
 20
88.17696411710484
 30
0.0
 10
55.93102660513319
 20
88.17388851659008
 30
0.0
 10
55.92836641717631
 20
88.17079398178042
 30
0.0
 10
55.92472593941795
 20
88.16712631333998
 30
0.0
 10
55.92218418987432
 20
88.16384284056866
 30
0.0
 10
55.91847069281734
 20
88.15954939740713
 30
0.0
 10
55.91603749515236
 20
88.1561898798331
 30
0.0
 10
55.85698382299499
 20
88.08104849605787
 30
0.0
 10
55.62288322102059
 20
87.74159125300793
 30
0.0
 10
55.31654348179446
 20
87.3352817006006
 30
0.0
 10
54.8728493607854
 20
86.72100483039931
 30
0.0
 10
54.55954698994697
 20
86.29450625631432
 30
0.0
 10
54.10075029197721
 20
85.66092319565671
 30
0.0
 10
53.78728040260972
 20
85.23367159222575
 30
0.0
 10
53.32819008729292
 20
84.59974436775983
 30
0.0
 10
53.01505762240512
 20
84.17275022241452
 30
0.0
 10
52.55624007482339
 20
83.5394404445198
 30
0.0
 10
52.29786541212859
 20
83.18554050171262
 30
0.0
 10
52.09229834183704
 20
82.90397196995157
 30
0.0
  0
LINE
  5
C5
330
1F
100
AcDbEntity
  8
0
  6
Continuous
 62
     7
370
    25
100
AcDbLine
 10
47.0180830861
 20
127.1221927139
 30
0.0
 11
47.0173149503
 21
127.12233736
 31
0.0
  0
SPLINE
  5
C6
330
1F
100
AcDbEntity
  8
0
  6
Continuous
 62
     7
370
    25
100
AcDbSpline
210
0.0
220
0.0
230
1.0
 70
     8
 71
     3
 72
    41
 73
    37
 74
     0
 42
0.00000001
 43
0.00000001
 40
0.0
 40
0.0
 40
0.0
 40
0.0
 40
0.0070206763062675
 40
0.037870878704796
 40
0.0687222949232174
 40
0.0995718384005148
 40
0.1304269281689528
 40
0.1612675644455017
 40
0.1921329595405419
 40
0.2229682834036461
 40
0.2538334255153762
 40
0.2846705753714769
 40
0.3155212756947336
 40
0.3463784517245985
 40
0.3772289302901828
 40
0.4080821526477226
 40
0.4389275151330682
 40
0.4697831659713935
 40
0.5006302356305116
 40
0.5314881482834694
 40
0.5623283482215693
 40
0.5931799477388876
 40
0.6240246254737932
 40
0.6548865951571606
 40
0.6857356084429161
 40
0.7165857874110788
 40
0.7474253953267508
 40
0.7782774705553654
 40
0.8091302635339381
 40
0.8399805711535329
 40
0.8708401829281488
 40
0.9016880218646102
 40
0.9325291192528236
 40
0.9633839283313892
 40
0.9942375976474888
 40
1.0
 40
1.0
 40
1.0
 40
1.0
 10
47.147198940291
 20
127.0478613657152
 30
0.0
 10
47.14596673645543
 20
127.0481112478219
 30
0.0
 10
47.13931999190252
 20
127.0494591599803
 30
0.0
 10
47.1435329689193
 20
127.0473568016178
 30
0.0
 10
47.1609742469962
 20
127.0412441860918
 30
0.0
 10
47.19591900544555
 20
127.0304741097334
 30
0.0
 10
47.24687576534912
 20
127.015053172262
 30
0.0
 10
47.31351928199656
 20
126.9956388170315
 30
0.0
 10
47.39517725126889
 20
126.9720397021081
 30
0.0
 10
47.49112049718874
 20
126.9445337453501
 30
0.0
 10
47.60047484589118
 20
126.9133683361726
 30
0.0
 10
47.72216480277206
 20
126.8790739793079
 30
0.0
 10
47.85505357742471
 20
126.8416165781823
 30
0.0
 10
47.997956933308
 20
126.8015402634612
 30
0.0
 10
48.14954853607502
 20
126.7592261067206
 30
0.0
 10
48.30828311116825
 20
126.7148763943456
 30
0.0
 10
48.47281666968797
 20
126.6692019458414
 30
0.0
 10
48.6416043113409
 20
126.6225531772598
 30
0.0
 10
48.81299362497454
 20
126.5751250557369
 30
0.0
 10
48.98540246881027
 20
126.5275577600926
 30
0.0
 10
49.15730418847519
 20
126.4804707932866
 30
0.0
 10
49.3269333028376
 20
126.4338339850333
 30
0.0
 10
49.49289405127286
 20
126.388526774545
 30
0.0
 10
49.65353432652813
 20
126.3447683183221
 30
0.0
 10
49.80733230405415
 20
126.3027877008994
 30
0.0
 10
49.95290583238864
 20
126.2635743065863
 30
0.0
 10
50.08887306398453
 20
126.2267243647494
 30
0.0
 10
50.21397430778851
 20
126.1931587190362
 30
0.0
 10
50.326971000798
 20
126.1629947853619
 30
0.0
 10
50.42707122532856
 20
126.1365334520062
 30
0.0
 10
50.51296293762849
 20
126.11394136082
 30
0.0
 10
50.58390377441024
 20
126.0955140470328
 30
0.0
 10
50.63991114359653
 20
126.0813120939212
 30
0.0
 10
50.67825692080554
 20
126.0718640139459
 30
0.0
 10
50.69847549761262
 20
126.0673281705206
 30
0.0
 10
50.7006176654296
 20
126.0672198427398
 30
0.0
 10
50.70095478605193
 20
126.0672027948089
 30
0.0
  0
LINE
  5
C7
330
1F
100
AcDbEntity
  8
0
  6
Continuous
 62
     7
370
    25
100
AcDbLine
 10
50.8504797048
 20
126.064654648
 30
0.0
 11
50.8508177263
 21
126.064622494
 31
0.0
  0
SPLINE
  5
C8
330
1F
100
AcDbEntity
  8
0
  6
Continuous
 62
     7
370
    25
100
AcDbSpline
210
0.0
220
0.0
230
1.0
 70
     8
 71
     3
 72
     9
 73
     5
 74
     0
 42
0.00000001
 43
0.00000001
 40
0.0
 40
0.0
 40
0.0
 40
0.0
 40
0.2230342905202744
 40
1.0
 40
1.0
 40
1.0
 40
1.0
 10
47.01731495033801
 20
127.1223373599578
 30
0.0
 10
47.02688720207257
 20
127.1168072092664
 30
0.0
 10
47.06980549823331
 20
127.0920121399586
 30
0.0
 10
47.11335920421921
 20
127.0671659800086
 30
0.0
 10
47.147198940291
 20
127.0478613657152
 30
0.0
  0
SPLINE
  5
C9
330
1F
100
AcDbEntity
  8
0
  6
Continuous
 62
     7
370
    25
100
AcDbSpline
210
0.0
220
0.0
230
1.0
 70
     8
 71
     3
 72
     9
 73
     5
 74
     0
 42
0.00000001
 43
0.00000001
 40
0.0
 40
0.0
 40
0.0
 40
0.0
 40
0.1871583139302059
 40
1.0
 40
1.0
 40
1.0
 40
1.0
 10
50.70095478605193
 20
126.0672027948089
 30
0.0
 10
50.71031226476873
 20
126.0670385395857
 30
0.0
 10
50.76030992995544
 20
126.066160912406
 30
0.0
 10
50.81004939453285
 20
126.0653300266256
 30
0.0
 10
50.85047970478416
 20
126.0646546480269
 30
0.0
  0
SPLINE
  5
CA
330
1F
100
AcDbEntity
  8
0
  6
Continuous
 62
     7
370
    25
100
AcDbSpline
210
0.0
220
0.0
230
1.0
 70
     8
 71
     3
 72
    46
 73
    42
 74
     0
 42
0.00000001
 43
0.00000001
 40
0.0
 40
0.0
 40
0.0
 40
0.0
 40
0.0463785199388781
 40
0.1979948128178145
 40
0.244479824055912
 40
0.3959986034038533
 40
0.4426672083823268
 40
0.5940038764278027
 40
0.6403286103424799
 40
0.7920065840146358
 40
0.8363803842493278
 40
0.9799716570136974
 40
0.9811270518281358
 40
0.9814755183224079
 40
0.9825340528654751
 40
0.9828676117308589
 40
0.9838500884353257
 40
0.9841565635043354
 40
0.9850735320541789
 40
0.9853538089320752
 40
0.9861991624378399
 40
0.9864639055198341
 40
0.9872453694981986
 40
0.9874926022884909
 40
0.9882287110420396
 40
0.9884527133883148
 40
0.9891618470585328
 40
0.9893699646027377
 40
0.9900105763784034
 40
0.9902433325939927
 40
0.9908909478642884
 40
0.9911467243267357
 40
0.9918253430340983
 40
0.9921768011542832
 40
0.9929214592676415
 40
0.9935848300549877
 40
0.9944460686510334
 40
0.9968404897142503
 40
0.9969074925176485
 40
0.9982167256205114
 40
1.0
 40
1.0
 40
1.0
 40
1.0
 10
50.85081772631724
 20
126.0646224939637
 30
0.0
 10
50.85260204028921
 20
126.1677825790549
 30
0.0
 10
50.86021946558338
 20
126.6081839063249
 30
0.0
 10
50.87089399954355
 20
127.1518750951347
 30
0.0
 10
50.88422432464146
 20
127.9295526613331
 30
0.0
 10
50.8949595355131
 20
128.4736663807624
 30
0.0
 10
50.90826404075202
 20
129.251130462577
 30
0.0
 10
50.919074132642
 20
129.7944851329312
 30
0.0
 10
50.93229320292961
 20
130.5715388198546
 30
0.0
 10
50.9435200739807
 20
131.1105391444729
 30
0.0
 10
50.95499956308084
 20
131.8660437456144
 30
0.0
 10
50.97154092968058
 20
132.2865200583383
 30
0.0
 10
50.96981994546666
 20
132.6093373207495
 30
0.0
 10
50.96984406159644
 20
132.6150353176434
 30
0.0
 10
50.96953644610337
 20
132.618897348818
 30
0.0
 10
50.96941367613
 20
132.6241730410383
 30
0.0
 10
50.96892077745674
 20
132.6277610457011
 30
0.0
 10
50.96852937975559
 20
132.6326471328037
 30
0.0
 10
50.96786837697695
 20
132.6359476093538
 30
0.0
 10
50.96728125422634
 20
132.6404223298792
 30
0.0
 10
50.96639683317419
 20
132.6434204175932
 30
0.0
 10
50.96560087904616
 20
132.6475272789176
 30
0.0
 10
50.96460579887913
 20
132.6502866018727
 30
0.0
 10
50.96356690669031
 20
132.6539724041161
 30
0.0
 10
50.96228017140424
 20
132.656475180241
 30
0.0
 10
50.96109454761691
 20
132.6597100227485
 30
0.0
 10
50.95947791862589
 20
132.6620311570677
 30
0.0
 10
50.95824656984102
 20
132.6646551647257
 30
0.0
 10
50.95626094182963
 20
132.6669551536286
 30
0.0
 10
50.95516529568125
 20
132.6688676568849
 30
0.0
 10
50.95254921788829
 20
132.6712103744204
 30
0.0
 10
50.95167220076965
 20
132.6724956865044
 30
0.0
 10
50.94808059636929
 20
132.6748519258115
 30
0.0
 10
50.94807221869031
 20
132.6752741199873
 30
0.0
 10
50.94264367808152
 20
132.6778742031145
 30
0.0
 10
50.94460300446637
 20
132.6773038357889
 30
0.0
 10
50.93360337919631
 20
132.6809625975952
 30
0.0
 10
50.94417627411083
 20
132.677969164138
 30
0.0
 10
50.93581066303719
 20
132.6802442510037
 30
0.0
 10
50.93499359209837
 20
132.6803806101153
 30
0.0
 10
50.92706761484852
 20
132.6826134357441
 30
0.0
 10
50.92249715148093
 20
132.6839009801593
 30
0.0
  0
SPLINE
  5
CB
330
1F
100
AcDbEntity
  8
0
  6
Continuous
 62
     7
370
    25
100
AcDbSpline
210
0.0
220
0.0
230
1.0
 70
     8
 71
     3
 72
    46
 73
    42
 74
     0
 42
0.00000001
 43
0.00000001
 40
0.0
 40
0.0
 40
0.0
 40
0.0
 40
0.0023858269826341
 40
0.0026293486323453
 40
0.0030270331346992
 40
0.0036292082118867
 40
0.0055521423425225
 40
0.006204264849135
 40
0.007032197123537
 40
0.0075753168397367
 40
0.008026359810682
 40
0.0085793227952805
 40
0.0089536162468529
 40
0.0095400323146178
 40
0.0098871206473154
 40
0.0104978299678308
 40
0.0107910166088873
 40
0.0114621997206857
 40
0.0117492883277022
 40
0.0124685328498073
 40
0.0127786025744636
 40
0.0135781633296727
 40
0.0138993629212238
 40
0.0147580200886092
 40
0.0150931026005753
 40
0.016021042055499
 40
0.0163820297405168
 40
0.0174073688349055
 40
0.0177795344138802
 40
0.0188797435133817
 40
0.0192734160711886
 40
0.0685425251998892
 40
0.2073776796857979
 40
0.2613123199350639
 40
0.4055379952346637
 40
0.4601303656835495
 40
0.6036863417005036
 40
0.6575682159697795
 40
0.8018390448215953
 40
0.8556236883911127
 40
1.0
 40
1.0
 40
1.0
 40
1.0
 10
50.34772644734106
 20
132.8425467932611
 30
0.0
 10
50.34268486660795
 20
132.8439674123908
 30
0.0
 10
50.33712869111744
 20
132.8455330342877
 30
0.0
 10
50.33067634788549
 20
132.8472487222137
 30
0.0
 10
50.33099705291216
 20
132.8472265216157
 30
0.0
 10
50.32901929635893
 20
132.8475407690369
 30
0.0
 10
50.32684847185457
 20
132.8484857622463
 30
0.0
 10
50.32227608971042
 20
132.8482806166382
 30
0.0
 10
50.32087157059501
 20
132.8487558832902
 30
0.0
 10
50.31680757412995
 20
132.8480537472422
 30
0.0
 10
50.31492279828242
 20
132.8482118157085
 30
0.0
 10
50.31186491576427
 20
132.8469142752421
 30
0.0
 10
50.30955329121741
 20
132.8466616603062
 30
0.0
 10
50.30680504372776
 20
132.8450622096305
 30
0.0
 10
50.30430481874384
 20
132.8443486787837
 30
0.0
 10
50.301812170095
 20
132.8425278354509
 30
0.0
 10
50.29896936909158
 20
132.8410604329754
 30
0.0
 10
50.29679289904897
 20
132.8391630895586
 30
0.0
 10
50.29371935429141
 20
132.8371275450815
 30
0.0
 10
50.29176571336076
 20
132.8349168052127
 30
0.0
 10
50.2886471753481
 20
132.8323780399024
 30
0.0
 10
50.28659851356978
 20
132.82988847532
 30
0.0
 10
50.28352144180407
 20
132.8267906116603
 30
0.0
 10
50.2814917426783
 20
132.8240816103347
 30
0.0
 10
50.27839451983906
 20
132.8205241920829
 30
0.0
 10
50.27643585567922
 20
132.8174903923519
 30
0.0
 10
50.27329781745208
 20
132.8134099759363
 30
0.0
 10
50.27124093693629
 20
132.8100792821401
 30
0.0
 10
50.26815024744426
 20
132.8054664488175
 30
0.0
 10
50.26613232394167
 20
132.801832733094
 30
0.0
 10
50.20822814754734
 20
132.7051940379002
 30
0.0
 10
50.00587321324942
 20
132.3383509306991
 30
0.0
 10
49.73410137516842
 20
131.8736834334721
 30
0.0
 10
49.36470769712782
 20
131.2228780212997
 30
0.0
 10
49.08372691902402
 20
130.735770755743
 30
0.0
 10
48.7080284228263
 20
130.0748482558949
 30
0.0
 10
48.42801807936033
 20
129.5890122865365
 30
0.0
 10
48.05296394683978
 20
128.9294189954685
 30
0.0
 10
47.77312295248672
 20
128.4437454839229
 30
0.0
 10
47.39714749377899
 20
127.7827780658142
 30
0.0
 10
47.17785525205312
 20
127.4006233719887
 30
0.0
 10
47.01808308605643
 20
127.1221927138962
 30
0.0
  0
SPLINE
  5
CC
330
1F
100
AcDbEntity
  8
0
  6
Continuous
 62
     7
370
    25
100
AcDbSpline
210
0.0
220
0.0
230
1.0
 70
     8
 71
     3
 72
    14
 73
    10
 74
     0
 42
0.00000001
 43
0.00000001
 40
0.0
 40
0.0
 40
0.0
 40
0.0
 40
0.0704491734764169
 40
0.2560724963978656
 40
0.4416036312345731
 40
0.6271633501061934
 40
0.8127615440165082
 40
0.9983530495517473
 40
1.0
 40
1.0
 40
1.0
 40
1.0
 10
46.04857419689606
 20
118.2350840608313
 30
0.0
 10
46.04834228342354
 20
118.2321271992673
 30
0.0
 10
46.04749931169054
 20
118.2213794376565
 30
0.0
 10
46.06503028120673
 20
118.1997750113554
 30
0.0
 10
46.1012370653016
 20
118.1711467990313
 30
0.0
 10
46.15585190009921
 20
118.1398895350981
 30
0.0
 10
46.22962194262404
 20
118.1069790209315
 30
0.0
 10
46.28532387132843
 20
118.0841749569246
 30
0.0
 10
46.32053410489217
 20
118.0721625684245
 30
0.0
 10
46.32084381429265
 20
118.0720569073918
 30
0.0
  0
SPLINE
  5
CD
330
1F
100
AcDbEntity
  8
0
  6
Continuous
 62
     7
370
    25
100
AcDbSpline
210
0.0
220
0.0
230
1.0
 70
     8
 71
     3
 72
    40
 73
    36
 74
     0
 42
0.00000001
 43
0.00000001
 40
0.0
 40
0.0
 40
0.0
 40
0.0
 40
0.019537806464974
 40
0.0509286209950133
 40
0.0823081431299781
 40
0.1136958252500618
 40
0.1450789808458708
 40
0.1764823328524534
 40
0.2078689120373956
 40
0.2392669191524629
 40
0.2706451519168482
 40
0.3020384461157914
 40
0.3334256820625278
 40
0.3648259908275221
 40
0.3962153735595061
 40
0.427603740610682
 40
0.4589990790450287
 40
0.4903789652208975
 40
0.5217717713422764
 40
0.553163607733701
 40
0.5845603042561968
 40
0.6159308827930259
 40
0.6473250571287709
 40
0.6787156193258835
 40
0.710103515124688
 40
0.741501775707311
 40
0.7728880370077248
 40
0.8042888054543413
 40
0.835665533368365
 40
0.8670521094294262
 40
0.8984428136787919
 40
0.9298394858715949
 40
0.9612362907460074
 40
0.9926196208929129
 40
1.0
 40
1.0
 40
1.0
 40
1.0
 10
46.18643456703385
 20
118.1770098239212
 30
0.0
 10
46.18580332742481
 20
118.1816774657826
 30
0.0
 10
46.1841578938464
 20
118.1938444694699
 30
0.0
 10
46.20057539358493
 20
118.2104679392708
 30
0.0
 10
46.23386537672999
 20
118.2272133891954
 30
0.0
 10
46.28409086412982
 20
118.2406190602231
 30
0.0
 10
46.35065296435373
 20
118.2511245144879
 30
0.0
 10
46.43247020867383
 20
118.2582269401524
 30
0.0
 10
46.52914949420661
 20
118.2621543347612
 30
0.0
 10
46.63969908348516
 20
118.2625869970365
 30
0.0
 10
46.76293202698572
 20
118.25980733401
 30
0.0
 10
46.89797654374684
 20
118.25362181188
 30
0.0
 10
47.04330731837062
 20
118.2441814993137
 30
0.0
 10
47.19772414155738
 20
118.2315245881932
 30
0.0
 10
47.35977712188204
 20
118.2158777653617
 30
0.0
 10
47.52786624762405
 20
118.1972691892581
 30
0.0
 10
47.7004584766288
 20
118.176113915389
 30
0.0
 10
47.87595242912284
 20
118.1520851383615
 30
0.0
 10
48.05273699243945
 20
118.1260913550637
 30
0.0
 10
48.2291180643457
 20
118.0977269501451
 30
0.0
 10
48.40348848111165
 20
118.0677502287366
 30
0.0
 10
48.57415440915005
 20
118.036154716879
 30
0.0
 10
48.73956174196046
 20
118.0033596907733
 30
0.0
 10
48.89821069234755
 20
117.969652928237
 30
0.0
 10
49.0486240177154
 20
117.9352213277159
 30
0.0
 10
49.1892812655386
 20
117.900660814466
 30
0.0
 10
49.31898921427968
 20
117.8658823152858
 30
0.0
 10
49.43646503001909
 20
117.8318019794038
 30
0.0
 10
49.5405388935103
 20
117.7981295948286
 30
0.0
 10
49.63055177437518
 20
117.765514338895
 30
0.0
 10
49.70525597552093
 20
117.7343108711164
 30
0.0
 10
49.76441228462942
 20
117.7045117243176
 30
0.0
 10
49.80605592568924
 20
117.6768412162164
 30
0.0
 10
49.82827716296469
 20
117.6572539755443
 30
0.0
 10
49.83132352335408
 20
117.647713949095
 30
0.0
 10
49.83190353220781
 20
117.645897584943
 30
0.0
  0
SPLINE
  5
CE
330
1F
100
AcDbEntity
  8
0
  6
Continuous
 62
     7
370
    25
100
AcDbSpline
210
0.0
220
0.0
230
1.0
 70
     8
 71
     3
 72
    30
 73
    26
 74
     0
 42
0.00000001
 43
0.00000001
 40
0.0
 40
0.0
 40
0.0
 40
0.0
 40
0.0446281681143
 40
0.0893641937666873
 40
0.1340970269788519
 40
0.1788418008840604
 40
0.2235965674177611
 40
0.2683349279904771
 40
0.3130809670681685
 40
0.357822056953338
 40
0.4025574767342854
 40
0.44729358841528
 40
0.4920329321765815
 40
0.5367691408369943
 40
0.5815173435460814
 40
0.62626130715935
 40
0.6710109567233078
 40
0.7157459226755275
 40
0.7604948711300514
 40
0.8052286270643342
 40
0.8499577504733158
 40
0.894696885451616
 40
0.939448058273476
 40
0.9841934337696361
 40
1.0
 40
1.0
 40
1.0
 40
1.0
 10
46.43824680874168
 20
118.0260273247386
 30
0.0
 10
46.46951177109285
 20
118.0151264548465
 30
0.0
 10
46.53211725708326
 20
117.9932983697955
 30
0.0
 10
46.64382591672746
 20
117.9591559005057
 30
0.0
 10
46.76725216926479
 20
117.9248146772025
 30
0.0
 10
46.90271326356985
 20
117.8900698985728
 30
0.0
 10
47.04839470276647
 20
117.8556732780961
 30
0.0
 10
47.20307142403073
 20
117.8213658489129
 30
0.0
 10
47.36534381172245
 20
117.7882046971309
 30
0.0
 10
47.53361797011063
 20
117.7559717479662
 30
0.0
 10
47.70628283623937
 20
117.7250038410292
 30
0.0
 10
47.88188548927833
 20
117.6959539519487
 30
0.0
 10
48.05862783496637
 20
117.6685767628722
 30
0.0
 10
48.23499880460928
 20
117.6437053700716
 30
0.0
 10
48.40924312016958
 20
117.620990746701
 30
0.0
 10
48.57984553026752
 20
117.6010396000083
 30
0.0
 10
48.74504484754345
 20
117.5839401243066
 30
0.0
 10
48.90348552271601
 20
117.5697060830989
 30
0.0
 10
49.05345915125617
 20
117.5587476777891
 30
0.0
 10
49.19390413640967
 20
117.5509680951874
 30
0.0
 10
49.32301369633886
 20
117.5463930588376
 30
0.0
 10
49.4403466266411
 20
117.5451689555511
 30
0.0
 10
49.54319532844162
 20
117.5476516572142
 30
0.0
 10
49.61581607137703
 20
117.5514522033026
 30
0.0
 10
49.64844925784666
 20
117.5555743609094
 30
0.0
 10
49.65696787192463
 20
117.5566504148783
 30
0.0
  0
SPLINE
  5
CF
330
1F
100
AcDbEntity
  8
0
  6
Continuous
 62
     7
370
    25
100
AcDbSpline
210
0.0
220
0.0
230
1.0
 70
     8
 71
     3
 72
    13
 73
     9
 74
     0
 42
0.00000001
 43
0.00000001
 40
0.0
 40
0.0
 40
0.0
 40
0.0
 40
0.119635414277667
 40
0.3045587512301411
 40
0.4893255718529219
 40
0.6741648444860764
 40
0.8590057193483444
 40
1.0
 40
1.0
 40
1.0
 40
1.0
 10
49.79183290511175
 20
117.5658528514137
 30
0.0
 10
49.8097023583589
 20
117.567782915742
 30
0.0
 10
49.85519305523139
 20
117.5726963269185
 30
0.0
 10
49.90906346357347
 20
117.5844454452405
 30
0.0
 10
49.95498587086784
 20
117.6006012155242
 30
0.0
 10
49.98174086657873
 20
117.6201494425862
 30
0.0
 10
49.99154159732157
 20
117.6404293127867
 30
0.0
 10
49.98396441227118
 20
117.6555238049459
 30
0.0
 10
49.98068563851867
 20
117.6620554422716
 30
0.0
  0
SPLINE
  5
D0
330
1F
100
AcDbEntity
  8
0
  6
Continuous
 62
     7
370
    25
100
AcDbSpline
210
0.0
220
0.0
230
1.0
 70
     8
 71
     3
 72
     9
 73
     5
 74
     0
 42
0.00000001
 43
0.00000001
 40
0.0
 40
0.0
 40
0.0
 40
0.0
 40
0.0088542014743347
 40
1.0
 40
1.0
 40
1.0
 40
1.0
 10
46.32084381429265
 20
118.0720569073918
 30
0.0
 10
46.32116888127006
 20
118.071928637789
 30
0.0
 10
46.35788218380148
 20
118.0574417748929
 30
0.0
 10
46.39824317846079
 20
118.0416647031297
 30
0.0
 10
46.43824680874168
 20
118.0260273247386
 30
0.0
  0
SPLINE
  5
D1
330
1F
100
AcDbEntity
  8
0
  6
Continuous
 62
     7
370
    25
100
AcDbSpline
210
0.0
220
0.0
230
1.0
 70
     8
 71
     3
 72
     9
 73
     5
 74
     0
 42
0.00000001
 43
0.00000001
 40
0.0
 40
0.0
 40
0.0
 40
0.0
 40
0.6471295142670658
 40
1.0
 40
1.0
 40
1.0
 40
1.0
 10
49.65696787192463
 20
117.5566504148783
 30
0.0
 10
49.68521511994224
 20
117.558526745814
 30
0.0
 10
49.7288651890472
 20
117.5614262132225
 30
0.0
 10
49.77540897629704
 20
117.5646982471961
 30
0.0
 10
49.79183290511175
 20
117.5658528514137
 30
0.0
  0
LINE
  5
D2
330
1F
100
AcDbEntity
  8
0
  6
Continuous
 62
     7
370
    25
100
AcDbLine
 10
49.8319035322
 20
117.6458975849
 30
0.0
 11
49.8311933655
 21
117.6529202874
 31
0.0
  0
SPLINE
  5
D3
330
1F
100
AcDbEntity
  8
0
  6
Continuous
 62
     7
370
    25
100
AcDbSpline
210
0.0
220
0.0
230
1.0
 70
     8
 71
     3
 72
   132
 73
   128
 74
     0
 42
0.00000001
 43
0.00000001
 40
0.0
 40
0.0
 40
0.0
 40
0.0
 40
0.0221082419438272
 40
0.0932990321958282
 40
0.115393195791307
 40
0.1865907788650109
 40
0.2086349085382175
 40
0.2798833384377258
 40
0.301657061598706
 40
0.3731765778749356
 40
0.394136502896246
 40
0.4617356454878294
 40
0.4623107805300014
 40
0.4624447388538374
 40
0.4630398208260484
 40
0.4631221071608189
 40
0.4637289581604891
 40
0.4637542828645356
 40
0.4640938499542132
 40
0.4643463523119034
 40
0.4643670056895486
 40
0.4649767297816746
 40
0.4651162454450609
 40
0.4655939741028758
 40
0.4659106546293694
 40
0.466237923880559
 40
0.4668777279703072
 40
0.4670403955426554
 40
0.4674805096565011
 40
0.4681188692272722
 40
0.469572395808579
 40
0.4697422993910932
 40
0.4698450850752505
 40
0.4702125603922013
 40
0.4721096390028485
 40
0.4730730591523143
 40
0.4743409425548561
 40
0.4748407873844863
 40
0.4765615228322986
 40
0.4777905140225721
 40
0.478772055527852
 40
0.480472010319739
 40
0.4809785893999663
 40
0.4829989885505679
 40
0.4831728057104999
 40
0.4842417425949607
 40
0.485366547544089
 40
0.4855450431058198
 40
0.487561605473748
 40
0.4878386854679282
 40
0.4897485754853362
 40
0.490149452323317
 40
0.4919336085967609
 40
0.4925341282737606
 40
0.494123260578649
 40
0.4946568977545425
 40
0.4963049310441928
 40
0.496856469128309
 40
0.4984929840742222
 40
0.4991653247863492
 40
0.5006720546722545
 40
0.5013344270350489
 40
0.5028595300995437
 40
0.5035172123595457
 40
0.5050426616902859
 40
0.5056184217031332
 40
0.5072301273422308
 40
0.5077346316264195
 40
0.5094150575860362
 40
0.5098914358910884
 40
0.5116004894786487
 40
0.5119124561138934
 40
0.5137935014271797
 40
0.5140426208773288
 40
0.5152871373459471
 40
0.5159103858999976
 40
0.5159897481558773
 40
0.5179693419420535
 40
0.5181853481001698
 40
0.5199588993842752
 40
0.5203835615830453
 40
0.5218578193045104
 40
0.5225920707520936
 40
0.5236726957673138
 40
0.5248087783111677
 40
0.5254122144465478
 40
0.5266267644411863
 40
0.5269200960247679
 40
0.5270372895229394
 40
0.5285190264862232
 40
0.5292884308414016
 40
0.5298053000734889
 40
0.5302428784724492
 40
0.5309195547236634
 40
0.5315929095522292
 40
0.5318392592880413
 40
0.5319394838164798
 40
0.532622371635361
 40
0.5329597596095088
 40
0.533279609651664
 40
0.5337574824149737
 40
0.5338543820355244
 40
0.5342581211100067
 40
0.5344011966960949
 40
0.5344253812783064
 40
0.5349384522222647
 40
0.535044451450348
 40
0.5354647103577279
 40
0.5356394763257142
 40
0.5360091221230017
 40
0.5362402373907732
 40
0.5365859060644794
 40
0.536876798063055
 40
0.5371952822860393
 40
0.5375559643949599
 40
0.5378520615190722
 40
0.5382658548002294
 40
0.5925069351010965
 40
0.6268275297909873
 40
0.6845729427309724
 40
0.72012074266487
 40
0.7780979643845509
 40
0.8134143195717065
 40
0.8713536012231679
 40
0.9067081392563873
 40
0.9645542350136352
 40
1.0
 40
1.0
 40
1.0
 40
1.0
 10
49.98068563851867
 20
117.6620554422716
 30
0.0
 10
49.9702343965309
 20
117.7651922706208
 30
0.0
 10
49.9261290911348
 20
118.2004401882608
 30
0.0
 10
49.8732390669856
 20
118.7343741398168
 30
0.0
 10
49.79526645497268
 20
119.5022714445666
 30
0.0
 10
49.74245574760968
 20
120.0356581685674
 30
0.0
 10
49.66437287999261
 20
120.8037000268396
 30
0.0
 10
49.61179242211894
 20
121.3358454664412
 30
0.0
 10
49.53364429298998
 20
122.1041063549703
 30
0.0
 10
49.4821982485171
 20
122.6322974775433
 30
0.0
 10
49.40430350228432
 20
123.3799514237082
 30
0.0
 10
49.37464161047851
 20
123.7907350780551
 30
0.0
 10
49.33241988856985
 20
124.1103533057056
 30
0.0
 10
49.33171177408523
 20
124.1164766399152
 30
0.0
 10
49.33095272191556
 20
124.1201909436483
 30
0.0
 10
49.32998669609697
 20
124.1261697334448
 30
0.0
 10
49.32904422815062
 20
124.1293362584327
 30
0.0
 10
49.32807520473366
 20
124.1337908652295
 30
0.0
 10
49.32716849822369
 20
124.1365096558019
 30
0.0
 10
49.32647288064135
 20
124.13938695053
 30
0.0
 10
49.32494043452596
 20
124.1430163597605
 30
0.0
 10
49.32385185435555
 20
124.1462124208065
 30
0.0
 10
49.32157920122178
 20
124.1505727409201
 30
0.0
 10
49.31963980601252
 20
124.1545924771563
 30
0.0
 10
49.31757715110422
 20
124.1574795900211
 30
0.0
 10
49.3146328233844
 20
124.1627442685987
 30
0.0
 10
49.31283058519022
 20
124.1644074651526
 30
0.0
 10
49.31003051546329
 20
124.1681626850282
 30
0.0
 10
49.30802835618569
 20
124.170018369032
 30
0.0
 10
49.30207529427256
 20
124.1751927315246
 30
0.0
 10
49.29868031255962
 20
124.1771392797795
 30
0.0
 10
49.29507462920802
 20
124.1798578458269
 30
0.0
 10
49.29402681222116
 20
124.1805021545744
 30
0.0
 10
49.28899068603736
 20
124.1829711575298
 30
0.0
 10
49.28315141847917
 20
124.1865112146765
 30
0.0
 10
49.27354142420396
 20
124.1904862361692
 30
0.0
 10
49.26792099120723
 20
124.1929307750833
 30
0.0
 10
49.25932634909544
 20
124.1959618181159
 30
0.0
 10
49.25075560907856
 20
124.1993764568036
 30
0.0
 10
49.23930640512469
 20
124.2028631617476
 30
0.0
 10
49.2284206077326
 20
124.2064792273191
 30
0.0
 10
49.2177978156836
 20
124.2094899304828
 30
0.0
 10
49.20424856655197
 20
124.2135644210457
 30
0.0
 10
49.19438491275643
 20
124.2159479584393
 30
0.0
 10
49.18312068900923
 20
124.2190018125946
 30
0.0
 10
49.1736988157048
 20
124.221248376724
 30
0.0
 10
49.16520668784937
 20
124.223461841581
 30
0.0
 10
49.15187061371861
 20
124.2264609192561
 30
0.0
 10
49.14251658188694
 20
124.2287421180216
 30
0.0
 10
49.12469676863405
 20
124.2325095834919
 30
0.0
 10
49.11412987147187
 20
124.2348214337312
 30
0.0
 10
49.09617878883983
 20
124.238386292718
 30
0.0
 10
49.08417216610292
 20
124.2408819909701
 30
0.0
 10
49.06611024598108
 20
124.2441036372914
 30
0.0
 10
49.05406087080434
 20
124.2465105135102
 30
0.0
 10
49.03665903613602
 20
124.2494513169123
 30
0.0
 10
49.02414134778702
 20
124.2516689913756
 30
0.0
 10
49.00627370434026
 20
124.254554943301
 30
0.0
 10
48.99295553670411
 20
124.2567566202795
 30
0.0
 10
48.975163598561
 20
124.2592921359166
 30
0.0
 10
48.96185101388068
 20
124.2614141230392
 30
0.0
 10
48.9447780777607
 20
124.2636603607176
 30
0.0
 10
48.93146241502563
 20
124.265601488763
 30
0.0
 10
48.91463934196827
 20
124.2676023615259
 30
0.0
 10
48.9018255167143
 20
124.2693351814255
 30
0.0
 10
48.88547957581985
 20
124.271108559792
 30
0.0
 10
48.87309528685041
 20
124.2725702257724
 30
0.0
 10
48.85711842137535
 20
124.2740305142019
 30
0.0
 10
48.84517146411675
 20
124.2753554012997
 30
0.0
 10
48.8297411022584
 20
124.276506563318
 30
0.0
 10
48.81886740055985
 20
124.2775798864054
 30
0.0
 10
48.80397070897671
 20
124.2785616245381
 30
0.0
 10
48.79390492508461
 20
124.2792922552182
 30
0.0
 10
48.78204328417694
 20
124.2797668419624
 30
0.0
 10
48.77402778600795
 20
124.2802729888228
 30
0.0
 10
48.76704583753842
 20
124.2805790048079
 30
0.0
 10
48.75725390538862
 20
124.281033725585
 30
0.0
 10
48.75073154915832
 20
124.2809736059766
 30
0.0
 10
48.73719884395564
 20
124.2812739945185
 30
0.0
 10
48.73094747829744
 20
124.2810818029197
 30
0.0
 10
48.71940070766708
 20
124.2810757713169
 30
0.0
 10
48.71346988125653
 20
124.2806213175405
 30
0.0
 10
48.70384428219938
 20
124.2804024625628
 30
0.0
 10
48.69806749983105
 20
124.2796702197525
 30
0.0
 10
48.69019453745647
 20
124.2792647426617
 30
0.0
 10
48.68536650265563
 20
124.2783273443955
 30
0.0
 10
48.68027729266459
 20
124.2778090872587
 30
0.0
 10
48.67716744279427
 20
124.2772658075839
 30
0.0
 10
48.67294229876943
 20
124.2765822809924
 30
0.0
 10
48.67110567886673
 20
124.2755764204865
 30
0.0
 10
48.66442581689557
 20
124.2741697522991
 30
0.0
 10
48.66284578630328
 20
124.2733042590632
 30
0.0
 10
48.65952657427551
 20
124.2722832059636
 30
0.0
 10
48.65757493957393
 20
124.2711519425702
 30
0.0
 10
48.65338147400049
 20
124.2696276587962
 30
0.0
 10
48.65253155052753
 20
124.2688566381814
 30
0.0
 10
48.65008624265302
 20
124.2676050357608
 30
0.0
 10
48.64913136769519
 20
124.2664778351982
 30
0.0
 10
48.64527027640642
 20
124.2641810149605
 30
0.0
 10
48.64351620420499
 20
124.2625213048259
 30
0.0
 10
48.64070367373967
 20
124.2605021839436
 30
0.0
 10
48.6386257772619
 20
124.2583593897885
 30
0.0
 10
48.63645478054026
 20
124.2565196744706
 30
0.0
 10
48.63542657830719
 20
124.2551944085699
 30
0.0
 10
48.63335487085432
 20
124.2530851334025
 30
0.0
 10
48.63235572590762
 20
124.251298398594
 30
0.0
 10
48.62938512696797
 20
124.2477933076447
 30
0.0
 10
48.62794310707724
 20
124.2452374052505
 30
0.0
 10
48.62534809198187
 20
124.2417126630966
 30
0.0
 10
48.6236153063658
 20
124.2386495829803
 30
0.0
 10
48.62121225855267
 20
124.2349512642755
 30
0.0
 10
48.61941674938701
 20
124.2314020480019
 30
0.0
 10
48.61721547705148
 20
124.2275234321021
 30
0.0
 10
48.61533057616501
 20
124.2234149210218
 30
0.0
 10
48.61322225500542
 20
124.2193608546459
 30
0.0
 10
48.61124049868415
 20
124.2147079043153
 30
0.0
 10
48.50634567509962
 20
123.9778235711933
 30
0.0
 10
48.34603107355255
 20
123.5921480938243
 30
0.0
 10
48.07429139331465
 20
122.9637885276698
 30
0.0
 10
47.83884757618606
 20
122.4104918276372
 30
0.0
 10
47.55908466956632
 20
121.7609091269517
 30
0.0
 10
47.3210262613139
 20
121.2022363778633
 30
0.0
 10
47.04143307611478
 20
120.5528689838075
 30
0.0
 10
46.80377968578529
 20
119.9952035795387
 30
0.0
 10
46.52435644784566
 20
119.3461936761539
 30
0.0
 10
46.28654830729992
 20
118.7887162409129
 30
0.0
 10
46.11409641188476
 20
118.3875174775017
 30
0.0
 10
46.04857419689606
 20
118.2350840608313
 30
0.0
  0
SPLINE
  5
D4
330
1F
100
AcDbEntity
  8
0
  6
Continuous
 62
     7
370
    25
100
AcDbSpline
210
0.0
220
0.0
230
1.0
 70
     8
 71
     3
 72
     9
 73
     5
 74
     0
 42
0.00000001
 43
0.00000001
 40
0.0
 40
0.0
 40
0.0
 40
0.0
 40
0.4363676763609217
 40
1.0
 40
1.0
 40
1.0
 40
1.0
 10
56.3143108146642
 20
107.9408858441229
 30
0.0
 10
56.31573099758955
 20
107.9393555640931
 30
0.0
 10
56.31898555332837
 20
107.9358487048258
 30
0.0
 10
56.33491564210259
 20
107.9267079191176
 30
0.0
 10
56.34389435505419
 20
107.921555876829
 30
0.0
  0
SPLINE
  5
D5
330
1F
100
AcDbEntity
  8
0
  6
Continuous
 62
     7
370
    25
100
AcDbSpline
210
0.0
220
0.0
230
1.0
 70
     8
 71
     3
 72
    40
 73
    36
 74
     0
 42
0.00000001
 43
0.00000001
 40
0.0
 40
0.0
 40
0.0
 40
0.0
 40
0.0107544622631799
 40
0.0417009726520437
 40
0.0726460375682079
 40
0.1035847190875543
 40
0.1345326107859901
 40
0.1654576246990834
 40
0.1964036616775163
 40
0.2273520705667331
 40
0.2582921952937012
 40
0.2892368663930737
 40
0.3201810236799326
 40
0.3511177055127063
 40
0.3820626963866393
 40
0.4130020883875868
 40
0.4439502801744735
 40
0.474888095027421
 40
0.5058302391818685
 40
0.5367689956870841
 40
0.5677175513136558
 40
0.5986567368176573
 40
0.6296004197023379
 40
0.6605348171400071
 40
0.6914811780381892
 40
0.7224226023579522
 40
0.7533662011820426
 40
0.7843025668032915
 40
0.815248101529412
 40
0.8461854469400687
 40
0.8771234690469832
 40
0.9080677297759872
 40
0.9390071058363024
 40
0.9699477365678947
 40
1.0
 40
1.0
 40
1.0
 40
1.0
 10
56.43180711689175
 20
107.8482152440983
 30
0.0
 10
56.43050155140561
 20
107.8492377349747
 30
0.0
 10
56.42543915504394
 20
107.853202495186
 30
0.0
 10
56.43283588723694
 20
107.8529271464327
 30
0.0
 10
56.45406777556582
 20
107.8473485361082
 30
0.0
 10
56.4916913870136
 20
107.8344819358075
 30
0.0
 10
56.54459435336618
 20
107.8148129939297
 30
0.0
 10
56.61199494597445
 20
107.7884049474829
 30
0.0
 10
56.69349175218345
 20
107.7556783822329
 30
0.0
 10
56.78825933077238
 20
107.7168566838257
 30
0.0
 10
56.89559857704722
 20
107.6722680826642
 30
0.0
 10
57.01418239355442
 20
107.6224331179253
 30
0.0
 10
57.14315948129556
 20
107.5676455878757
 30
0.0
 10
57.28133226590798
 20
107.5086709287959
 30
0.0
 10
57.42714376596999
 20
107.4457589442705
 30
0.0
 10
57.579559558364
 20
107.3797717795843
 30
0.0
 10
57.73687085236466
 20
107.3110606424826
 30
0.0
 10
57.89787685751627
 20
107.2406163888853
 30
0.0
 10
58.06083873735976
 20
107.1686978102325
 30
0.0
 10
58.22431952898893
 20
107.0960973384821
 30
0.0
 10
58.38698115712817
 20
107.0239368730754
 30
0.0
 10
58.5469203042357
 20
106.9520587333402
 30
0.0
 10
58.70303591511356
 20
106.8819555129411
 30
0.0
 10
58.85351219078439
 20
106.8136864619181
 30
0.0
 10
58.9973473038881
 20
106.7483155712945
 30
0.0
 10
59.132728717973
 20
106.6860407521424
 30
0.0
 10
59.25884379773252
 20
106.6277975616884
 30
0.0
 10
59.37416937835441
 20
106.5739150468864
 30
0.0
 10
59.47783192265746
 20
106.5250470243076
 30
0.0
 10
59.56889878387693
 20
106.4815496986604
 30
0.0
 10
59.64623894063944
 20
106.4439017015071
 30
0.0
 10
59.7094650867921
 20
106.4122249875859
 30
0.0
 10
59.75754350129665
 20
106.387382835351
 30
0.0
 10
59.79115081899981
 20
106.3686991447792
 30
0.0
 10
59.80041955488599
 20
106.3620899362927
 30
0.0
 10
59.8049864228196
 20
106.3588334639242
 30
0.0
  0
SPLINE
  5
D6
330
1F
100
AcDbEntity
  8
0
  6
Continuous
 62
     7
370
    25
100
AcDbSpline
210
0.0
220
0.0
230
1.0
 70
     8
 71
     3
 72
    10
 73
     6
 74
     0
 42
0.00000001
 43
0.00000001
 40
0.0
 40
0.0
 40
0.0
 40
0.0
 40
0.308587897159415
 40
0.979034653949875
 40
1.0
 40
1.0
 40
1.0
 40
1.0
 10
59.94795211432855
 20
106.3302585389326
 30
0.0
 10
59.95055514110371
 20
106.3297428983916
 30
0.0
 10
59.95881357716517
 20
106.3281069626882
 30
0.0
 10
59.9593167410828
 20
106.3299636898683
 30
0.0
 10
59.95283335011724
 20
106.3342617722211
 30
0.0
 10
59.95263675747066
 20
106.3343921008391
 30
0.0
  0
SPLINE
  5
D7
330
1F
100
AcDbEntity
  8
0
  6
Continuous
 62
     7
370
    25
100
AcDbSpline
210
0.0
220
0.0
230
1.0
 70
     8
 71
     3
 72
    38
 73
    34
 74
     0
 42
0.00000001
 43
0.00000001
 40
0.0
 40
0.0
 40
0.0
 40
0.0
 40
0.0051433564408983
 40
0.0388304933612811
 40
0.0725099913525015
 40
0.1061891742872017
 40
0.1398709643569214
 40
0.1735533012401996
 40
0.2072334702128479
 40
0.2409141281158224
 40
0.274582873106002
 40
0.3082690030387109
 40
0.3419460252328349
 40
0.375623081072806
 40
0.4093220921781421
 40
0.442996420912679
 40
0.4766776448526175
 40
0.5103515306361271
 40
0.5440356838938839
 40
0.5777181854111502
 40
0.6114115223076978
 40
0.6450841372008859
 40
0.6787612327095897
 40
0.7124467249423705
 40
0.7461286295892051
 40
0.7797994840179054
 40
0.8134892220138963
 40
0.8471733787346635
 40
0.8808412615746648
 40
0.9145172052486221
 40
0.9482062581263474
 40
0.9818916412541943
 40
1.0
 40
1.0
 40
1.0
 40
1.0
 10
56.45928920449262
 20
107.8302920074137
 30
0.0
 10
56.46052172247853
 20
107.8295509242757
 30
0.0
 10
56.4698267904861
 20
107.8239560128209
 30
0.0
 10
56.50212998150661
 20
107.8068699846194
 30
0.0
 10
56.55694386956203
 20
107.7790592838188
 30
0.0
 10
56.62752051902837
 20
107.7442276514863
 30
0.0
 10
56.71172007815742
 20
107.7036813803717
 30
0.0
 10
56.80929243085478
 20
107.6574634652588
 30
0.0
 10
56.91888984329022
 20
107.6059271393951
 30
0.0
 10
57.03967415386166
 20
107.5498640499685
 30
0.0
 10
57.17069520642593
 20
107.489602778862
 30
0.0
 10
57.3104515079067
 20
107.4257341555158
 30
0.0
 10
57.45770111176376
 20
107.3587901545627
 30
0.0
 10
57.61121832125517
 20
107.2894813717433
 30
0.0
 10
57.76946963625994
 20
107.2184952674822
 30
0.0
 10
57.93094536683898
 20
107.1462704029133
 30
0.0
 10
58.09417917695469
 20
107.0738320445391
 30
0.0
 10
58.25759867354714
 20
107.001501414396
 30
0.0
 10
58.41982354468275
 20
106.9303795563839
 30
0.0
 10
58.57914870575061
 20
106.8605279679699
 30
0.0
 10
58.73422231596977
 20
106.7932395108188
 30
0.0
 10
58.88350100110021
 20
106.7286341690695
 30
0.0
 10
59.02564076315087
 20
106.6676920580375
 30
0.0
 10
59.1592652348436
 20
106.6106044227547
 30
0.0
 10
59.28326387050868
 20
106.558374172785
 30
0.0
 10
59.39630898115766
 20
106.5110673742647
 30
0.0
 10
59.49755717368975
 20
106.4693339725216
 30
0.0
 10
59.58585626854966
 20
106.4334734455705
 30
0.0
 10
59.66022633456461
 20
106.4039102869283
 30
0.0
 10
59.72070855957469
 20
106.3807839462075
 30
0.0
 10
59.76523880146286
 20
106.3647694166515
 30
0.0
 10
59.79237770449966
 20
106.3559719068703
 30
0.0
 10
59.79844358950317
 20
106.3552693848808
 30
0.0
 10
59.8005643712382
 20
106.3550237660134
 30
0.0
  0
SPLINE
  5
D8
330
1F
100
AcDbEntity
  8
0
  6
Continuous
 62
     7
370
    25
100
AcDbSpline
210
0.0
220
0.0
230
1.0
 70
     8
 71
     3
 72
     9
 73
     5
 74
     0
 42
0.00000001
 43
0.00000001
 40
0.0
 40
0.0
 40
0.0
 40
0.0
 40
0.8473487259964608
 40
1.0
 40
1.0
 40
1.0
 40
1.0
 10
56.34389435505419
 20
107.921555876829
 30
0.0
 10
56.37619853740128
 20
107.8959518153523
 30
0.0
 10
56.41432237161028
 20
107.8657351398665
 30
0.0
 10
56.45333402578228
 20
107.834985915663
 30
0.0
 10
56.45928920449262
 20
107.8302920074137
 30
0.0
  0
SPLINE
  5
D9
330
1F
100
AcDbEntity
  8
0
  6
Continuous
 62
     7
370
    25
100
AcDbSpline
210
0.0
220
0.0
230
1.0
 70
     8
 71
     3
 72
     9
 73
     5
 74
     0
 42
0.00000001
 43
0.00000001
 40
0.0
 40
0.0
 40
0.0
 40
0.0
 40
0.4613365616746847
 40
1.0
 40
1.0
 40
1.0
 40
1.0
 10
59.8005643712382
 20
106.3550237660134
 30
0.0
 10
59.8231037672516
 20
106.3512375073895
 30
0.0
 10
59.87196049764295
 20
106.3430303568223
 30
0.0
 10
59.92134856704968
 20
106.3347297645215
 30
0.0
 10
59.94795211432855
 20
106.3302585389326
 30
0.0
  0
LINE
  5
DA
330
1F
100
AcDbEntity
  8
0
  6
Continuous
 62
     7
370
    25
100
AcDbLine
 10
56.4334215878
 20
107.8502603287
 30
0.0
 11
56.4318071169
 21
107.8482152441
 31
0.0
  0
SPLINE
  5
DB
330
1F
100
AcDbEntity
  8
0
  6
Continuous
 62
     7
370
    25
100
AcDbSpline
210
0.0
220
0.0
230
1.0
 70
    11
 71
     3
 72
    15
 73
    11
 74
     0
 42
0.00000001
 43
0.00000001
 40
0.0
 40
0.0
 40
0.0
 40
0.0
 40
0.090734242178004
 40
0.0943295872439792
 40
0.0945724014613429
 40
0.3132466150180063
 40
0.3365507207733093
 40
0.500504238795398
 40
0.8967017382045696
 40
1.0
 40
1.0
 40
1.0
 40
1.0
 10
60.80872564954668
 20
112.957202501688
 30
0.0
 10
60.80545900479417
 20
112.9586760674804
 30
0.0
 10
60.80206291921742
 20
112.960208023329
 30
0.0
 10
60.79860194913703
 20
112.9617602787665
 30
0.0
 10
60.79039004829709
 20
112.9654662023827
 30
0.0
 10
60.78095693669391
 20
112.969662806558
 30
0.0
 10
60.76602096108356
 20
112.9763681274459
 30
0.0
 10
60.73148868670757
 20
112.991696421973
 30
0.0
 10
60.78900711181005
 20
112.9660922170139
 30
0.0
 10
60.80534656714769
 20
112.9587258945984
 30
0.0
 10
60.80872564954668
 20
112.957202501688
 30
0.0
  0
SPLINE
  5
DC
330
1F
100
AcDbEntity
  8
0
  6
Continuous
 62
     7
370
    25
100
AcDbSpline
210
0.0
220
0.0
230
1.0
 70
     8
 71
     3
 72
    58
 73
    54
 74
     0
 42
0.00000001
 43
0.00000001
 40
0.0
 40
0.0
 40
0.0
 40
0.0
 40
0.1836133903304936
 40
0.1894195757420258
 40
0.3727102417089661
 40
0.3788379650643781
 40
0.5629299023266158
 40
0.5682595553886363
 40
0.7509793150043221
 40
0.757675215620261
 40
0.9306324604715771
 40
0.9374960423064034
 40
0.9375520052061006
 40
0.9389167845810001
 40
0.9389865120215518
 40
0.9402495677789131
 40
0.9403353811496482
 40
0.9415008048544647
 40
0.9416030787633402
 40
0.9426611781283447
 40
0.9427956869014078
 40
0.9437307302803482
 40
0.9439028529051312
 40
0.944738342293714
 40
0.9449710709533984
 40
0.9457191487455492
 40
0.9460708108762068
 40
0.9466676738716977
 40
0.947132951392465
 40
0.9476378454370865
 40
0.948539398857607
 40
0.9488748212854765
 40
0.9506017979242432
 40
0.9507773811801239
 40
0.9551578399368137
 40
0.9561109128272
 40
0.9596101775187409
 40
0.9609205905238707
 40
0.9640359990598746
 40
0.9667629060836292
 40
0.9684485473932299
 40
0.9718429195437015
 40
0.9728546642640078
 40
0.9763990886816045
 40
0.9772551730969347
 40
0.9814080449399312
 40
0.9816401102707416
 40
0.9859072666298171
 40
0.986035000138461
 40
0.9866300740147828
 40
0.9933868036318944
 40
0.9941706479455826
 40
1.0
 40
1.0
 40
1.0
 40
1.0
 10
59.95263675747067
 20
106.3343921008391
 30
0.0
 10
60.02274604962943
 20
106.7555718343307
 30
0.0
 10
60.09507232361404
 20
107.1900700279838
 30
0.0
 10
60.24039544753902
 20
108.0429334040942
 30
0.0
 10
60.31329858164466
 20
108.4917836580087
 30
0.0
 10
60.45899460643317
 20
109.3464700564531
 30
0.0
 10
60.53215956265242
 20
109.7960159199467
 30
0.0
 10
60.67726987597987
 20
110.6475740323397
 30
0.0
 10
60.74991739152712
 20
111.0953592335514
 30
0.0
 10
60.89146991137957
 20
111.9245133847992
 30
0.0
 10
60.95558395442544
 20
112.3544237709616
 30
0.0
 10
61.0316852911977
 20
112.7648517833337
 30
0.0
 10
61.03437747673964
 20
112.7839162508535
 30
0.0
 10
61.03499322972402
 20
112.787339017201
 30
0.0
 10
61.03556047932221
 20
112.7935793733318
 30
0.0
 10
61.03613659255966
 20
112.7968683934488
 30
0.0
 10
61.03633959255554
 20
112.8026638441355
 30
0.0
 10
61.03668912475533
 20
112.8058496653144
 30
0.0
 10
61.03648930593894
 20
112.8112019143349
 30
0.0
 10
61.03665762279678
 20
112.8142556833935
 30
0.0
 10
61.03619465932722
 20
112.8191066016153
 30
0.0
 10
61.03614311189445
 20
112.8221432841466
 30
0.0
 10
61.03529338108127
 20
112.8262841395752
 30
0.0
 10
61.03506406957419
 20
112.8295303118449
 30
0.0
 10
61.03391854233218
 20
112.8329049513291
 30
0.0
 10
61.03324590259052
 20
112.8365227009385
 30
0.0
 10
61.03194510744036
 20
112.8388806476088
 30
0.0
 10
61.03072152736355
 20
112.8427922013909
 30
0.0
 10
61.02941906212268
 20
112.8443917020931
 30
0.0
 10
61.02721104135878
 20
112.8490862991124
 30
0.0
 10
61.02628305336196
 20
112.8493743309806
 30
0.0
 10
61.02211075982776
 20
112.8552114666677
 30
0.0
 10
61.02105406871774
 20
112.8553955871391
 30
0.0
 10
61.01580224519181
 20
112.8596452067273
 30
0.0
 10
61.01276675087146
 20
112.8612184912306
 30
0.0
 10
61.0061222412717
 20
112.864924720715
 30
0.0
 10
61.00229679630796
 20
112.8668251799926
 30
0.0
 10
60.99544351005164
 20
112.8702923367695
 30
0.0
 10
60.98875678245192
 20
112.8737186432261
 30
0.0
 10
60.98084965077681
 20
112.8775644591657
 30
0.0
 10
60.97267656353009
 20
112.8816331016621
 30
0.0
 10
60.96491091454142
 20
112.8852684573622
 30
0.0
 10
60.95530053936754
 20
112.8899453246256
 30
0.0
 10
60.94767541291988
 20
112.8934497407596
 30
0.0
 10
60.93591993811908
 20
112.899069641473
 30
0.0
 10
60.92745773139817
 20
112.9029688093958
 30
0.0
 10
60.91410998042677
 20
112.9092112707223
 30
0.0
 10
60.90613670531881
 20
112.9128856722925
 30
0.0
 10
60.89793235878489
 20
112.9166919641157
 30
0.0
 10
60.88401324792174
 20
112.9230440386976
 30
0.0
 10
60.86986350566137
 20
112.929556307342
 30
0.0
 10
60.84461832896589
 20
112.9410658032245
 30
0.0
 10
60.8298921371146
 20
112.9474883760753
 30
0.0
 10
60.81691140103121
 20
112.9531496987033
 30
0.0
  0
SPLINE
  5
DD
330
1F
100
AcDbEntity
  8
0
  6
Continuous
 62
     7
370
    25
100
AcDbSpline
210
0.0
220
0.0
230
1.0
 70
     8
 71
     3
 72
    70
 73
    66
 74
     0
 42
0.00000001
 43
0.00000001
 40
0.0
 40
0.0
 40
0.0
 40
0.0
 40
0.0042685426511495
 40
0.0077355241190859
 40
0.0079442901142703
 40
0.0088573686164314
 40
0.008904794160937
 40
0.0132337108258994
 40
0.0132628438399291
 40
0.0174456625759399
 40
0.0176350272642673
 40
0.021790836993365
 40
0.0219901224460093
 40
0.0259608031857228
 40
0.0263661601122267
 40
0.0305169421146229
 40
0.0307349440280444
 40
0.03405742235917
 40
0.0351006968996239
 40
0.0382481120801226
 40
0.0394875178478308
 40
0.0420624192978187
 40
0.0438866530446402
 40
0.0458628089139282
 40
0.04830613396454
 40
0.0485848949060872
 40
0.0488798739345156
 40
0.0516311296885853
 40
0.0527998049762828
 40
0.0539038997970501
 40
0.0542828863519958
 40
0.0556510629596799
 40
0.0563219475458923
 40
0.0567207394108012
 40
0.0575326790128509
 40
0.0576336644844212
 40
0.0581988533844275
 40
0.0584809596525573
 40
0.0585101812307652
 40
0.059337048741197
 40
0.0594395108510286
 40
0.0602323604111958
 40
0.0604084344879282
 40
0.0611752186355066
 40
0.0613992859952875
 40
0.0621916090968621
 40
0.0624629426568609
 40
0.063291876436878
 40
0.0636248355881359
 40
0.0644716950635595
 40
0.0648447762258644
 40
0.0657438258046457
 40
0.0661753351689728
 40
0.0671096544306594
 40
0.0675982480556924
 40
0.1295722726898172
 40
0.2464391932037583
 40
0.3118510320590894
 40
0.4348316504228235
 40
0.4999544931050449
 40
0.6232180252358747
 40
0.6882885679807862
 40
0.8116111980073261
 40
0.8765741366132536
 40
1.0
 40
1.0
 40
1.0
 40
1.0
 10
60.59918311382693
 20
113.0492343169493
 30
0.0
 10
60.58301553724046
 20
113.0562809700335
 30
0.0
 10
60.55371638555032
 20
113.0690510321709
 30
0.0
 10
60.59629184029568
 20
113.0507743006205
 30
0.0
 10
60.58582997405648
 20
113.0553204701202
 30
0.0
 10
60.58386523797598
 20
113.0561517171303
 30
0.0
 10
60.57374706715814
 20
113.0605205450082
 30
0.0
 10
60.56637310178311
 20
113.0636997170502
 30
0.0
 10
60.55083017132064
 20
113.0702910173786
 30
0.0
 10
60.54393885408992
 20
113.0732127571432
 30
0.0
 10
60.52939732454607
 20
113.0794177265106
 30
0.0
 10
60.52317070634908
 20
113.0819782623809
 30
0.0
 10
60.50979817740983
 20
113.0875630766801
 30
0.0
 10
60.50421486847643
 20
113.0898831741313
 30
0.0
 10
60.49174975564895
 20
113.0950229348505
 30
0.0
 10
60.48726728466695
 20
113.0968155544397
 30
0.0
 10
60.47698039308624
 20
113.1010085427163
 30
0.0
 10
60.47248990652127
 20
113.1028058161401
 30
0.0
 10
60.46384056977558
 20
113.1063083118577
 30
0.0
 10
60.46025641589708
 20
113.1076491742989
 30
0.0
 10
60.45267986573775
 20
113.1106061722591
 30
0.0
 10
60.449913946777
 20
113.1116206239567
 30
0.0
 10
60.44360701233487
 20
113.1139716268477
 30
0.0
 10
60.44215258092185
 20
113.1143556818138
 30
0.0
 10
60.43679923332764
 20
113.1163397690259
 30
0.0
 10
60.43591185662765
 20
113.1166095457592
 30
0.0
 10
60.4334551464852
 20
113.1173454774744
 30
0.0
 10
60.43393530263144
 20
113.1170701374596
 30
0.0
 10
60.42812981918155
 20
113.1184427258365
 30
0.0
 10
60.42926347793198
 20
113.118088727504
 30
0.0
 10
60.42501509184885
 20
113.1188357319449
 30
0.0
 10
60.4267081491606
 20
113.1183310042247
 30
0.0
 10
60.42092476666311
 20
113.1186962243308
 30
0.0
 10
60.42029539102926
 20
113.1184566131559
 30
0.0
 10
60.41635662710366
 20
113.1181235930603
 30
0.0
 10
60.41487668262995
 20
113.1177174940202
 30
0.0
 10
60.41228576970879
 20
113.1171050354693
 30
0.0
 10
60.41107829206243
 20
113.1166418814244
 30
0.0
 10
60.4085095452606
 20
113.1159707903868
 30
0.0
 10
60.40734760678907
 20
113.1149714003516
 30
0.0
 10
60.40347729894501
 20
113.113545021694
 30
0.0
 10
60.40199114140459
 20
113.1122736701895
 30
0.0
 10
60.39826255053382
 20
113.1104479120848
 30
0.0
 10
60.39636185710039
 20
113.1087592028877
 30
0.0
 10
60.39281987489966
 20
113.1064828681412
 30
0.0
 10
60.39068446790156
 20
113.1045021227916
 30
0.0
 10
60.38714669215026
 20
113.101830804311
 30
0.0
 10
60.38488986798761
 20
113.099462848995
 30
0.0
 10
60.38136907023731
 20
113.0963418289169
 30
0.0
 10
60.37891692240676
 20
113.0936795245845
 30
0.0
 10
60.37538721379357
 20
113.0901997011577
 30
0.0
 10
60.37287359455576
 20
113.0871338632676
 30
0.0
 10
60.36929140436484
 20
113.0832336547662
 30
0.0
 10
60.36666313613215
 20
113.0798001404504
 30
0.0
 10
60.27218118397546
 20
112.9655061202415
 30
0.0
 10
60.01836462099192
 20
112.6317115632963
 30
0.0
 10
59.66076285742813
 20
112.1864708861764
 30
0.0
 10
59.22068460910759
 20
111.6245117018113
 30
0.0
 10
58.85220421064382
 20
111.1603109730466
 30
0.0
 10
58.40271474205326
 20
110.5875816231924
 30
0.0
 10
58.03450079500387
 20
110.123345703675
 30
0.0
 10
57.58460694498446
 20
109.5500759626925
 30
0.0
 10
57.21661233697885
 20
109.0859620313163
 30
0.0
 10
56.76641688624391
 20
108.5127727920556
 30
0.0
 10
56.49326834432117
 20
108.1672563396296
 30
0.0
 10
56.3143108146642
 20
107.9408858441229
 30
0.0
  0
LINE
  5
DE
330
1F
100
AcDbEntity
  8
0
  6
Continuous
 62
     7
370
    25
100
AcDbLine
 10
40.3104269654
 20
42.6123285567
 30
0.0
 11
40.3080450481
 21
42.4255753921
 31
0.0
  0
LINE
  5
DF
330
1F
100
AcDbEntity
  8
0
  6
Continuous
 62
     7
370
    25
100
AcDbLine
 10
64.053314811
 20
42.2850473711
 30
0.0
 11
64.0556967283
 21
42.4718005357
 31
0.0
  0
ARC
  5
E0
330
1F
100
AcDbEntity
  8
0
  6
Continuous
 62
   144
370
    18
100
AcDbCircle
 10
55.4371507043
 20
28.3068727922
 30
0.0
 40
18.19723034323176
100
AcDbArc
 50
67.6699410888
 51
83.7570708132
  0
ARC
  5
E1
330
1F
100
AcDbEntity
  8
0
  6
Continuous
 62
   144
370
    18
100
AcDbCircle
 10
52.2989655235
 20
10.1568605798
 30
0.0
 40
36.59748049793822
100
AcDbArc
 50
82.8806507847
 51
84.7455419183
  0
ARC
  5
E2
330
1F
100
AcDbEntity
  8
0
  6
Continuous
 62
   144
370
    18
100
AcDbCircle
 10
50.8100613594
 20
-4.8768975313
 30
0.0
 40
51.70432849508962
100
AcDbArc
 50
85.282263686
 51
87.250222305
  0
ARC
  5
E3
330
1F
100
AcDbEntity
  8
0
  6
Continuous
 62
   144
370
    18
100
AcDbCircle
 10
50.606277039
 20
-4.4498895344
 30
0.0
 40
51.28710297121385
100
AcDbArc
 50
87.6645846669
 51
89.663302051
  0
ARC
  5
E4
330
1F
100
AcDbEntity
  8
0
  6
Continuous
 62
   144
370
    18
100
AcDbCircle
 10
50.2037419888
 20
7.6196171467
 30
0.0
 40
39.2166118125522
100
AcDbArc
 50
90.5162204049
 51
92.8199474025
  0
LWPOLYLINE
  5
E5
330
1F
100
AcDbEntity
  8
0
  6
Continuous
 62
   144
370
    18
100
AcDbPolyline
 90
      155
 70
   128
 43
0.0
 10
47.671050363
 20
46.754508215
 10
47.5922529
 20
46.7498859788
 10
47.2791324892
 20
46.72702735
 10
46.9607098743
 20
46.7003441367
 10
46.6375180804
 20
46.669430476
 10
46.310397844
 20
46.6339687983
 10
45.9802393327
 20
46.5935631387
 10
45.647883283
 20
46.5478959278
 10
45.2149416999
 20
46.4802414581
 10
44.7787012898
 20
46.4016326969
 10
44.5598352313
 20
46.357826322
 10
44.3409366879
 20
46.3107183788
 10
44.1223611013
 20
46.2600383182
 10
43.9044264978
 20
46.2056447236
 10
43.6876288541
 20
46.147260969
 10
43.4726811777
 20
46.0846260811
 10
43.2603609937
 20
46.0174505318
 10
43.0515357723
 20
45.9455172245
 10
42.8469830268
 20
45.8685366277
 10
42.6481470065
 20
45.7863161664
 10
42.4564082111
 20
45.6986915966
 10
42.273224875
 20
45.6055203131
 10
42.1277100569
 20
45.5234202435
 10
41.9981859602
 20
45.4430336771
 10
41.8830444905
 20
45.3647384022
 10
41.7807683819
 20
45.2889844472
 10
41.6016220425
 20
45.1394996379
 10
41.4723141118
 20
45.0156270353
 10
41.3474247473
 20
44.8814151737
 10
41.2389445678
 20
44.7504730979
 10
41.1447518142
 20
44.6231260056
 10
41.0627261247
 20
44.4996986068
 10
40.9214556977
 20
44.2549098593
 10
40.818495778
 20
44.049571437
 10
40.6962435099
 20
43.7851412726
 10
40.5836221816
 20
43.5170470705
 10
40.4827062636
 20
43.2453212742
 10
40.3956975688
 20
42.9699405054
 10
40.3273519871
 20
42.7025042627
 10
40.2721660612
 20
42.4084762896
 10
40.2404602154
 20
42.1225557159
 10
40.2318456258
 20
41.8332232295
 10
40.243857089
 20
41.589912233
 10
40.2720297251
 20
41.3494757163
 10
40.3144278792
 20
41.1118744499
 10
40.3692862456
 20
40.8771633695
 10
40.4346195543
 20
40.6453815887
 10
40.50879084
 20
40.4165275102
 10
40.6771225617
 20
39.9674657413
 10
40.7754713864
 20
39.7312884056
 10
40.8876873006
 20
39.486528466
 10
41.018344616
 20
39.2353664939
 10
41.1729608179
 20
38.9776538629
 10
41.3573179801
 20
38.7139663606
 10
41.4627034751
 20
38.5801003034
 10
41.577957607
 20
38.4450491423
 10
41.7038891218
 20
38.3089034989
 10
41.8412688238
 20
38.1718823561
 10
41.9908419409
 20
38.0341045798
 10
42.1537374994
 20
37.8957981688
 10
42.3363581421
 20
37.753216638
 10
42.5696492686
 20
37.5918694512
 10
42.7101787081
 20
37.504762975
 10
42.869750171
 20
37.4140222646
 10
43.0509733795
 20
37.3203419785
 10
43.2562793413
 20
37.2245519886
 10
43.4864180233
 20
37.1281176499
 10
43.7239253043
 20
37.038692173
 10
43.9671310077
 20
36.9558942266
 10
44.2141247691
 20
36.8795055649
 10
44.4632989706
 20
36.8091159664
 10
44.7137796968
 20
36.7443845285
 10
44.9646006964
 20
36.6848972376
 10
45.2151540837
 20
36.6302501042
 10
45.4646288056
 20
36.5800732006
 10
45.6976404698
 20
36.5367677514
 10
45.959019179
 20
36.491920107
 10
46.2033362203
 20
36.4533101438
 10
46.6850996497
 20
36.3857784901
 10
47.156492567
 20
36.3297706519
 10
47.52269147
 20
36.2924376179
 10
47.8586015554
 20
36.2622224923
 10
48.2047973419
 20
36.2342334204
 10
48.5514175701
 20
36.2091473061
 10
48.8983071703
 20
36.1869205426
 10
49.2452478246
 20
36.1675371115
 10
49.9333539372
 20
36.13724029
 10
50.6311534902
 20
36.1173020164
 10
51.1578734509
 20
36.1091960896
 10
51.6731194689
 20
36.1066419927
 10
52.1455563991
 20
36.1086231923
 10
52.6693498514
 20
36.11508265
 10
53.2999315938
 20
36.128688092
 10
53.6349092275
 20
36.1392977779
 10
53.9827142931
 20
36.1533654732
 10
54.3428802966
 20
36.1715472524
 10
55.0969762736
 20
36.2238096362
 10
55.4890995937
 20
36.2596490397
 10
55.7884615714
 20
36.2914919347
 10
56.0911891346
 20
36.327908277
 10
56.3965592924
 20
36.3693884015
 10
56.7041804558
 20
36.4163310235
 10
57.0130342134
 20
36.469189
 10
57.3220890165
 20
36.5283650171
 10
57.6298404602
 20
36.594359196
 10
57.9348988235
 20
36.6675649169
 10
58.2615926169
 20
36.7555426608
 10
58.6012717628
 20
36.8587105514
 10
58.9223862977
 20
36.9686159964
 10
59.2000107874
 20
37.0744228122
 10
59.4876411444
 20
37.1957330814
 10
59.6903733502
 20
37.2895414731
 10
59.9063284578
 20
37.3980970974
 10
60.1047170016
 20
37.5067640242
 10
60.3636020115
 20
37.6640127044
 10
60.5868650085
 20
37.8156874566
 10
60.8128871621
 20
37.9847952065
 10
60.9992379802
 20
38.1329873016
 10
61.6490344546
 20
38.7782736197
 10
61.9333065268
 20
39.0737935975
 10
62.2039823583
 20
39.3667039598
 10
62.4612565156
 20
39.6590537785
 10
62.7054614064
 20
39.9526066463
 10
62.9364903194
 20
40.2490956257
 10
63.1543042242
 20
40.5502243535
 10
63.3422689256
 20
40.8314654588
 10
63.5179406092
 20
41.1202526123
 10
63.6779068117
 20
41.4160795363
 10
63.8187951059
 20
41.7185915285
 10
63.9367699157
 20
42.0273018822
 10
64.0278317981
 20
42.3419093191
 10
64.0620203943
 20
42.5012780427
 10
64.087801309
 20
42.6619685506
 10
64.1048791216
 20
42.8239433652
 10
64.1124600809
 20
42.9871625499
 10
64.1084420404
 20
43.170321491
 10
64.0845160868
 20
43.3679529293
 10
64.0621391043
 20
43.4721581645
 10
64.0310763111
 20
43.57983229
 10
63.9897895394
 20
43.6908166785
 10
63.9370975622
 20
43.8049612161
 10
63.8313527695
 20
43.9849625914
 10
63.6966583485
 20
44.165134683
 10
63.6179017992
 20
44.2551798002
 10
63.5312945074
 20
44.3451745029
 10
63.4365289428
 20
44.4350314894
 10
63.3334507187
 20
44.5247068491
 10
63.2218288386
 20
44.6141349926
 10
63.1011491468
 20
44.7032626096
 10
62.9710769899
 20
44.7919018972
 10
62.831380674
 20
44.8799870404
 10
62.6817384238
 20
44.9673802548
 10
62.5216875821
 20
45.0539501212
 10
62.3510336469
 20
45.1395022607
 10
62.3510336469
 20
45.1395022607
  0
LWPOLYLINE
  5
E6
330
1F
100
AcDbEntity
  8
0
  6
Continuous
 62
   144
370
    18
100
AcDbPolyline
 90
       96
 70
   128
 43
0.0
 10
40.3297540584
 20
42.5344708441
 10
40.3249700698
 20
42.5157510981
 10
40.2697841439
 20
42.221723125
 10
40.2380782981
 20
41.9358025513
 10
40.2294637085
 20
41.6464700649
 10
40.2414751717
 20
41.4031590684
 10
40.2696478078
 20
41.1627225517
 10
40.3120459619
 20
40.9251212853
 10
40.3669043283
 20
40.6904102049
 10
40.432237637
 20
40.4586284241
 10
40.5064089227
 20
40.2297743456
 10
40.6747406444
 20
39.7807125767
 10
40.7730894691
 20
39.544535241
 10
40.8853053833
 20
39.2997753014
 10
41.0159626987
 20
39.0486133293
 10
41.1705789006
 20
38.7909006983
 10
41.3549360629
 20
38.527213196
 10
41.4603215578
 20
38.3933471388
 10
41.5755756898
 20
38.2582959777
 10
41.7015072045
 20
38.1221503343
 10
41.8388869065
 20
37.9851291915
 10
41.9884600236
 20
37.8473514152
 10
42.1513555822
 20
37.7090450042
 10
42.3339762248
 20
37.5664634734
 10
42.5672673513
 20
37.4051162866
 10
42.7077967908
 20
37.3180098104
 10
42.8673682538
 20
37.2272691
 10
43.0485914622
 20
37.1335888139
 10
43.253897424
 20
37.037798824
 10
43.484036106
 20
36.9413644853
 10
43.721543387
 20
36.8519390084
 10
43.9647490904
 20
36.769141062
 10
44.2117428518
 20
36.6927524003
 10
44.4609170533
 20
36.6223628018
 10
44.7113977795
 20
36.5576313639
 10
44.9622187791
 20
36.498144073
 10
45.2127721664
 20
36.4434969396
 10
45.4622468883
 20
36.393320036
 10
45.6952585525
 20
36.3500145868
 10
45.9566372618
 20
36.3051669424
 10
46.200954303
 20
36.2665569792
 10
46.6827177324
 20
36.1990253256
 10
47.1541106497
 20
36.1430174873
 10
47.5203095527
 20
36.1056844533
 10
47.8562196381
 20
36.0754693277
 10
48.2024154246
 20
36.0474802558
 10
48.5490356528
 20
36.0223941415
 10
48.895925253
 20
36.000167378
 10
49.2428659073
 20
35.9807839469
 10
49.9309720199
 20
35.9504871255
 10
50.6287715729
 20
35.9305488518
 10
51.1554915336
 20
35.922442925
 10
51.6707375516
 20
35.9198888281
 10
52.1431744818
 20
35.9218700277
 10
52.6669679341
 20
35.9283294854
 10
53.2975496766
 20
35.9419349274
 10
53.6325273102
 20
35.9525446133
 10
53.9803323758
 20
35.9666123086
 10
54.3404983793
 20
35.9847940878
 10
55.0945943564
 20
36.0370564716
 10
55.4867176764
 20
36.0728958751
 10
55.7860796541
 20
36.1047387701
 10
56.0888072174
 20
36.1411551124
 10
56.3941773751
 20
36.1826352369
 10
56.7017985385
 20
36.2295778589
 10
57.0106522961
 20
36.2824358354
 10
57.3197070992
 20
36.3416118525
 10
57.6274585429
 20
36.4076060314
 10
57.9325169062
 20
36.4808117523
 10
58.2592106997
 20
36.5687894962
 10
58.5988898455
 20
36.6719573868
 10
58.9200043804
 20
36.7818628318
 10
59.1976288701
 20
36.8876696476
 10
59.4852592271
 20
37.0089799168
 10
59.687991433
 20
37.1027883085
 10
59.9039465405
 20
37.2113439328
 10
60.1023350843
 20
37.3200108596
 10
60.3612200942
 20
37.4772595398
 10
60.5844830912
 20
37.628934292
 10
60.8105052448
 20
37.7980420419
 10
60.9968560629
 20
37.946234137
 10
61.6466525373
 20
38.5915204551
 10
61.9309246095
 20
38.8870404329
 10
62.201600441
 20
39.1799507952
 10
62.4588745983
 20
39.4723006139
 10
62.7030794891
 20
39.7658534817
 10
62.9341084021
 20
40.0623424611
 10
63.1519223069
 20
40.3634711889
 10
63.3398870083
 20
40.6447122942
 10
63.5155586919
 20
40.9334994477
 10
63.6755248944
 20
41.2293263717
 10
63.8164131887
 20
41.5318383639
 10
63.9343879984
 20
41.8405487176
 10
64.0254498808
 20
42.1551561545
 10
64.0596384771
 20
42.3145248781
 10
64.061481772
 20
42.326013997
  0
LWPOLYLINE
  5
E7
330
1F
100
AcDbEntity
  8
0
  6
Continuous
 62
   144
370
    18
100
AcDbPolyline
 90
      155
 70
   128
 43
0.0
 10
62.1691587911
 20
45.2238611556
 10
62.3510336469
 20
45.1395022607
 10
62.5216875821
 20
45.0539501212
 10
62.6817384238
 20
44.9673802548
 10
62.831380674
 20
44.8799870404
 10
62.9710769899
 20
44.7919018972
 10
63.1011491468
 20
44.7032626096
 10
63.2218288386
 20
44.6141349926
 10
63.3334507187
 20
44.5247068491
 10
63.4365289428
 20
44.4350314894
 10
63.5312945074
 20
44.3451745029
 10
63.6179017992
 20
44.2551798002
 10
63.6966583485
 20
44.165134683
 10
63.8313527695
 20
43.9849625914
 10
63.9370975622
 20
43.8049612161
 10
63.9897895394
 20
43.6908166785
 10
64.0310763111
 20
43.57983229
 10
64.0621391043
 20
43.4721581645
 10
64.0845160868
 20
43.3679529293
 10
64.1084420404
 20
43.170321491
 10
64.1124600809
 20
42.9871625499
 10
64.1048791216
 20
42.8239433652
 10
64.087801309
 20
42.6619685506
 10
64.0620203943
 20
42.5012780427
 10
64.0278317981
 20
42.3419093191
 10
63.9367699157
 20
42.0273018822
 10
63.8187951059
 20
41.7185915285
 10
63.6779068117
 20
41.4160795363
 10
63.5179406092
 20
41.1202526123
 10
63.3422689256
 20
40.8314654588
 10
63.1543042242
 20
40.5502243535
 10
62.9364903194
 20
40.2490956257
 10
62.7054614064
 20
39.9526066463
 10
62.4612565156
 20
39.6590537785
 10
62.2039823583
 20
39.3667039598
 10
61.9333065268
 20
39.0737935975
 10
61.6490344546
 20
38.7782736197
 10
60.9992379802
 20
38.1329873016
 10
60.8128871621
 20
37.9847952065
 10
60.5868650085
 20
37.8156874566
 10
60.3636020115
 20
37.6640127044
 10
60.1047170016
 20
37.5067640242
 10
59.9063284578
 20
37.3980970974
 10
59.6903733502
 20
37.2895414731
 10
59.4876411444
 20
37.1957330814
 10
59.2000107874
 20
37.0744228122
 10
58.9223862977
 20
36.9686159964
 10
58.6012717628
 20
36.8587105514
 10
58.2615926169
 20
36.7555426608
 10
57.9348988235
 20
36.6675649169
 10
57.6298404602
 20
36.594359196
 10
57.3220890165
 20
36.5283650171
 10
57.0130342134
 20
36.469189
 10
56.7041804558
 20
36.4163310235
 10
56.3965592924
 20
36.3693884015
 10
56.0911891346
 20
36.327908277
 10
55.7884615714
 20
36.2914919347
 10
55.4890995937
 20
36.2596490397
 10
55.0969762736
 20
36.2238096362
 10
54.3428802966
 20
36.1715472524
 10
53.9827142931
 20
36.1533654732
 10
53.6349092275
 20
36.1392977779
 10
53.2999315938
 20
36.128688092
 10
52.6693498514
 20
36.11508265
 10
52.1455563991
 20
36.1086231923
 10
51.6731194689
 20
36.1066419927
 10
51.1578734509
 20
36.1091960896
 10
50.6311534902
 20
36.1173020164
 10
49.9333539372
 20
36.13724029
 10
49.2452478246
 20
36.1675371115
 10
48.8983071703
 20
36.1869205426
 10
48.5514175701
 20
36.2091473061
 10
48.2047973419
 20
36.2342334204
 10
47.8586015554
 20
36.2622224923
 10
47.52269147
 20
36.2924376179
 10
47.156492567
 20
36.3297706519
 10
46.6850996497
 20
36.3857784901
 10
46.2033362203
 20
36.4533101438
 10
45.959019179
 20
36.491920107
 10
45.6976404698
 20
36.5367677514
 10
45.4646288056
 20
36.5800732006
 10
45.2151540837
 20
36.6302501042
 10
44.9646006964
 20
36.6848972376
 10
44.7137796968
 20
36.7443845285
 10
44.4632989706
 20
36.8091159664
 10
44.2141247691
 20
36.8795055649
 10
43.9671310077
 20
36.9558942266
 10
43.7239253043
 20
37.038692173
 10
43.4864180233
 20
37.1281176499
 10
43.2562793413
 20
37.2245519886
 10
43.0509733795
 20
37.3203419785
 10
42.869750171
 20
37.4140222646
 10
42.7101787081
 20
37.504762975
 10
42.5696492686
 20
37.5918694512
 10
42.3363581421
 20
37.753216638
 10
42.1537374994
 20
37.8957981688
 10
41.9908419409
 20
38.0341045798
 10
41.8412688238
 20
38.1718823561
 10
41.7038891218
 20
38.3089034989
 10
41.577957607
 20
38.4450491423
 10
41.4627034751
 20
38.5801003034
 10
41.3573179801
 20
38.7139663606
 10
41.1729608179
 20
38.9776538629
 10
41.018344616
 20
39.2353664939
 10
40.8876873006
 20
39.486528466
 10
40.7754713864
 20
39.7312884056
 10
40.6771225617
 20
39.9674657413
 10
40.50879084
 20
40.4165275102
 10
40.4346195543
 20
40.6453815887
 10
40.3692862456
 20
40.8771633695
 10
40.3144278792
 20
41.1118744499
 10
40.2720297251
 20
41.3494757163
 10
40.243857089
 20
41.589912233
 10
40.2318456258
 20
41.8332232295
 10
40.2404602154
 20
42.1225557159
 10
40.2721660612
 20
42.4084762896
 10
40.3273519871
 20
42.7025042627
 10
40.3956975688
 20
42.9699405054
 10
40.4827062636
 20
43.2453212742
 10
40.5836221816
 20
43.5170470705
 10
40.6962435099
 20
43.7851412726
 10
40.818495778
 20
44.049571437
 10
40.9214556977
 20
44.2549098593
 10
41.0627261247
 20
44.4996986068
 10
41.1447518142
 20
44.6231260056
 10
41.2389445678
 20
44.7504730979
 10
41.3474247473
 20
44.8814151737
 10
41.4723141118
 20
45.0156270353
 10
41.6016220425
 20
45.1394996379
 10
41.7807683819
 20
45.2889844472
 10
41.8830444905
 20
45.3647384022
 10
41.9981859602
 20
45.4430336771
 10
42.1277100569
 20
45.5234202435
 10
42.273224875
 20
45.6055203131
 10
42.4564082111
 20
45.6986915966
 10
42.6481470065
 20
45.7863161664
 10
42.8469830268
 20
45.8685366277
 10
43.0515357723
 20
45.9455172245
 10
43.2603609937
 20
46.0174505318
 10
43.4726811777
 20
46.0846260811
 10
43.6876288541
 20
46.147260969
 10
43.9044264978
 20
46.2056447236
 10
44.1223611013
 20
46.2600383182
 10
44.3409366879
 20
46.3107183788
 10
44.5598352313
 20
46.357826322
 10
44.7787012898
 20
46.4016326969
 10
45.2149416999
 20
46.4802414581
 10
45.647883283
 20
46.5478959278
 10
45.9802393327
 20
46.5935631387
 10
46.310397844
 20
46.6339687983
 10
46.6375180804
 20
46.669430476
 10
46.9607098743
 20
46.7003441367
 10
47.2791324892
 20
46.72702735
 10
47.5922529
 20
46.7498859788
 10
47.671050363
 20
46.754508215
  0
ARC
  5
E8
330
1F
100
AcDbEntity
  8
0
  6
Continuous
 62
   144
370
    18
100
AcDbCircle
 10
50.2037419888
 20
7.6196171467
 30
0.0
 40
39.2166118125522
100
AcDbArc
 50
90.5162204049
 51
92.8199474025
  0
ARC
  5
E9
330
1F
100
AcDbEntity
  8
0
  6
Continuous
 62
   144
370
    18
100
AcDbCircle
 10
50.6050050375
 20
-4.5044284712
 30
0.0
 40
51.34164844990634
100
AcDbArc
 50
87.6656464952
 51
89.6622402226
  0
ARC
  5
EA
330
1F
100
AcDbEntity
  8
0
  6
Continuous
 62
   144
370
    18
100
AcDbCircle
 10
50.8100613594
 20
-4.8768975313
 30
0.0
 40
51.70432849508633
100
AcDbArc
 50
85.282263686
 51
87.250222305
  0
ARC
  5
EB
330
1F
100
AcDbEntity
  8
0
  6
Continuous
 62
   144
370
    18
100
AcDbCircle
 10
52.2989655235
 20
10.1568605798
 30
0.0
 40
36.59748049793527
100
AcDbArc
 50
82.8806507847
 51
84.7455419183
  0
ARC
  5
EC
330
1F
100
AcDbEntity
  8
0
  6
Continuous
 62
   144
370
    18
100
AcDbCircle
 10
55.2639670727
 20
27.4489318139
 30
0.0
 40
19.06907931105403
100
AcDbArc
 50
68.7698832292
 51
83.5201224484
  0
LWPOLYLINE
  5
ED
330
1F
100
AcDbEntity
  8
0
  6
Continuous
 62
   144
370
    18
100
AcDbPolyline
 90
       96
 70
   128
 43
0.0
 10
64.061481772
 20
42.326013997
 10
64.0596384771
 20
42.3145248781
 10
64.0254498808
 20
42.1551561545
 10
63.9343879984
 20
41.8405487176
 10
63.8164131887
 20
41.5318383639
 10
63.6755248944
 20
41.2293263717
 10
63.5155586919
 20
40.9334994477
 10
63.3398870083
 20
40.6447122942
 10
63.1519223069
 20
40.3634711889
 10
62.9341084021
 20
40.0623424611
 10
62.7030794891
 20
39.7658534817
 10
62.4588745983
 20
39.4723006139
 10
62.201600441
 20
39.1799507952
 10
61.9309246095
 20
38.8870404329
 10
61.6466525373
 20
38.5915204551
 10
60.9968560629
 20
37.946234137
 10
60.8105052448
 20
37.7980420419
 10
60.5844830912
 20
37.628934292
 10
60.3612200942
 20
37.4772595398
 10
60.1023350843
 20
37.3200108596
 10
59.9039465405
 20
37.2113439328
 10
59.687991433
 20
37.1027883085
 10
59.4852592271
 20
37.0089799168
 10
59.1976288701
 20
36.8876696476
 10
58.9200043804
 20
36.7818628318
 10
58.5988898455
 20
36.6719573868
 10
58.2592106997
 20
36.5687894962
 10
57.9325169062
 20
36.4808117523
 10
57.6274585429
 20
36.4076060314
 10
57.3197070992
 20
36.3416118525
 10
57.0106522961
 20
36.2824358354
 10
56.7017985385
 20
36.2295778589
 10
56.3941773751
 20
36.1826352369
 10
56.0888072174
 20
36.1411551124
 10
55.7860796541
 20
36.1047387701
 10
55.4867176764
 20
36.0728958751
 10
55.0945943564
 20
36.0370564716
 10
54.3404983793
 20
35.9847940878
 10
53.9803323758
 20
35.9666123086
 10
53.6325273102
 20
35.9525446133
 10
53.2975496766
 20
35.9419349274
 10
52.6669679341
 20
35.9283294854
 10
52.1431744818
 20
35.9218700277
 10
51.6707375516
 20
35.9198888281
 10
51.1554915336
 20
35.922442925
 10
50.6287715729
 20
35.9305488518
 10
49.9309720199
 20
35.9504871255
 10
49.2428659073
 20
35.9807839469
 10
48.895925253
 20
36.000167378
 10
48.5490356528
 20
36.0223941415
 10
48.2024154246
 20
36.0474802558
 10
47.8562196381
 20
36.0754693277
 10
47.5203095527
 20
36.1056844533
 10
47.1541106497
 20
36.1430174873
 10
46.6827177324
 20
36.1990253256
 10
46.200954303
 20
36.2665569792
 10
45.9566372618
 20
36.3051669424
 10
45.6952585525
 20
36.3500145868
 10
45.4622468883
 20
36.393320036
 10
45.2127721664
 20
36.4434969396
 10
44.9622187791
 20
36.498144073
 10
44.7113977795
 20
36.5576313639
 10
44.4609170533
 20
36.6223628018
 10
44.2117428518
 20
36.6927524003
 10
43.9647490904
 20
36.769141062
 10
43.721543387
 20
36.8519390084
 10
43.484036106
 20
36.9413644853
 10
43.253897424
 20
37.037798824
 10
43.0485914622
 20
37.1335888139
 10
42.8673682538
 20
37.2272691
 10
42.7077967908
 20
37.3180098104
 10
42.5672673513
 20
37.4051162866
 10
42.3339762248
 20
37.5664634734
 10
42.1513555822
 20
37.7090450042
 10
41.9884600236
 20
37.8473514152
 10
41.8388869065
 20
37.9851291915
 10
41.7015072045
 20
38.1221503343
 10
41.5755756898
 20
38.2582959777
 10
41.4603215578
 20
38.3933471388
 10
41.3549360629
 20
38.527213196
 10
41.1705789006
 20
38.7909006983
 10
41.0159626987
 20
39.0486133293
 10
40.8853053833
 20
39.2997753014
 10
40.7730894691
 20
39.544535241
 10
40.6747406444
 20
39.7807125767
 10
40.5064089227
 20
40.2297743456
 10
40.432237637
 20
40.4586284241
 10
40.3669043283
 20
40.6904102049
 10
40.3120459619
 20
40.9251212853
 10
40.2696478078
 20
41.1627225517
 10
40.2414751717
 20
41.4031590684
 10
40.2294637085
 20
41.6464700649
 10
40.2380782981
 20
41.9358025513
 10
40.2697841439
 20
42.221723125
 10
40.3249700698
 20
42.5157510981
 10
40.3297540584
 20
42.5344708441
  0
ENDSEC
  0
SECTION
  2
OBJECTS
  0
DICTIONARY
  5
C
330
0
100
AcDbDictionary
281
     1
  3
ACAD_GROUP
350
D
  3
ACAD_LAYOUT
350
1A
  3
ACAD_MLINESTYLE
350
17
  3
ACAD_PLOTSETTINGS
350
19
  3
ACAD_PLOTSTYLENAME
350
E
  3
ACAD_SCALELIST
350
47
  3
DWGPROPS
350
EE
  0
DICTIONARY
  5
D
102
{ACAD_REACTORS
330
C
102
}
330
C
100
AcDbDictionary
281
     1
  0
DICTIONARY
  5
1A
102
{ACAD_REACTORS
330
C
102
}
330
C
100
AcDbDictionary
281
     1
  3
Layout1
350
1E
  3
Layout2
350
26
  3
Model
350
22
  0
DICTIONARY
  5
17
102
{ACAD_REACTORS
330
C
102
}
330
C
100
AcDbDictionary
281
     1
  3
Standard
350
18
  0
DICTIONARY
  5
19
102
{ACAD_REACTORS
330
C
102
}
330
C
100
AcDbDictionary
281
     1
  0
ACDBDICTIONARYWDFLT
  5
E
102
{ACAD_REACTORS
330
C
102
}
330
C
100
AcDbDictionary
281
     1
  3
Normal
350
F
100
AcDbDictionaryWithDefault
340
F
  0
DICTIONARY
  5
47
102
{ACAD_REACTORS
330
C
102
}
330
C
100
AcDbDictionary
281
     1
  3
A0
350
48
  3
A1
350
49
  3
A2
350
4A
  3
A3
350
4B
  3
A4
350
4C
  3
A5
350
4D
  3
A6
350
4E
  3
A7
350
4F
  3
A8
350
50
  3
A9
350
51
  3
B0
350
52
  3
B1
350
53
  3
B2
350
54
  3
B3
350
55
  3
B4
350
56
  3
B5
350
57
  3
B6
350
58
  3
B7
350
59
  3
B8
350
5A
  3
B9
350
5B
  3
C0
350
5C
  3
C1
350
5D
  3
C2
350
5E
  3
C3
350
5F
  3
C4
350
60
  3
C5
350
61
  3
C6
350
62
  3
C7
350
63
  3
C8
350
64
  3
C9
350
65
  3
D0
350
66
  3
D1
350
67
  3
D2
350
68
  0
XRECORD
  5
EE
102
{ACAD_REACTORS
330
C
102
}
330
C
100
AcDbXrecord
280
     1
  1
DWGPROPS COOKIE
  2

  3

  4

  6

  7

  8
9222
  9

300
=
301
=
302
=
303
=
304
=
305
=
306
=
307
=
308
=
309
=
 40
0.0
 41
2459916.351171019
 42
2459916.351171481
  1

 90
        0
  0
LAYOUT
  5
1E
102
{ACAD_REACTORS
330
1A
102
}
330
1A
100
AcDbPlotSettings
  1

  2
none_device
  4

  6

 40
0.0
 41
0.0
 42
0.0
 43
0.0
 44
0.0
 45
0.0
 46
0.0
 47
0.0
 48
0.0
 49
0.0
140
0.0
141
0.0
142
1.0
143
1.0
 70
   688
 72
     1
 73
     0
 74
     5
  7

 75
    16
147
1.0
148
0.0
149
0.0
100
AcDbLayout
  1
Layout1
 70
     1
 71
     1
 10
0.0
 20
0.0
 11
420.0
 21
297.0
 12
0.0
 22
0.0
 32
0.0
 14
1.0000000000E+20
 24
1.0000000000E+20
 34
1.0000000000E+20
 15
-1.0000000000E+20
 25
-1.0000000000E+20
 35
-1.0000000000E+20
146
0.0
 13
0.0
 23
0.0
 33
0.0
 16
1.0
 26
0.0
 36
0.0
 17
0.0
 27
1.0
 37
0.0
 76
     0
330
1B
  0
LAYOUT
  5
26
102
{ACAD_REACTORS
330
1A
102
}
330
1A
100
AcDbPlotSettings
  1

  2
none_device
  4

  6

 40
0.0
 41
0.0
 42
0.0
 43
0.0
 44
0.0
 45
0.0
 46
0.0
 47
0.0
 48
0.0
 49
0.0
140
0.0
141
0.0
142
1.0
143
1.0
 70
   688
 72
     1
 73
     0
 74
     5
  7

 75
    16
147
1.0
148
0.0
149
0.0
100
AcDbLayout
  1
Layout2
 70
     1
 71
     2
 10
0.0
 20
0.0
 11
0.0
 21
0.0
 12
0.0
 22
0.0
 32
0.0
 14
0.0
 24
0.0
 34
0.0
 15
0.0
 25
0.0
 35
0.0
146
0.0
 13
0.0
 23
0.0
 33
0.0
 16
1.0
 26
0.0
 36
0.0
 17
0.0
 27
1.0
 37
0.0
 76
     0
330
23
  0
LAYOUT
  5
22
102
{ACAD_REACTORS
330
1A
102
}
330
1A
100
AcDbPlotSettings
  1

  2
none_device
  4
Letter_(8.50_x_11.00_Inches)
  6

 40
6.35
 41
6.35
 42
6.35000508
 43
6.35000508
 44
215.9
 45
279.4
 46
0.0
 47
0.0
 48
0.0
 49
0.0
140
0.0
141
0.0
142
1.0
143
1.0
 70
  1712
 72
     1
 73
     0
 74
     0
  7

 75
     0
147
1.0
148
0.0
149
0.0
100
AcDbLayout
  1
Model
 70
     1
 71
     0
 10
0.0
 20
0.0
 11
105.0
 21
148.5
 12
0.0
 22
0.0
 32
0.0
 14
0.0
 24
0.0
 34
0.0
 15
105.0
 25
148.5
 35
0.0
146
0.0
 13
0.0
 23
0.0
 33
0.0
 16
1.0
 26
0.0
 36
0.0
 17
0.0
 27
1.0
 37
0.0
 76
     0
330
1F
331
29
  0
MLINESTYLE
  5
18
102
{ACAD_REACTORS
330
17
102
}
330
17
100
AcDbMlineStyle
  2
Standard
 70
     0
  3

 62
   256
 51
90.0
 52
90.0
 71
     2
 49
0.5
 62
   256
  6
BYLAYER
 49
-0.5
 62
   256
  6
BYLAYER
  0
ACDBPLACEHOLDER
  5
F
102
{ACAD_REACTORS
330
E
102
}
330
E
  0
SCALE
  5
48
102
{ACAD_REACTORS
330
47
102
}
330
47
100
AcDbScale
 70
     0
300
1:1
140
1.0
141
1.0
290
     1
  0
SCALE
  5
49
102
{ACAD_REACTORS
330
47
102
}
330
47
100
AcDbScale
 70
     0
300
1:2
140
1.0
141
2.0
290
     0
  0
SCALE
  5
4A
102
{ACAD_REACTORS
330
47
102
}
330
47
100
AcDbScale
 70
     0
300
1:4
140
1.0
141
4.0
290
     0
  0
SCALE
  5
4B
102
{ACAD_REACTORS
330
47
102
}
330
47
100
AcDbScale
 70
     0
300
1:5
140
1.0
141
5.0
290
     0
  0
SCALE
  5
4C
102
{ACAD_REACTORS
330
47
102
}
330
47
100
AcDbScale
 70
     0
300
1:8
140
1.0
141
8.0
290
     0
  0
SCALE
  5
4D
102
{ACAD_REACTORS
330
47
102
}
330
47
100
AcDbScale
 70
     0
300
1:10
140
1.0
141
10.0
290
     0
  0
SCALE
  5
4E
102
{ACAD_REACTORS
330
47
102
}
330
47
100
AcDbScale
 70
     0
300
1:16
140
1.0
141
16.0
290
     0
  0
SCALE
  5
4F
102
{ACAD_REACTORS
330
47
102
}
330
47
100
AcDbScale
 70
     0
300
1:20
140
1.0
141
20.0
290
     0
  0
SCALE
  5
50
102
{ACAD_REACTORS
330
47
102
}
330
47
100
AcDbScale
 70
     0
300
1:30
140
1.0
141
30.0
290
     0
  0
SCALE
  5
51
102
{ACAD_REACTORS
330
47
102
}
330
47
100
AcDbScale
 70
     0
300
1:40
140
1.0
141
40.0
290
     0
  0
SCALE
  5
52
102
{ACAD_REACTORS
330
47
102
}
330
47
100
AcDbScale
 70
     0
300
1:50
140
1.0
141
50.0
290
     0
  0
SCALE
  5
53
102
{ACAD_REACTORS
330
47
102
}
330
47
100
AcDbScale
 70
     0
300
1:100
140
1.0
141
100.0
290
     0
  0
SCALE
  5
54
102
{ACAD_REACTORS
330
47
102
}
330
47
100
AcDbScale
 70
     0
300
2:1
140
2.0
141
1.0
290
     0
  0
SCALE
  5
55
102
{ACAD_REACTORS
330
47
102
}
330
47
100
AcDbScale
 70
     0
300
4:1
140
4.0
141
1.0
290
     0
  0
SCALE
  5
56
102
{ACAD_REACTORS
330
47
102
}
330
47
100
AcDbScale
 70
     0
300
8:1
140
8.0
141
1.0
290
     0
  0
SCALE
  5
57
102
{ACAD_REACTORS
330
47
102
}
330
47
100
AcDbScale
 70
     0
300
10:1
140
10.0
141
1.0
290
     0
  0
SCALE
  5
58
102
{ACAD_REACTORS
330
47
102
}
330
47
100
AcDbScale
 70
     0
300
100:1
140
100.0
141
1.0
290
     0
  0
SCALE
  5
59
102
{ACAD_REACTORS
330
47
102
}
330
47
100
AcDbScale
 70
     0
300
1/128" = 1'-0"
140
0.0078125
141
12.0
290
     0
  0
SCALE
  5
5A
102
{ACAD_REACTORS
330
47
102
}
330
47
100
AcDbScale
 70
     0
300
1/64" = 1'-0"
140
0.015625
141
12.0
290
     0
  0
SCALE
  5
5B
102
{ACAD_REACTORS
330
47
102
}
330
47
100
AcDbScale
 70
     0
300
1/32" = 1'-0"
140
0.03125
141
12.0
290
     0
  0
SCALE
  5
5C
102
{ACAD_REACTORS
330
47
102
}
330
47
100
AcDbScale
 70
     0
300
1/16" = 1'-0"
140
0.0625
141
12.0
290
     0
  0
SCALE
  5
5D
102
{ACAD_REACTORS
330
47
102
}
330
47
100
AcDbScale
 70
     0
300
3/32" = 1'-0"
140
0.09375
141
12.0
290
     0
  0
SCALE
  5
5E
102
{ACAD_REACTORS
330
47
102
}
330
47
100
AcDbScale
 70
     0
300
1/8" = 1'-0"
140
0.125
141
12.0
290
     0
  0
SCALE
  5
5F
102
{ACAD_REACTORS
330
47
102
}
330
47
100
AcDbScale
 70
     0
300
3/16" = 1'-0"
140
0.1875
141
12.0
290
     0
  0
SCALE
  5
60
102
{ACAD_REACTORS
330
47
102
}
330
47
100
AcDbScale
 70
     0
300
1/4" = 1'-0"
140
0.25
141
12.0
290
     0
  0
SCALE
  5
61
102
{ACAD_REACTORS
330
47
102
}
330
47
100
AcDbScale
 70
     0
300
3/8" = 1'-0"
140
0.375
141
12.0
290
     0
  0
SCALE
  5
62
102
{ACAD_REACTORS
330
47
102
}
330
47
100
AcDbScale
 70
     0
300
1/2" = 1'-0"
140
0.5
141
12.0
290
     0
  0
SCALE
  5
63
102
{ACAD_REACTORS
330
47
102
}
330
47
100
AcDbScale
 70
     0
300
3/4" = 1'-0"
140
0.75
141
12.0
290
     0
  0
SCALE
  5
64
102
{ACAD_REACTORS
330
47
102
}
330
47
100
AcDbScale
 70
     0
300
1" = 1'-0"
140
1.0
141
12.0
290
     0
  0
SCALE
  5
65
102
{ACAD_REACTORS
330
47
102
}
330
47
100
AcDbScale
 70
     0
300
1-1/2" = 1'-0"
140
1.5
141
12.0
290
     0
  0
SCALE
  5
66
102
{ACAD_REACTORS
330
47
102
}
330
47
100
AcDbScale
 70
     0
300
3" = 1'-0"
140
3.0
141
12.0
290
     0
  0
SCALE
  5
67
102
{ACAD_REACTORS
330
47
102
}
330
47
100
AcDbScale
 70
     0
300
6" = 1'-0"
140
6.0
141
12.0
290
     0
  0
SCALE
  5
68
102
{ACAD_REACTORS
330
47
102
}
330
47
100
AcDbScale
 70
     0
300
1'-0" = 1'-0"
140
12.0
141
12.0
290
     0
  0
ENDSEC
  0
EOF
