  0
SECTION
  2
HEADER
  9
$ACADVER
  1
AC1015
  9
$ACADMAINTVER
 70
     6
  9
$DWGCODEPAGE
  3
DOS932
  9
$INSBASE
 10
0.0
 20
0.0
 30
0.0
  9
$EXTMIN
 10
0.0
 20
0.0
 30
0.0
  9
$EXTMAX
 10
2520.0
 20
3564.0
 30
0.0
  9
$LIMMIN
 10
0.0
 20
0.0
  9
$LIMMAX
 10
2520.0
 20
3564.0
  9
$ORTHOMODE
 70
     0
  9
$REGENMODE
 70
     1
  9
$FILLMODE
 70
     1
  9
$QTEXTMODE
 70
     0
  9
$MIRRTEXT
 70
     1
  9
$LTSCALE
 40
12.0
  9
$ATTMODE
 70
     1
  9
$TEXTSIZE
 40
42.0
  9
$TRACEWID
 40
1.0
  9
$TEXTSTYLE
  7
Standard
  9
$CLAYER
  8
0
  9
$CELTYPE
  6
ByLayer
  9
$CECOLOR
 62
   256
  9
$CELTSCALE
 40
1.0
  9
$DISPSILH
 70
     0
  9
$DIMSCALE
 40
1.0
  9
$DIMASZ
 40
39.624
  9
$DIMEXO
 40
12.0
  9
$DIMDLI
 40
3.75
  9
$DIMRND
 40
0.0
  9
$DIMDLE
 40
0.0
  9
$DIMEXE
 40
12.0
  9
$DIMTP
 40
0.0
  9
$DIMTM
 40
0.0
  9
$DIMTXT
 40
42.0
  9
$DIMCEN
 40
2.5
  9
$DIMTSZ
 40
0.0
  9
$DIMTOL
 70
     0
  9
$DIMLIM
 70
     0
  9
$DIMTIH
 70
     1
  9
$DIMTOH
 70
     1
  9
$DIMSE1
 70
     0
  9
$DIMSE2
 70
     0
  9
$DIMTAD
 70
     1
  9
$DIMZIN
 70
     1
  9
$DIMBLK
  1

  9
$DIMASO
 70
     1
  9
$DIMSHO
 70
     1
  9
$DIMPOST
  1

  9
$DIMAPOST
  1

  9
$DIMALT
 70
     0
  9
$DIMALTD
 70
     3
  9
$DIMALTF
 40
0.0393700787
  9
$DIMLFAC
 40
1.0
  9
$DIMTOFL
 70
     1
  9
$DIMTVP
 40
0.0
  9
$DIMTIX
 70
     0
  9
$DIMSOXD
 70
     0
  9
$DIMSAH
 70
     0
  9
$DIMBLK1
  1

  9
$DIMBLK2
  1

  9
$DIMSTYLE
  2
ISO-25
  9
$DIMCLRD
 70
     0
  9
$DIMCLRE
 70
     0
  9
$DIMCLRT
 70
     0
  9
$DIMTFAC
 40
1.0
  9
$DIMGAP
 40
18.288
  9
$DIMJUST
 70
     0
  9
$DIMSD1
 70
     0
  9
$DIMSD2
 70
     0
  9
$DIMTOLJ
 70
     0
  9
$DIMTZIN
 70
     1
  9
$DIMALTZ
 70
     0
  9
$DIMALTTZ
 70
     0
  9
$DIMUPT
 70
     0
  9
$DIMDEC
 70
     2
  9
$DIMTDEC
 70
     2
  9
$DIMALTU
 70
     2
  9
$DIMALTTD
 70
     3
  9
$DIMTXSTY
  7
Standard
  9
$DIMAUNIT
 70
     0
  9
$DIMADEC
 70
     2
  9
$DIMALTRND
 40
0.0
  9
$DIMAZIN
 70
     0
  9
$DIMDSEP
 70
    44
  9
$DIMATFIT
 70
     3
  9
$DIMFRAC
 70
     0
  9
$DIMLDRBLK
  1

  9
$DIMLUNIT
 70
     2
  9
$DIMLWD
 70
    -2
  9
$DIMLWE
 70
    -2
  9
$DIMTMOVE
 70
     0
  9
$LUNITS
 70
     2
  9
$LUPREC
 70
     2
  9
$SKETCHINC
 40
1.0
  9
$FILLETRAD
 40
10.0
  9
$AUNITS
 70
     0
  9
$AUPREC
 70
     2
  9
$MENU
  1
.
  9
$ELEVATION
 40
0.0
  9
$PELEVATION
 40
0.0
  9
$THICKNESS
 40
0.0
  9
$LIMCHECK
 70
     0
  9
$CHAMFERA
 40
0.0
  9
$CHAMFERB
 40
0.0
  9
$CHAMFERC
 40
0.0
  9
$CHAMFERD
 40
0.0
  9
$SKPOLY
 70
     0
  9
$TDCREATE
 40
2459919.577193646
  9
$TDUCREATE
 40
2459919.202193646
  9
$TDUPDATE
 40
2459919.577194005
  9
$TDUUPDATE
 40
2459919.202194005
  9
$TDINDWG
 40
0.0000000116
  9
$TDUSRTIMER
 40
0.0000000116
  9
$USRTIMER
 70
     1
  9
$ANGBASE
 50
0.0
  9
$ANGDIR
 70
     0
  9
$PDMODE
 70
     0
  9
$PDSIZE
 40
-1.0
  9
$PLINEWID
 40
0.0
  9
$SPLFRAME
 70
     0
  9
$SPLINETYPE
 70
     6
  9
$SPLINESEGS
 70
     8
  9
$HANDSEED
  5
CA
  9
$SURFTAB1
 70
     6
  9
$SURFTAB2
 70
     6
  9
$SURFTYPE
 70
     6
  9
$SURFU
 70
     6
  9
$SURFV
 70
     6
  9
$UCSBASE
  2

  9
$UCSNAME
  2

  9
$UCSORG
 10
0.0
 20
0.0
 30
0.0
  9
$UCSXDIR
 10
1.0
 20
0.0
 30
0.0
  9
$UCSYDIR
 10
0.0
 20
1.0
 30
0.0
  9
$UCSORTHOREF
  2

  9
$UCSORTHOVIEW
 70
     0
  9
$UCSORGTOP
 10
0.0
 20
0.0
 30
0.0
  9
$UCSORGBOTTOM
 10
0.0
 20
0.0
 30
0.0
  9
$UCSORGLEFT
 10
0.0
 20
0.0
 30
0.0
  9
$UCSORGRIGHT
 10
0.0
 20
0.0
 30
0.0
  9
$UCSORGFRONT
 10
0.0
 20
0.0
 30
0.0
  9
$UCSORGBACK
 10
0.0
 20
0.0
 30
0.0
  9
$PUCSBASE
  2

  9
$PUCSNAME
  2

  9
$PUCSORG
 10
0.0
 20
0.0
 30
0.0
  9
$PUCSXDIR
 10
1.0
 20
0.0
 30
0.0
  9
$PUCSYDIR
 10
0.0
 20
1.0
 30
0.0
  9
$PUCSORTHOREF
  2

  9
$PUCSORTHOVIEW
 70
     0
  9
$PUCSORGTOP
 10
0.0
 20
0.0
 30
0.0
  9
$PUCSORGBOTTOM
 10
0.0
 20
0.0
 30
0.0
  9
$PUCSORGLEFT
 10
0.0
 20
0.0
 30
0.0
  9
$PUCSORGRIGHT
 10
0.0
 20
0.0
 30
0.0
  9
$PUCSORGFRONT
 10
0.0
 20
0.0
 30
0.0
  9
$PUCSORGBACK
 10
0.0
 20
0.0
 30
0.0
  9
$USERI1
 70
     0
  9
$USERI2
 70
     0
  9
$USERI3
 70
     0
  9
$USERI4
 70
     0
  9
$USERI5
 70
     0
  9
$USERR1
 40
0.0
  9
$USERR2
 40
0.0
  9
$USERR3
 40
0.0
  9
$USERR4
 40
0.0
  9
$USERR5
 40
0.0
  9
$WORLDVIEW
 70
     1
  9
$SHADEDGE
 70
     3
  9
$SHADEDIF
 70
    70
  9
$TILEMODE
 70
     1
  9
$MAXACTVP
 70
    64
  9
$PINSBASE
 10
0.0
 20
0.0
 30
0.0
  9
$PLIMCHECK
 70
     0
  9
$PEXTMIN
 10
1.0000000000E+20
 20
1.0000000000E+20
 30
1.0000000000E+20
  9
$PEXTMAX
 10
-1.0000000000E+20
 20
-1.0000000000E+20
 30
-1.0000000000E+20
  9
$PLIMMIN
 10
0.0
 20
0.0
  9
$PLIMMAX
 10
420.0
 20
297.0
  9
$UNITMODE
 70
     0
  9
$VISRETAIN
 70
     1
  9
$PLINEGEN
 70
     0
  9
$PSLTSCALE
 70
     1
  9
$TREEDEPTH
 70
  3020
  9
$CMLSTYLE
  2
Standard
  9
$CMLJUST
 70
     0
  9
$CMLSCALE
 40
20.0
  9
$PROXYGRAPHICS
 70
     1
  9
$MEASUREMENT
 70
     1
  9
$CELWEIGHT
370
    -1
  9
$ENDCAPS
280
     0
  9
$JOINSTYLE
280
     0
  9
$LWDISPLAY
290
     1
  9
$INSUNITS
 70
     4
  9
$HYPERLINKBASE
  1

  9
$STYLESHEET
  1

  9
$XEDIT
290
     1
  9
$CEPSNTYPE
380
     0
  9
$PSTYLEMODE
290
     1
  9
$FINGERPRINTGUID
  2
{54dd456b-e263-427f-9da8-cc4dca5e2041}
  9
$VERSIONGUID
  2
{FAEB1C32-E019-11D5-929B-00C0DF256EC4}
  9
$EXTNAMES
290
     1
  9
$PSVPSCALE
 40
0.0
  9
$OLESTARTUP
290
     0
  0
ENDSEC
  0
SECTION
  2
CLASSES
  0
CLASS
  1
ACDBDICTIONARYWDFLT
  2
AcDbDictionaryWithDefault
  3
ObjectDBX Classes
 90
        0
280
     0
281
     0
  0
CLASS
  1
VISUALSTYLE
  2
AcDbVisualStyle
  3
ObjectDBX Classes
 90
     4095
280
     0
281
     0
  0
CLASS
  1
MATERIAL
  2
AcDbMaterial
  3
ObjectDBX Classes
 90
     1153
280
     0
281
     0
  0
CLASS
  1
SCALE
  2
AcDbScale
  3
ObjectDBX Classes
 90
     1153
280
     0
281
     0
  0
CLASS
  1
TABLESTYLE
  2
AcDbTableStyle
  3
ObjectDBX Classes
 90
     4095
280
     0
281
     0
  0
CLASS
  1
MLEADERSTYLE
  2
AcDbMLeaderStyle
  3
ACDB_MLEADERSTYLE_CLASS
 90
     4095
280
     0
281
     0
  0
CLASS
  1
SUN
  2
AcDbSun
  3
SCENEOE
 90
     1153
280
     0
281
     0
  0
CLASS
  1
ACDBPLACEHOLDER
  2
AcDbPlaceHolder
  3
ObjectDBX Classes
 90
        0
280
     0
281
     0
  0
CLASS
  1
LAYOUT
  2
AcDbLayout
  3
ObjectDBX Classes
 90
        0
280
     0
281
     0
  0
ENDSEC
  0
SECTION
  2
TABLES
  0
TABLE
  2
VPORT
  5
8
330
0
100
AcDbSymbolTable
 70
     1
  0
VPORT
  5
29
330
8
100
AcDbSymbolTableRecord
100
AcDbViewportTableRecord
  2
*Active
 70
     0
 10
0.0
 20
0.0
 11
1.0
 21
1.0
 12
1260.0
 22
1782.0
 13
0.0
 23
0.0
 14
10.0
 24
10.0
 15
10.0
 25
10.0
 16
0.0
 26
0.0
 36
1.0
 17
0.0
 27
0.0
 37
0.0
 40
3564.0
 41
0.7070707071
 42
50.0
 43
0.0
 44
0.0
 50
0.0
 51
0.0
 71
     0
 72
  2000
 73
     1
 74
     3
 75
     0
 76
     0
 77
     0
 78
     0
281
     0
 65
     1
110
0.0
120
0.0
130
0.0
111
1.0
121
0.0
131
0.0
112
0.0
122
1.0
132
0.0
 79
     0
146
0.0
  0
ENDTAB
  0
TABLE
  2
LTYPE
  5
5
330
0
100
AcDbSymbolTable
 70
     6
  0
LTYPE
  5
14
330
5
100
AcDbSymbolTableRecord
100
AcDbLinetypeTableRecord
  2
ByBlock
 70
     0
  3

 72
    65
 73
     0
 40
0.0
  0
LTYPE
  5
15
330
5
100
AcDbSymbolTableRecord
100
AcDbLinetypeTableRecord
  2
ByLayer
 70
     0
  3

 72
    65
 73
     0
 40
0.0
  0
LTYPE
  5
16
330
5
100
AcDbSymbolTableRecord
100
AcDbLinetypeTableRecord
  2
Continuous
 70
     0
  3
Solid line
 72
    65
 73
     0
 40
0.0
  0
LTYPE
  5
6E
330
5
100
AcDbSymbolTableRecord
100
AcDbLinetypeTableRecord
  2
HIDDEN
 70
     0
  3
Hidden __ __ __ __ __ __ __ __ __ __ __ __ __ __
 72
    65
 73
     2
 40
1.905
 49
1.27
 74
     0
 49
-0.635
 74
     0
  0
LTYPE
  5
6F
330
5
100
AcDbSymbolTableRecord
100
AcDbLinetypeTableRecord
  2
PHANTOM
 70
     0
  3
Phantom ______  __  __  ______  __  __  ______
 72
    65
 73
     6
 40
12.7
 49
6.35
 74
     0
 49
-1.27
 74
     0
 49
1.27
 74
     0
 49
-1.27
 74
     0
 49
1.27
 74
     0
 49
-1.27
 74
     0
  0
LTYPE
  5
70
330
5
100
AcDbSymbolTableRecord
100
AcDbLinetypeTableRecord
  2
CENTER
 70
     0
  3
Center ____ _ ____ _ ____ _ ____ _ ____ _ ____
 72
    65
 73
     4
 40
10.16
 49
6.35
 74
     0
 49
-1.27
 74
     0
 49
1.27
 74
     0
 49
-1.27
 74
     0
  0
LTYPE
  5
71
330
5
100
AcDbSymbolTableRecord
100
AcDbLinetypeTableRecord
  2
CENTERX2
 70
     0
  3
Center (2x) ________  __  ________  __  _____
 72
    65
 73
     4
 40
20.32
 49
12.7
 74
     0
 49
-2.54
 74
     0
 49
2.54
 74
     0
 49
-2.54
 74
     0
  0
LTYPE
  5
72
330
5
100
AcDbSymbolTableRecord
100
AcDbLinetypeTableRecord
  2
DOT2
 70
     0
  3
Dot (.5x) ........................................
 72
    65
 73
     2
 40
0.635
 49
0.0
 74
     0
 49
-0.635
 74
     0
  0
ENDTAB
  0
TABLE
  2
LAYER
  5
2
330
0
100
AcDbSymbolTable
 70
     1
  0
LAYER
  5
10
330
2
100
AcDbSymbolTableRecord
100
AcDbLayerTableRecord
  2
0
 70
     0
 62
     7
  6
Continuous
370
    -3
390
F
  0
ENDTAB
  0
TABLE
  2
STYLE
  5
3
330
0
100
AcDbSymbolTable
 70
     2
  0
STYLE
  5
11
330
3
100
AcDbSymbolTableRecord
100
AcDbTextStyleTableRecord
  2
Standard
 70
     0
 40
0.0
 41
1.0
 50
0.0
 71
     0
 42
42.0
  3
txt
  4
bigfont
  0
STYLE
  5
73
330
3
100
AcDbSymbolTableRecord
100
AcDbTextStyleTableRecord
  2
SLDTEXTSTYLE0
 70
     0
 40
0.0
 41
0.7
 50
0.0
 71
     0
 42
42.0
  3
TXT
  4
bigfont
  0
ENDTAB
  0
TABLE
  2
VIEW
  5
6
330
0
100
AcDbSymbolTable
 70
     0
  0
ENDTAB
  0
TABLE
  2
UCS
  5
7
330
0
100
AcDbSymbolTable
 70
     0
  0
ENDTAB
  0
TABLE
  2
APPID
  5
9
330
0
100
AcDbSymbolTable
 70
     1
  0
APPID
  5
12
330
9
100
AcDbSymbolTableRecord
100
AcDbRegAppTableRecord
  2
ACAD
 70
     0
  0
ENDTAB
  0
TABLE
  2
DIMSTYLE
  5
A
330
0
100
AcDbSymbolTable
 70
     1
100
AcDbDimStyleTable
  0
DIMSTYLE
105
27
330
A
100
AcDbSymbolTableRecord
100
AcDbDimStyleTableRecord
  2
ISO-25
 70
     0
 41
2.5
 42
0.625
 43
3.75
 44
1.25
 73
     0
 74
     0
 77
     1
 78
     8
140
2.5
141
2.5
143
0.0393700787
147
0.625
171
     3
172
     1
178
     0
271
     2
272
     2
274
     3
278
    44
283
     0
284
     8
340
11
  0
ENDTAB
  0
TABLE
  2
BLOCK_RECORD
  5
1
330
0
100
AcDbSymbolTable
 70
     1
  0
BLOCK_RECORD
  5
1F
330
1
100
AcDbSymbolTableRecord
100
AcDbBlockTableRecord
  2
*Model_Space
340
22
  0
BLOCK_RECORD
  5
1B
330
1
100
AcDbSymbolTableRecord
100
AcDbBlockTableRecord
  2
*Paper_Space
340
1E
  0
BLOCK_RECORD
  5
23
330
1
100
AcDbSymbolTableRecord
100
AcDbBlockTableRecord
  2
*Paper_Space0
340
26
  0
ENDTAB
  0
ENDSEC
  0
SECTION
  2
BLOCKS
  0
BLOCK
  5
20
330
1F
100
AcDbEntity
  8
0
100
AcDbBlockBegin
  2
*Model_Space
 70
     0
 10
0.0
 20
0.0
 30
0.0
  3
*Model_Space
  1

  0
ENDBLK
  5
21
330
1F
100
AcDbEntity
  8
0
100
AcDbBlockEnd
  0
BLOCK
  5
1C
330
1B
100
AcDbEntity
 67
     1
  8
0
100
AcDbBlockBegin
  2
*Paper_Space
 70
     0
 10
0.0
 20
0.0
 30
0.0
  3
*Paper_Space
  1

  0
ENDBLK
  5
1D
330
1B
100
AcDbEntity
 67
     1
  8
0
100
AcDbBlockEnd
  0
BLOCK
  5
24
330
23
100
AcDbEntity
  8
0
100
AcDbBlockBegin
  2
*Paper_Space0
 70
     0
 10
0.0
 20
0.0
 30
0.0
  3
*Paper_Space0
  1

  0
ENDBLK
  5
25
330
23
100
AcDbEntity
  8
0
100
AcDbBlockEnd
  0
ENDSEC
  0
SECTION
  2
ENTITIES
  0
MTEXT
  5
74
330
1F
100
AcDbEntity
  8
0
  6
Continuous
 62
     7
370
     0
100
AcDbMText
 10
1892.9031868303
 20
759.7061786993
 30
0.0
 40
63.5
 41
0.0
 71
     1
 72
     1
  1
HOA-D37G
  7
SLDTEXTSTYLE0
 73
     1
 44
1.0
  0
SPLINE
  5
75
330
1F
100
AcDbEntity
  8
0
  6
Continuous
 62
     7
370
    25
100
AcDbSpline
210
0.0
220
0.0
230
1.0
 70
    11
 71
     3
 72
    99
 73
    95
 74
     0
 42
0.00000001
 43
0.00000001
 40
0.0
 40
0.0
 40
0.0
 40
0.0
 40
0.0075397669445793
 40
0.0139797813862543
 40
0.0193134922629625
 40
0.0238664454490183
 40
0.0270438683894341
 40
0.0293456241300742
 40
0.031772533337234
 40
0.034352281317356
 40
0.0370848119237937
 40
0.0440087726826037
 40
0.0510216897265819
 40
0.0634299141408398
 40
0.0750245576789217
 40
0.0861278910782283
 40
0.0985587292540951
 40
0.1110816532113362
 40
0.1236058975869499
 40
0.136087447671538
 40
0.1498908144094286
 40
0.1655627544658626
 40
0.1813958479375152
 40
0.196730198568954
 40
0.2171201303257039
 40
0.237515997433624
 40
0.2578193696619206
 40
0.2731445617262153
 40
0.2884476451927783
 40
0.3036750947170494
 40
0.3189526486310477
 40
0.3342878509932853
 40
0.3495519748266769
 40
0.364795866421399
 40
0.3801334013551149
 40
0.3972870690885662
 40
0.4143771138768289
 40
0.4212478496759662
 40
0.4285472878702657
 40
0.4359823468322206
 40
0.4418287436728335
 40
0.4487078732143707
 40
0.4581385767175229
 40
0.46740275435155
 40
0.4761605853087542
 40
0.4849274866843749
 40
0.4938390762827741
 40
0.5030321800052
 40
0.5170333442081567
 40
0.5284710925505481
 40
0.5385006811961689
 40
0.5513007446361787
 40
0.5636716634898598
 40
0.571652486230468
 40
0.579940281194291
 40
0.5886066556642925
 40
0.5960796462284653
 40
0.6018593903871775
 40
0.6088456653970865
 40
0.6168673223655475
 40
0.6246827233280103
 40
0.6399680955075614
 40
0.6553190454562491
 40
0.6708910534835638
 40
0.6868040053903695
 40
0.6983602561954217
 40
0.7096672040724957
 40
0.7224670337221866
 40
0.7347592384554513
 40
0.7469952803383612
 40
0.7623752652481687
 40
0.7776575355119338
 40
0.7929090927223086
 40
0.8082431074202007
 40
0.8235759107849809
 40
0.8388268020023785
 40
0.8541031663290991
 40
0.8694756418125054
 40
0.8817089101495582
 40
0.8939156305041206
 40
0.9061516914955765
 40
0.9184837025608579
 40
0.9317490433855841
 40
0.9380908547434789
 40
0.9429109117296939
 40
0.9477058285286412
 40
0.9540050043861004
 40
0.9605627993930869
 40
0.9655023742217351
 40
0.9700029794028887
 40
0.9753599530706724
 40
0.9821521044715806
 40
0.990358682738135
 40
1.0
 40
1.0
 40
1.0
 40
1.0
 10
1500.885377675609
 20
1945.577383337615
 30
0.0
 10
1500.016807376991
 20
1945.620274035825
 30
0.0
 10
1498.40635668501
 20
1945.699799383079
 30
0.0
 10
1496.240444426152
 20
1945.629521117419
 30
0.0
 10
1494.442538918387
 20
1945.478656013747
 30
0.0
 10
1493.02899632451
 20
1945.289269372575
 30
0.0
 10
1491.958073610273
 20
1945.103815752624
 30
0.0
 10
1491.120692425815
 20
1944.934349191298
 30
0.0
 10
1490.354077618956
 20
1944.759553408056
 30
0.0
 10
1489.550407067983
 20
1944.554092215954
 30
0.0
 10
1488.294107601871
 20
1944.19510859093
 30
0.0
 10
1486.618992262451
 20
1943.621390273984
 30
0.0
 10
1484.061831135517
 20
1942.524611618451
 30
0.0
 10
1481.206294315172
 20
1940.922362541198
 30
0.0
 10
1478.217817791858
 20
1938.687153558545
 30
0.0
 10
1475.474809076007
 20
1936.072515769406
 30
0.0
 10
1472.926488207841
 20
1932.994605403323
 30
0.0
 10
1470.586466912107
 20
1929.382026132302
 30
0.0
 10
1468.564535016618
 20
1925.375952936979
 30
0.0
 10
1466.812339193785
 20
1920.855805139669
 30
0.0
 10
1465.30869153199
 20
1915.577983574351
 30
0.0
 10
1464.166894035876
 20
1909.447668857811
 30
0.0
 10
1463.518524978216
 20
1902.682220096935
 30
0.0
 10
1463.388907186874
 20
1894.845545380454
 30
0.0
 10
1463.976983144938
 20
1885.911573575654
 30
0.0
 10
1465.513489508952
 20
1875.852115369517
 30
0.0
 10
1467.726351297054
 20
1866.468731571796
 30
0.0
 10
1470.356262150788
 20
1857.941921694271
 30
0.0
 10
1473.185134565071
 20
1850.335522936103
 30
0.0
 10
1476.452613317259
 20
1842.880364439185
 30
0.0
 10
1480.141160906337
 20
1835.633293401544
 30
0.0
 10
1484.22671568942
 20
1828.663624324785
 30
0.0
 10
1488.673287949507
 20
1822.049332742226
 30
0.0
 10
1493.449800096594
 20
1815.847444675773
 30
0.0
 10
1498.729008822613
 20
1809.884713099622
 30
0.0
 10
1504.502253882506
 20
1804.298184068152
 30
0.0
 10
1509.494897546885
 20
1800.256328455618
 30
0.0
 10
1513.367600743214
 20
1797.525281460975
 30
0.0
 10
1516.071982807353
 20
1795.779927679121
 30
0.0
 10
1518.669688181456
 20
1794.262277597156
 30
0.0
 10
1521.229299068545
 20
1792.906459650233
 30
0.0
 10
1524.057198468897
 20
1791.555229301738
 30
0.0
 10
1527.33130211987
 20
1790.206350269986
 30
0.0
 10
1530.845688092538
 20
1789.023736510154
 30
0.0
 10
1534.263480301006
 20
1788.124983649728
 30
0.0
 10
1537.613931871476
 20
1787.484011988973
 30
0.0
 10
1540.98552572516
 20
1787.086860803658
 30
0.0
 10
1544.957765423442
 20
1786.925117163245
 30
0.0
 10
1549.145519158656
 20
1787.184744939322
 30
0.0
 10
1553.28722818697
 20
1787.933754899547
 30
0.0
 10
1557.153938896276
 20
1789.049576296215
 30
0.0
 10
1560.950742556364
 20
1790.614876784376
 30
0.0
 10
1564.317480931715
 20
1792.514494914894
 30
0.0
 10
1567.058069505123
 20
1794.442256744688
 30
0.0
 10
1569.32197537439
 20
1796.312735364993
 30
0.0
 10
1571.406549900392
 20
1798.335035083566
 30
0.0
 10
1573.157571516939
 20
1800.306461579474
 30
0.0
 10
1574.678852367101
 20
1802.238926755868
 30
0.0
 10
1576.146534718617
 20
1804.333929260651
 30
0.0
 10
1577.632473736988
 20
1806.77107007454
 30
0.0
 10
1579.470207515695
 20
1810.282742911513
 30
0.0
 10
1581.392087429799
 20
1814.947136330517
 30
0.0
 10
1583.125019556447
 20
1821.007175766902
 30
0.0
 10
1584.27266752918
 20
1827.560139777145
 30
0.0
 10
1584.747965875929
 20
1833.908582455427
 30
0.0
 10
1584.71778789168
 20
1839.83208301362
 30
0.0
 10
1584.340890544514
 20
1845.408022415377
 30
0.0
 10
1583.583396604788
 20
1851.213418278993
 30
0.0
 10
1582.414569360046
 20
1857.25003828263
 30
0.0
 10
1580.765482944994
 20
1863.754135300283
 30
0.0
 10
1578.52274203477
 20
1870.763611578901
 30
0.0
 10
1575.594210634638
 20
1878.218819985857
 30
0.0
 10
1572.171755559709
 20
1885.55479702082
 30
0.0
 10
1568.289182062938
 20
1892.724042200889
 30
0.0
 10
1563.989710121263
 20
1899.65486015648
 30
0.0
 10
1559.328168734179
 20
1906.281070045129
 30
0.0
 10
1554.341747720769
 20
1912.557713504358
 30
0.0
 10
1549.432032362612
 20
1918.040397627313
 30
0.0
 10
1544.706419957301
 20
1922.770009539919
 30
0.0
 10
1540.24288025974
 20
1926.809529661286
 30
0.0
 10
1535.684696557278
 20
1930.518629532421
 30
0.0
 10
1530.938744465006
 20
1933.960015014354
 30
0.0
 10
1526.90617900003
 20
1936.518585766496
 30
0.0
 10
1523.824403533344
 20
1938.261286209836
 30
0.0
 10
1521.813587551839
 20
1939.319213494997
 30
0.0
 10
1519.810196733569
 20
1940.304762324742
 30
0.0
 10
1517.595013208269
 20
1941.306646461825
 30
0.0
 10
1515.373883166049
 20
1942.207871294873
 30
0.0
 10
1513.389369621513
 20
1942.92929848454
 30
0.0
 10
1511.564471964547
 20
1943.528252967975
 30
0.0
 10
1509.522682633874
 20
1944.122717362632
 30
0.0
 10
1507.050601976244
 20
1944.72338684842
 30
0.0
 10
1504.094880967765
 20
1945.280787093097
 30
0.0
 10
1502.011049761192
 20
1945.473357859916
 30
0.0
 10
1500.885377675609
 20
1945.577383337615
 30
0.0
  0
SPLINE
  5
76
330
1F
100
AcDbEntity
  8
0
  6
Continuous
 62
     7
370
    25
100
AcDbSpline
210
0.0
220
0.0
230
1.0
 70
    11
 71
     3
 72
    99
 73
    95
 74
     0
 42
0.00000001
 43
0.00000001
 40
0.0
 40
0.0
 40
0.0
 40
0.0
 40
0.0075397669445794
 40
0.0139797813862543
 40
0.0193134922629624
 40
0.0238664454490183
 40
0.0270438683894341
 40
0.0293456241300743
 40
0.0317725333372339
 40
0.0343522813173561
 40
0.0370848119237937
 40
0.0440087726826038
 40
0.0510216897265818
 40
0.0634299141408397
 40
0.0750245576789216
 40
0.0861278910782282
 40
0.0985587292540952
 40
0.1110816532113362
 40
0.1236058975869499
 40
0.1360874476715381
 40
0.1498908144094286
 40
0.1655627544658625
 40
0.1813958479375151
 40
0.196730198568954
 40
0.2171201303257039
 40
0.237515997433624
 40
0.2578193696619206
 40
0.2731445617262153
 40
0.2884476451927783
 40
0.3036750947170495
 40
0.3189526486310477
 40
0.3342878509932853
 40
0.349551974826677
 40
0.3647958664213992
 40
0.380133401355115
 40
0.3972870690885664
 40
0.414377113876829
 40
0.4212478496759664
 40
0.4285472878702657
 40
0.4359823468322207
 40
0.4418287436728336
 40
0.4487078732143708
 40
0.4581385767175229
 40
0.4674027543515501
 40
0.4761605853087542
 40
0.484927486684375
 40
0.4938390762827741
 40
0.5030321800052
 40
0.5170333442081568
 40
0.5284710925505482
 40
0.5385006811961689
 40
0.5513007446361787
 40
0.5636716634898599
 40
0.5716524862304683
 40
0.5799402811942911
 40
0.5886066556642925
 40
0.5960796462284654
 40
0.6018593903871774
 40
0.6088456653970865
 40
0.6168673223655474
 40
0.6246827233280102
 40
0.6399680955075612
 40
0.6553190454562491
 40
0.6708910534835638
 40
0.6868040053903693
 40
0.6983602561954216
 40
0.7096672040724955
 40
0.7224670337221863
 40
0.7347592384554512
 40
0.746995280338361
 40
0.7623752652481687
 40
0.7776575355119338
 40
0.7929090927223085
 40
0.8082431074202006
 40
0.8235759107849807
 40
0.8388268020023782
 40
0.854103166329099
 40
0.8694756418125054
 40
0.8817089101495582
 40
0.8939156305041206
 40
0.9061516914955764
 40
0.9184837025608579
 40
0.931749043385584
 40
0.9380908547434789
 40
0.9429109117296937
 40
0.9477058285286412
 40
0.9540050043861001
 40
0.9605627993930866
 40
0.9655023742217351
 40
0.9700029794028887
 40
0.9753599530706726
 40
0.9821521044715806
 40
0.990358682738135
 40
1.0
 40
1.0
 40
1.0
 40
1.0
 10
744.2811218060043
 20
2390.521131281622
 30
0.0
 10
743.4125515073863
 20
2390.564021979833
 30
0.0
 10
741.8021008154055
 20
2390.643547327087
 30
0.0
 10
739.6361885565478
 20
2390.573269061427
 30
0.0
 10
737.8382830487823
 20
2390.422403957754
 30
0.0
 10
736.4247404549055
 20
2390.233017316583
 30
0.0
 10
735.3538177406682
 20
2390.047563696632
 30
0.0
 10
734.5164365562107
 20
2389.878097135305
 30
0.0
 10
733.7498217493516
 20
2389.703301352064
 30
0.0
 10
732.9461511983787
 20
2389.497840159961
 30
0.0
 10
731.6898517322666
 20
2389.138856534938
 30
0.0
 10
730.0147363928468
 20
2388.565138217992
 30
0.0
 10
727.4575752659127
 20
2387.468359562458
 30
0.0
 10
724.6020384455668
 20
2385.866110485206
 30
0.0
 10
721.6135619222537
 20
2383.630901502552
 30
0.0
 10
718.8705532064016
 20
2381.016263713414
 30
0.0
 10
716.3222323382363
 20
2377.938353347331
 30
0.0
 10
713.982211042502
 20
2374.32577407631
 30
0.0
 10
711.9602791470132
 20
2370.319700880987
 30
0.0
 10
710.2080833241807
 20
2365.799553083676
 30
0.0
 10
708.7044356623853
 20
2360.521731518359
 30
0.0
 10
707.5626381662711
 20
2354.391416801819
 30
0.0
 10
706.9142691086108
 20
2347.625968040943
 30
0.0
 10
706.7846513172692
 20
2339.789293324462
 30
0.0
 10
707.3727272753333
 20
2330.855321519661
 30
0.0
 10
708.9092336393475
 20
2320.795863313525
 30
0.0
 10
711.1220954274493
 20
2311.412479515803
 30
0.0
 10
713.7520062811833
 20
2302.885669638279
 30
0.0
 10
716.5808786954665
 20
2295.279270880111
 30
0.0
 10
719.8483574476545
 20
2287.824112383193
 30
0.0
 10
723.5369050367322
 20
2280.577041345551
 30
0.0
 10
727.6224598198157
 20
2273.607372268792
 30
0.0
 10
732.0690320799027
 20
2266.993080686234
 30
0.0
 10
736.8455442269898
 20
2260.79119261978
 30
0.0
 10
742.124752953009
 20
2254.828461043629
 30
0.0
 10
747.8979980129014
 20
2249.24193201216
 30
0.0
 10
752.89064167728
 20
2245.200076399626
 30
0.0
 10
756.7633448736098
 20
2242.469029404982
 30
0.0
 10
759.4677269377485
 20
2240.723675623129
 30
0.0
 10
762.0654323118513
 20
2239.206025541163
 30
0.0
 10
764.62504319894
 20
2237.850207594241
 30
0.0
 10
767.4529425992923
 20
2236.498977245746
 30
0.0
 10
770.7270462502653
 20
2235.150098213994
 30
0.0
 10
774.2414322229336
 20
2233.967484454162
 30
0.0
 10
777.6592244314019
 20
2233.068731593736
 30
0.0
 10
781.0096760018713
 20
2232.42775993298
 30
0.0
 10
784.3812698555555
 20
2232.030608747666
 30
0.0
 10
788.3535095538379
 20
2231.868865107253
 30
0.0
 10
792.5412632890509
 20
2232.128492883329
 30
0.0
 10
796.6829723173649
 20
2232.877502843555
 30
0.0
 10
800.5496830266712
 20
2233.993324240223
 30
0.0
 10
804.346486686759
 20
2235.558624728384
 30
0.0
 10
807.7132250621106
 20
2237.458242858902
 30
0.0
 10
810.4538136355184
 20
2239.386004688695
 30
0.0
 10
812.7177195047852
 20
2241.256483309
 30
0.0
 10
814.8022940307877
 20
2243.278783027573
 30
0.0
 10
816.5533156473347
 20
2245.250209523482
 30
0.0
 10
818.0745964974967
 20
2247.182674699875
 30
0.0
 10
819.5422788490117
 20
2249.277677204658
 30
0.0
 10
821.0282178673831
 20
2251.714818018547
 30
0.0
 10
822.8659516460905
 20
2255.22649085552
 30
0.0
 10
824.7878315601939
 20
2259.890884274525
 30
0.0
 10
826.5207636868424
 20
2265.950923710909
 30
0.0
 10
827.6684116595752
 20
2272.503887721153
 30
0.0
 10
828.1437100063241
 20
2278.852330399435
 30
0.0
 10
828.1135320220748
 20
2284.775830957628
 30
0.0
 10
827.736634674909
 20
2290.351770359385
 30
0.0
 10
826.9791407351834
 20
2296.157166223
 30
0.0
 10
825.8103134904411
 20
2302.193786226637
 30
0.0
 10
824.1612270753892
 20
2308.69788324429
 30
0.0
 10
821.9184861651662
 20
2315.707359522908
 30
0.0
 10
818.9899547650332
 20
2323.162567929865
 30
0.0
 10
815.5674996901048
 20
2330.498544964827
 30
0.0
 10
811.6849261933334
 20
2337.667790144896
 30
0.0
 10
807.3854542516584
 20
2344.598608100488
 30
0.0
 10
802.7239128645747
 20
2351.224817989136
 30
0.0
 10
797.7374918511647
 20
2357.501461448366
 30
0.0
 10
792.8277764930071
 20
2362.98414557132
 30
0.0
 10
788.1021640876966
 20
2367.713757483927
 30
0.0
 10
783.6386243901349
 20
2371.753277605294
 30
0.0
 10
779.0804406876737
 20
2375.462377476429
 30
0.0
 10
774.3344885954016
 20
2378.903762958361
 30
0.0
 10
770.3019231304254
 20
2381.462333710504
 30
0.0
 10
767.2201476637393
 20
2383.205034153844
 30
0.0
 10
765.2093316822346
 20
2384.262961439005
 30
0.0
 10
763.205940863965
 20
2385.24851026875
 30
0.0
 10
760.9907573386638
 20
2386.250394405832
 30
0.0
 10
758.7696272964445
 20
2387.15161923888
 30
0.0
 10
756.7851137519082
 20
2387.873046428547
 30
0.0
 10
754.9602160949428
 20
2388.472000911983
 30
0.0
 10
752.9184267642688
 20
2389.06646530664
 30
0.0
 10
750.44634610664
 20
2389.667134792427
 30
0.0
 10
747.490625098161
 20
2390.224535037105
 30
0.0
 10
745.4067938915874
 20
2390.417105803924
 30
0.0
 10
744.2811218060043
 20
2390.521131281622
 30
0.0
  0
SPLINE
  5
77
330
1F
100
AcDbEntity
  8
0
  6
Continuous
 62
     7
370
    25
100
AcDbSpline
210
0.0
220
0.0
230
1.0
 70
     8
 71
     3
 72
    32
 73
    28
 74
     0
 42
0.00000001
 43
0.00000001
 40
0.0
 40
0.0
 40
0.0
 40
0.0
 40
0.021739729120413
 40
0.0596497869320951
 40
0.0870644165155806
 40
0.1213774810973121
 40
0.1592726965295741
 40
0.1944697821763434
 40
0.229292914481015
 40
0.2605156192982498
 40
0.2935769820512118
 40
0.3192761071839412
 40
0.3441216740231362
 40
0.3772531236666088
 40
0.4099459413710094
 40
0.4396201732370171
 40
0.4837364681654679
 40
0.5410452598376302
 40
0.5968103105626135
 40
0.6503954056466559
 40
0.6985037151163375
 40
0.7516896039580864
 40
0.8047246534479809
 40
0.8570692194977559
 40
0.9095889099602745
 40
0.9618400378459206
 40
1.0
 40
1.0
 40
1.0
 40
1.0
 10
811.3467719917651
 20
2240.173456459153
 30
0.0
 10
812.1452813996916
 20
2239.742630726415
 30
0.0
 10
814.3362431997338
 20
2238.560524775584
 30
0.0
 10
817.4625678182495
 20
2237.246211974218
 30
0.0
 10
820.9911554824398
 20
2235.91632105088
 30
0.0
 10
824.4605391809628
 20
2234.848664731438
 30
0.0
 10
828.1041003475979
 20
2234.008314362
 30
0.0
 10
831.6557734193436
 20
2233.492503021857
 30
0.0
 10
834.8765107945401
 20
2233.308396058495
 30
0.0
 10
837.9151356349054
 20
2233.408080685175
 30
0.0
 10
840.5631854042527
 20
2233.74797665833
 30
0.0
 10
842.9204774919725
 20
2234.275995445225
 30
0.0
 10
845.1954256386155
 20
2234.9889196065
 30
0.0
 10
847.5397892408064
 20
2235.989762161159
 30
0.0
 10
849.8510331893131
 20
2237.312946926838
 30
0.0
 10
852.250589579239
 20
2239.069429635791
 30
0.0
 10
854.927744435178
 20
2241.618850850439
 30
0.0
 10
857.6637451358803
 20
2245.287925896817
 30
0.0
 10
859.9938783250358
 20
2249.857621241592
 30
0.0
 10
861.6562344222095
 20
2254.750534997147
 30
0.0
 10
862.7943020381463
 20
2260.027811597671
 30
0.0
 10
863.4410572446446
 20
2265.719631754525
 30
0.0
 10
863.57707219513
 20
2271.994760699493
 30
0.0
 10
863.1975948786225
 20
2278.604243434169
 30
0.0
 10
862.2940660948861
 20
2285.486092697919
 30
0.0
 10
861.0717909914408
 20
2291.948060065614
 30
0.0
 10
859.939444416134
 20
2296.150916991771
 30
0.0
 10
859.461512976086
 20
2297.924823944676
 30
0.0
  0
SPLINE
  5
78
330
1F
100
AcDbEntity
  8
0
  6
Continuous
 62
     7
370
    25
100
AcDbSpline
210
0.0
220
0.0
230
1.0
 70
     8
 71
     3
 72
    31
 73
    27
 74
     0
 42
0.00000001
 43
0.00000001
 40
0.0
 40
0.0
 40
0.0
 40
0.0
 40
0.0016931198038308
 40
0.0558883266434733
 40
0.1097969612171918
 40
0.1638161716593977
 40
0.218139660200607
 40
0.2721392858007362
 40
0.3260693871783085
 40
0.3803080497592842
 40
0.4345517797899875
 40
0.4885234572862931
 40
0.5426422811156897
 40
0.5970381577468102
 40
0.6512149865375296
 40
0.6889412540823254
 40
0.7280315856252761
 40
0.7563195135315249
 40
0.7924680456681821
 40
0.831348985686493
 40
0.8675406632895654
 40
0.8984277265990184
 40
0.9305796632450261
 40
0.9650699816539249
 40
0.9931559151837702
 40
0.9999999999999999
 40
0.9999999999999999
 40
0.9999999999999999
 40
0.9999999999999999
 10
856.6755983205549
 20
2307.017408048882
 30
0.0
 10
856.6511243990684
 20
2307.094230086986
 30
0.0
 10
855.8432627727406
 20
2309.630054869907
 30
0.0
 10
853.830412741204
 20
2314.654701169644
 30
0.0
 10
850.6239213302692
 20
2322.009594478239
 30
0.0
 10
846.9459900531251
 20
2329.265377606972
 30
0.0
 10
842.8935244787506
 20
2336.341769340735
 30
0.0
 10
838.4820690622191
 20
2343.163212412865
 30
0.0
 10
833.7524211498938
 20
2349.665146199011
 30
0.0
 10
828.7280926622901
 20
2355.794803030064
 30
0.0
 10
823.4566428580192
 20
2361.486067643734
 30
0.0
 10
817.985567203577
 20
2366.677469699534
 30
0.0
 10
812.3515679372989
 20
2371.328975562963
 30
0.0
 10
806.6001815905171
 20
2375.394286629326
 30
0.0
 10
801.3735338455862
 20
2378.482402134639
 30
0.0
 10
796.6890511801557
 20
2380.794145868593
 30
0.0
 10
792.9436865328074
 20
2382.337009647482
 30
0.0
 10
789.2798721072052
 20
2383.581073075391
 30
0.0
 10
785.6515480709833
 20
2384.557301704254
 30
0.0
 10
781.8071478527189
 20
2385.268064914114
 30
0.0
 10
778.218669674638
 20
2385.617170888591
 30
0.0
 10
774.9371211891304
 20
2385.664081436133
 30
0.0
 10
771.7928686525214
 20
2385.459209985398
 30
0.0
 10
768.8444347312487
 20
2384.982049124255
 30
0.0
 10
766.7419205295565
 20
2384.493713198284
 30
0.0
 10
765.7289126112117
 20
2384.150825695528
 30
0.0
 10
765.5304268261781
 20
2384.083641329117
 30
0.0
  0
SPLINE
  5
79
330
1F
100
AcDbEntity
  8
0
  6
Continuous
 62
     7
370
    25
100
AcDbSpline
210
0.0
220
0.0
230
1.0
 70
     8
 71
     3
 72
    33
 73
    29
 74
     0
 42
0.00000001
 43
0.00000001
 40
0.0
 40
0.0
 40
0.0
 40
0.0
 40
0.0206079094176082
 40
0.0565442834668057
 40
0.0825316451328379
 40
0.1150582935940124
 40
0.1509805979917933
 40
0.1843452433723708
 40
0.2173554042716709
 40
0.2469525841207107
 40
0.2782926971948871
 40
0.3026538674704519
 40
0.3262059176370052
 40
0.3576124687188954
 40
0.3886032240372784
 40
0.4167325479559266
 40
0.4585520483135603
 40
0.5128772140537128
 40
0.5657390095086374
 40
0.6165343427673644
 40
0.6621380243171275
 40
0.7125549349177542
 40
0.7628288592059753
 40
0.8124482481911331
 40
0.8622336442141266
 40
0.9117644596383238
 40
0.9611772774837448
 40
1.0
 40
1.0
 40
1.0
 40
1.0
 10
1567.95102786137
 20
1795.229708515146
 30
0.0
 10
1568.749537269296
 20
1794.798882782407
 30
0.0
 10
1570.940499069339
 20
1793.616776831576
 30
0.0
 10
1574.066823687854
 20
1792.30246403021
 30
0.0
 10
1577.595411352044
 20
1790.972573106873
 30
0.0
 10
1581.064795050567
 20
1789.904916787431
 30
0.0
 10
1584.708356217203
 20
1789.064566417993
 30
0.0
 10
1588.260029288947
 20
1788.54875507785
 30
0.0
 10
1591.480766664149
 20
1788.364648114487
 30
0.0
 10
1594.519391504495
 20
1788.464332741171
 30
0.0
 10
1597.167441273912
 20
1788.80422871431
 30
0.0
 10
1599.524733361426
 20
1789.332247501253
 30
0.0
 10
1601.799681508843
 20
1790.045171662347
 30
0.0
 10
1604.14404510722
 20
1791.046014217899
 30
0.0
 10
1606.45528907009
 20
1792.369198980215
 30
0.0
 10
1608.854845403791
 20
1794.125681702332
 30
0.0
 10
1611.532000601684
 20
1796.675102836912
 30
0.0
 10
1614.267999562157
 20
1800.344178290761
 30
0.0
 10
1616.598139285897
 20
1804.913872105478
 30
0.0
 10
1618.260472894231
 20
1809.806791126746
 30
0.0
 10
1619.398618110829
 20
1815.084049557246
 30
0.0
 10
1620.045061185138
 20
1820.775942799163
 30
0.0
 10
1620.182257297293
 20
1827.050795177733
 30
0.0
 10
1619.79842863157
 20
1833.661296771224
 30
0.0
 10
1618.911118827753
 20
1840.539348396623
 30
0.0
 10
1617.509175331927
 20
1847.646859427073
 30
0.0
 10
1615.807805435801
 20
1854.382734935381
 30
0.0
 10
1614.359062061163
 20
1858.763215101616
 30
0.0
 10
1613.721630003736
 20
1860.690580937249
 30
0.0
  0
SPLINE
  5
7A
330
1F
100
AcDbEntity
  8
0
  6
Continuous
 62
     7
370
    25
100
AcDbSpline
210
0.0
220
0.0
230
1.0
 70
     8
 71
     3
 72
    30
 73
    26
 74
     0
 42
0.00000001
 43
0.00000001
 40
0.0
 40
0.0
 40
0.0
 40
0.0
 40
0.0066754062298948
 40
0.0633940911586195
 40
0.1202291158517449
 40
0.177384279494123
 40
0.2341986984624712
 40
0.2909399691771992
 40
0.3480058852073846
 40
0.405077132834016
 40
0.4618621468710826
 40
0.518801977415208
 40
0.5760333024609815
 40
0.6330341615425866
 40
0.6727269547162661
 40
0.7138549153124878
 40
0.7436173844027953
 40
0.7816502008728767
 40
0.8225578551673961
 40
0.8606360661115738
 40
0.8931331535647312
 40
0.9269610473500852
 40
0.9632492137708215
 40
0.9927991592926287
 40
1.0
 40
1.0
 40
1.0
 40
1.0
 10
1610.719820248261
 20
1868.845888240178
 30
0.0
 10
1610.610742890161
 20
1869.135065574769
 30
0.0
 10
1609.574871851815
 20
1871.881285606738
 30
0.0
 10
1607.191102368382
 20
1877.066043518892
 30
0.0
 10
1603.560253065048
 20
1884.321576493377
 30
0.0
 10
1599.495110330029
 20
1891.398035582974
 30
0.0
 10
1595.087037394084
 20
1898.219460683429
 30
0.0
 10
1590.356485002435
 20
1904.721399275222
 30
0.0
 10
1585.332400120366
 20
1910.851054811958
 30
0.0
 10
1580.0608849825
 20
1916.542319772757
 30
0.0
 10
1574.58982675914
 20
1921.733721735943
 30
0.0
 10
1568.955822811502
 20
1926.385227624244
 30
0.0
 10
1563.20443772939
 20
1930.450538683888
 30
0.0
 10
1557.977789667073
 20
1933.538654190887
 30
0.0
 10
1553.2933070612
 20
1935.850397924525
 30
0.0
 10
1549.547942400263
 20
1937.393261703486
 30
0.0
 10
1545.884127977462
 20
1938.637325131381
 30
0.0
 10
1542.255803940379
 20
1939.613553760248
 30
0.0
 10
1538.411403722377
 20
1940.324316970107
 30
0.0
 10
1534.822925544231
 20
1940.673422944583
 30
0.0
 10
1531.541377058738
 20
1940.720333492126
 30
0.0
 10
1528.397124522125
 20
1940.51546204139
 30
0.0
 10
1525.448690600854
 20
1940.038301180248
 30
0.0
 10
1523.346176399161
 20
1939.549965254277
 30
0.0
 10
1522.333168480817
 20
1939.20707775152
 30
0.0
 10
1522.134682695783
 20
1939.13989338511
 30
0.0
  0
SPLINE
  5
7B
330
1F
100
AcDbEntity
  8
0
  6
Continuous
 62
     7
370
    25
100
AcDbSpline
210
0.0
220
0.0
230
1.0
 70
    11
 71
     3
 72
    98
 73
    94
 74
     0
 42
0.00000001
 43
0.00000001
 40
0.0
 40
0.0
 40
0.0
 40
0.0
 40
0.0109720649266355
 40
0.0194093513267726
 40
0.0251606744940124
 40
0.0285722104713373
 40
0.0317076786228887
 40
0.0351465179446045
 40
0.0388884692064087
 40
0.0428613146961931
 40
0.0468455485195739
 40
0.0508278333127541
 40
0.0591839839771219
 40
0.0676415006948405
 40
0.0759555810525164
 40
0.0890311320761246
 40
0.1047103101529622
 40
0.1202190186781072
 40
0.136687141350402
 40
0.1478417862865639
 40
0.1559756737581411
 40
0.1653775751841178
 40
0.1760428599885254
 40
0.1863543658967404
 40
0.1965763416705146
 40
0.2169788170273971
 40
0.2373740343113843
 40
0.2576876909770314
 40
0.2781245538093921
 40
0.2984617390217561
 40
0.318809331073641
 40
0.3392406386725799
 40
0.359562731315384
 40
0.3799844378810891
 40
0.3876677776588643
 40
0.3953159374783317
 40
0.4029524911091668
 40
0.4105866238470225
 40
0.4182701842374554
 40
0.4264033141665117
 40
0.4349203195958616
 40
0.4416730335126391
 40
0.4499909963213033
 40
0.4611519760872204
 40
0.4716360479609497
 40
0.4818420427146443
 40
0.492177220023849
 40
0.5028791239129425
 40
0.5168383896887992
 40
0.5282442758274926
 40
0.5383296078343792
 40
0.5511340390795575
 40
0.563515967222268
 40
0.5741991330960063
 40
0.5848162479662493
 40
0.5946591843499243
 40
0.6036106810522935
 40
0.6140341245021768
 40
0.6245128932390122
 40
0.6332444514554063
 40
0.6419947911921715
 40
0.650775462756854
 40
0.6595272118782227
 40
0.6684475202675605
 40
0.6774966118294835
 40
0.6846970372915065
 40
0.6914632273671357
 40
0.7014320701486064
 40
0.7112927632367168
 40
0.7204995786764199
 40
0.7293598048243359
 40
0.7380878505522372
 40
0.7468363731012282
 40
0.7673175761497324
 40
0.7876586014185548
 40
0.8080750734411594
 40
0.8284912870793283
 40
0.848828447135409
 40
0.8693002691547208
 40
0.8845884445403712
 40
0.8998558267103632
 40
0.9152070253030115
 40
0.9315916909622145
 40
0.9379167405018041
 40
0.94271814890573
 40
0.9475157204957575
 40
0.9538137916692502
 40
0.9603640519079422
 40
0.9662292209938306
 40
0.9717729189493559
 40
0.9791020600316527
 40
0.9885058741448255
 40
1.0
 40
1.0
 40
1.0
 40
1.0
 10
1292.435064084384
 20
2045.822083253098
 30
0.0
 10
1291.386462615159
 20
2045.860997096964
 30
0.0
 10
1289.5315087433
 20
2045.929834865617
 30
0.0
 10
1287.215893275745
 20
2045.745620810622
 30
0.0
 10
1285.632469304023
 20
2045.519874186473
 30
0.0
 10
1284.541555246577
 20
2045.311397013326
 30
0.0
 10
1283.665386619146
 20
2045.113453232559
 30
0.0
 10
1282.772161273628
 20
2044.879447090483
 30
0.0
 10
1281.820809838463
 20
2044.591537776266
 30
0.0
 10
1280.840055965182
 20
2044.250358574076
 30
0.0
 10
1279.858052611131
 20
2043.861279428706
 30
0.0
 10
1278.542329838119
 20
2043.273721646505
 30
0.0
 10
1276.920148314797
 20
2042.415074592708
 30
0.0
 10
1275.058789334632
 20
2041.202004816601
 30
0.0
 10
1272.969314549625
 20
2039.557719067461
 30
0.0
 10
1270.581389181573
 20
2037.206733462543
 30
0.0
 10
1268.0676428494
 20
2033.91823385091
 30
0.0
 10
1265.7800702538
 20
2029.856770214022
 30
0.0
 10
1264.111892096067
 20
2025.737212151749
 30
0.0
 10
1263.022246365969
 20
2022.035727138213
 30
0.0
 10
1262.315328176916
 20
2018.921911232355
 30
0.0
 10
1261.770608780007
 20
2015.737835933586
 30
0.0
 10
1261.367265947446
 20
2012.164034754103
 30
0.0
 10
1261.151917014155
 20
2008.357094528131
 30
0.0
 10
1261.124817480518
 20
2003.206670914794
 30
0.0
 10
1261.568191966193
 20
1996.529745009041
 30
0.0
 10
1262.846276410034
 20
1988.263848273952
 30
0.0
 10
1264.859249195429
 20
1979.855496573982
 30
0.0
 10
1267.577061146925
 20
1971.456850671754
 30
0.0
 10
1270.968368425948
 20
1963.194533048231
 30
0.0
 10
1274.987154169444
 20
1955.211293759899
 30
0.0
 10
1279.580720524597
 20
1947.642325187413
 30
0.0
 10
1284.69292150718
 20
1940.606319363121
 30
0.0
 10
1289.092140709533
 20
1935.55853020864
 30
0.0
 10
1292.481952664809
 20
1932.145238392228
 30
0.0
 10
1294.706324269049
 20
1930.066000779365
 30
0.0
 10
1296.967271070436
 20
1928.10952976532
 30
0.0
 10
1299.268583444046
 20
1926.273891433508
 30
0.0
 10
1301.652100825423
 20
1924.529564090849
 30
0.0
 10
1304.154592065374
 20
1922.863683461973
 30
0.0
 10
1306.58446931074
 20
1921.412538192176
 30
0.0
 10
1309.049234557385
 20
1920.093219612735
 30
0.0
 10
1311.806961626192
 20
1918.784583383419
 30
0.0
 10
1314.964958411716
 20
1917.531362961932
 30
0.0
 10
1318.315982881898
 20
1916.493426420463
 30
0.0
 10
1321.560073175328
 20
1915.761097777678
 30
0.0
 10
1324.792581245852
 20
1915.304538823729
 30
0.0
 10
1328.356984683373
 20
1915.118185724366
 30
0.0
 10
1331.941038012086
 20
1915.321664799081
 30
0.0
 10
1335.342500983256
 20
1915.91848701877
 30
0.0
 10
1338.523676602088
 20
1916.820549439639
 30
0.0
 10
1341.64935514273
 20
1918.09744129467
 30
0.0
 10
1344.640732808871
 20
1919.777342541195
 30
0.0
 10
1347.266276510903
 20
1921.669899336691
 30
0.0
 10
1349.524126049786
 20
1923.677886437284
 30
0.0
 10
1351.491144991872
 20
1925.797466824449
 30
0.0
 10
1353.285384470014
 20
1928.094832473349
 30
0.0
 10
1354.948301466771
 20
1930.639442060193
 30
0.0
 10
1356.407474174526
 20
1933.363862300409
 30
0.0
 10
1357.610710718611
 20
1936.096269493076
 30
0.0
 10
1358.590565162778
 20
1938.791131556532
 30
0.0
 10
1359.417277770807
 20
1941.608533008786
 30
0.0
 10
1360.092012799113
 20
1944.557050722709
 30
0.0
 10
1360.610948655461
 20
1947.64154913332
 30
0.0
 10
1360.943217862703
 20
1950.638917998229
 30
0.0
 10
1361.116517754591
 20
1953.449273531596
 30
0.0
 10
1361.179932786938
 20
1956.425018849711
 30
0.0
 10
1361.095778074186
 20
1959.79755487294
 30
0.0
 10
1360.803532991092
 20
1963.553629234053
 30
0.0
 10
1360.339381915631
 20
1967.220936451345
 30
0.0
 10
1359.728969581167
 20
1970.778459622199
 30
0.0
 10
1358.973669526159
 20
1974.302042302526
 30
0.0
 10
1357.666591962019
 20
1979.403443675483
 30
0.0
 10
1355.490351192971
 20
1986.091839737576
 30
0.0
 10
1352.048106009136
 20
1994.255872444086
 30
0.0
 10
1347.921903884672
 20
2002.189596429057
 30
0.0
 10
1343.186705078175
 20
2009.776615111993
 30
0.0
 10
1337.926475938245
 20
2016.907112870034
 30
0.0
 10
1332.713899427734
 20
2022.913627872926
 30
0.0
 10
1327.737399988172
 20
2027.881208084965
 30
0.0
 10
1323.119795283015
 20
2031.931803993885
 30
0.0
 10
1318.29384294417
 20
2035.6119994592
 30
0.0
 10
1314.339058899897
 20
2038.173629660841
 30
0.0
 10
1311.479548161915
 20
2039.793434395766
 30
0.0
 10
1309.824973656427
 20
2040.664847986913
 30
0.0
 10
1308.173508771627
 20
2041.477532602363
 30
0.0
 10
1306.344679275492
 20
2042.304069785166
 30
0.0
 10
1304.414074306843
 20
2043.085921564233
 30
0.0
 10
1302.57198354343
 20
2043.747004787735
 30
0.0
 10
1300.661288860395
 20
2044.350939469987
 30
0.0
 10
1298.406740428187
 20
2044.949337928079
 30
0.0
 10
1295.582776859493
 20
2045.529147599909
 30
0.0
 10
1293.552010653651
 20
2045.718136833517
 30
0.0
 10
1292.435064084384
 20
2045.822083253098
 30
0.0
  0
SPLINE
  5
7C
330
1F
100
AcDbEntity
  8
0
  6
Continuous
 62
     7
370
    25
100
AcDbSpline
210
0.0
220
0.0
230
1.0
 70
    11
 71
     3
 72
    98
 73
    94
 74
     0
 42
0.00000001
 43
0.00000001
 40
0.0
 40
0.0
 40
0.0
 40
0.0
 40
0.0109720649266354
 40
0.0194093513267726
 40
0.0251606744940124
 40
0.0285722104713373
 40
0.0317076786228887
 40
0.0351465179446044
 40
0.0388884692064086
 40
0.0428613146961931
 40
0.0468455485195738
 40
0.0508278333127541
 40
0.0591839839771218
 40
0.0676415006948405
 40
0.0759555810525164
 40
0.0890311320761245
 40
0.1047103101529621
 40
0.1202190186781071
 40
0.1366871413504019
 40
0.1478417862865637
 40
0.155975673758141
 40
0.1653775751841177
 40
0.1760428599885252
 40
0.1863543658967403
 40
0.1965763416705145
 40
0.2169788170273969
 40
0.2373740343113842
 40
0.2576876909770313
 40
0.2781245538093919
 40
0.2984617390217559
 40
0.3188093310736408
 40
0.3392406386725797
 40
0.3595627313153839
 40
0.3799844378810889
 40
0.3876677776588641
 40
0.3953159374783316
 40
0.4029524911091666
 40
0.4105866238470223
 40
0.4182701842374553
 40
0.4264033141665116
 40
0.4349203195958615
 40
0.4416730335126389
 40
0.4499909963213031
 40
0.4611519760872203
 40
0.4716360479609495
 40
0.4818420427146441
 40
0.4921772200238488
 40
0.5028791239129424
 40
0.5168383896887991
 40
0.5282442758274923
 40
0.538329607834379
 40
0.5511340390795574
 40
0.5635159672222678
 40
0.5741991330960061
 40
0.584816247966249
 40
0.5946591843499239
 40
0.6036106810522932
 40
0.6140341245021764
 40
0.6245128932390119
 40
0.633244451455406
 40
0.6419947911921713
 40
0.6507754627568538
 40
0.6595272118782224
 40
0.6684475202675602
 40
0.6774966118294833
 40
0.6846970372915063
 40
0.6914632273671355
 40
0.701432070148606
 40
0.7112927632367163
 40
0.7204995786764194
 40
0.7293598048243357
 40
0.7380878505522369
 40
0.7468363731012279
 40
0.7673175761497321
 40
0.7876586014185545
 40
0.808075073441159
 40
0.828491287079328
 40
0.8488284471354086
 40
0.8693002691547204
 40
0.8845884445403709
 40
0.899855826710363
 40
0.915207025303011
 40
0.9315916909622143
 40
0.9379167405018038
 40
0.9427181489057297
 40
0.9475157204957573
 40
0.9538137916692501
 40
0.9603640519079422
 40
0.9662292209938305
 40
0.9717729189493558
 40
0.9791020600316527
 40
0.9885058741448254
 40
0.9999999999999999
 40
0.9999999999999999
 40
0.9999999999999999
 40
0.9999999999999999
 10
974.2370125504378
 20
2237.679316532066
 30
0.0
 10
973.1884110812133
 20
2237.718230375931
 30
0.0
 10
971.3334572093542
 20
2237.787068144584
 30
0.0
 10
969.0178417417989
 20
2237.602854089589
 30
0.0
 10
967.4344177700768
 20
2237.37710746544
 30
0.0
 10
966.343503712631
 20
2237.168630292294
 30
0.0
 10
965.4673350851999
 20
2236.970686511526
 30
0.0
 10
964.5741097396817
 20
2236.736680369451
 30
0.0
 10
963.622758304517
 20
2236.448771055233
 30
0.0
 10
962.6420044312363
 20
2236.107591853043
 30
0.0
 10
961.6600010771853
 20
2235.718512707674
 30
0.0
 10
960.344278304173
 20
2235.130954925472
 30
0.0
 10
958.7220967808511
 20
2234.272307871674
 30
0.0
 10
956.8607378006861
 20
2233.059238095569
 30
0.0
 10
954.771263015679
 20
2231.414952346428
 30
0.0
 10
952.3833376476267
 20
2229.06396674151
 30
0.0
 10
949.8695913154536
 20
2225.775467129878
 30
0.0
 10
947.5820187198537
 20
2221.71400349299
 30
0.0
 10
945.9138405621211
 20
2217.594445430715
 30
0.0
 10
944.8241948320231
 20
2213.89296041718
 30
0.0
 10
944.1172766429702
 20
2210.779144511322
 30
0.0
 10
943.5725572460613
 20
2207.595069212553
 30
0.0
 10
943.1692144134996
 20
2204.021268033071
 30
0.0
 10
942.9538654802086
 20
2200.214327807098
 30
0.0
 10
942.9267659465722
 20
2195.063904193762
 30
0.0
 10
943.3701404322468
 20
2188.386978288008
 30
0.0
 10
944.6482248760883
 20
2180.12108155292
 30
0.0
 10
946.6611976614829
 20
2171.71272985295
 30
0.0
 10
949.3790096129785
 20
2163.314083950721
 30
0.0
 10
952.7703168920023
 20
2155.051766327198
 30
0.0
 10
956.7891026354986
 20
2147.068527038866
 30
0.0
 10
961.3826689906509
 20
2139.49955846638
 30
0.0
 10
966.4948699732345
 20
2132.463552642088
 30
0.0
 10
970.8940891755875
 20
2127.415763487607
 30
0.0
 10
974.2839011308633
 20
2124.002471671196
 30
0.0
 10
976.5082727351034
 20
2121.923234058332
 30
0.0
 10
978.7692195364905
 20
2119.966763044287
 30
0.0
 10
981.0705319100996
 20
2118.131124712475
 30
0.0
 10
983.4540492914774
 20
2116.386797369817
 30
0.0
 10
985.9565405314281
 20
2114.72091674094
 30
0.0
 10
988.3864177767942
 20
2113.269771471143
 30
0.0
 10
990.851183023439
 20
2111.950452891703
 30
0.0
 10
993.6089100922459
 20
2110.641816662387
 30
0.0
 10
996.7669068777699
 20
2109.388596240899
 30
0.0
 10
1000.117931347952
 20
2108.350659699431
 30
0.0
 10
1003.362021641382
 20
2107.618331056646
 30
0.0
 10
1006.594529711907
 20
2107.161772102697
 30
0.0
 10
1010.158933149427
 20
2106.975419003333
 30
0.0
 10
1013.74298647814
 20
2107.178898078048
 30
0.0
 10
1017.14444944931
 20
2107.775720297738
 30
0.0
 10
1020.325625068142
 20
2108.677782718607
 30
0.0
 10
1023.451303608784
 20
2109.954674573637
 30
0.0
 10
1026.442681274925
 20
2111.634575820162
 30
0.0
 10
1029.068224976957
 20
2113.527132615659
 30
0.0
 10
1031.32607451584
 20
2115.535119716252
 30
0.0
 10
1033.293093457926
 20
2117.654700103417
 30
0.0
 10
1035.087332936068
 20
2119.952065752317
 30
0.0
 10
1036.750249932825
 20
2122.496675339161
 30
0.0
 10
1038.20942264058
 20
2125.221095579377
 30
0.0
 10
1039.412659184665
 20
2127.953502772043
 30
0.0
 10
1040.392513628832
 20
2130.648364835499
 30
0.0
 10
1041.219226236861
 20
2133.465766287753
 30
0.0
 10
1041.893961265167
 20
2136.414284001676
 30
0.0
 10
1042.412897121515
 20
2139.498782412288
 30
0.0
 10
1042.745166328757
 20
2142.496151277197
 30
0.0
 10
1042.918466220645
 20
2145.306506810563
 30
0.0
 10
1042.981881252992
 20
2148.282252128678
 30
0.0
 10
1042.89772654024
 20
2151.654788151907
 30
0.0
 10
1042.605481457146
 20
2155.410862513021
 30
0.0
 10
1042.141330381685
 20
2159.078169730312
 30
0.0
 10
1041.530918047222
 20
2162.635692901166
 30
0.0
 10
1040.775617992213
 20
2166.159275581494
 30
0.0
 10
1039.468540428073
 20
2171.26067695445
 30
0.0
 10
1037.292299659025
 20
2177.949073016543
 30
0.0
 10
1033.85005447519
 20
2186.113105723054
 30
0.0
 10
1029.723852350726
 20
2194.046829708025
 30
0.0
 10
1024.988653544229
 20
2201.63384839096
 30
0.0
 10
1019.728424404299
 20
2208.764346149002
 30
0.0
 10
1014.515847893788
 20
2214.770861151893
 30
0.0
 10
1009.539348454226
 20
2219.738441363932
 30
0.0
 10
1004.92174374907
 20
2223.789037272852
 30
0.0
 10
1000.095791410224
 20
2227.469232738168
 30
0.0
 10
996.1410073659508
 20
2230.030862939808
 30
0.0
 10
993.2814966279694
 20
2231.650667674733
 30
0.0
 10
991.626922122481
 20
2232.522081265881
 30
0.0
 10
989.9754572376818
 20
2233.33476588133
 30
0.0
 10
988.1466277415456
 20
2234.161303064133
 30
0.0
 10
986.2160227728973
 20
2234.943154843201
 30
0.0
 10
984.3739320094845
 20
2235.604238066703
 30
0.0
 10
982.4632373264491
 20
2236.208172748955
 30
0.0
 10
980.2086888942407
 20
2236.806571207047
 30
0.0
 10
977.384725325547
 20
2237.386380878877
 30
0.0
 10
975.3539591197045
 20
2237.575370112484
 30
0.0
 10
974.2370125504378
 20
2237.679316532066
 30
0.0
  0
SPLINE
  5
7D
330
1F
100
AcDbEntity
  8
0
  6
Continuous
 62
     7
370
    25
100
AcDbSpline
210
0.0
220
0.0
230
1.0
 70
    11
 71
     3
 72
    98
 73
    94
 74
     0
 42
0.00000001
 43
0.00000001
 40
0.0
 40
0.0
 40
0.0
 40
0.0
 40
0.0109720649266355
 40
0.0194093513267725
 40
0.0251606744940123
 40
0.0285722104713373
 40
0.0317076786228886
 40
0.0351465179446045
 40
0.0388884692064087
 40
0.0428613146961931
 40
0.0468455485195739
 40
0.0508278333127541
 40
0.0591839839771219
 40
0.0676415006948405
 40
0.0759555810525165
 40
0.0890311320761246
 40
0.1047103101529622
 40
0.1202190186781072
 40
0.136687141350402
 40
0.1478417862865638
 40
0.1559756737581411
 40
0.1653775751841177
 40
0.1760428599885253
 40
0.1863543658967404
 40
0.1965763416705146
 40
0.216978817027397
 40
0.2373740343113843
 40
0.2576876909770314
 40
0.278124553809392
 40
0.2984617390217561
 40
0.318809331073641
 40
0.3392406386725798
 40
0.359562731315384
 40
0.379984437881089
 40
0.3876677776588643
 40
0.3953159374783318
 40
0.4029524911091669
 40
0.4105866238470225
 40
0.4182701842374555
 40
0.4264033141665117
 40
0.4349203195958616
 40
0.441673033512639
 40
0.4499909963213033
 40
0.4611519760872205
 40
0.4716360479609498
 40
0.4818420427146444
 40
0.4921772200238491
 40
0.5028791239129428
 40
0.5168383896887995
 40
0.5282442758274927
 40
0.5383296078343793
 40
0.5511340390795576
 40
0.563515967222268
 40
0.5741991330960063
 40
0.5848162479662494
 40
0.5946591843499243
 40
0.6036106810522937
 40
0.6140341245021769
 40
0.6245128932390124
 40
0.6332444514554064
 40
0.6419947911921716
 40
0.6507754627568543
 40
0.6595272118782227
 40
0.6684475202675605
 40
0.6774966118294835
 40
0.6846970372915065
 40
0.6914632273671357
 40
0.7014320701486062
 40
0.7112927632367165
 40
0.7204995786764198
 40
0.7293598048243358
 40
0.738087850552237
 40
0.746836373101228
 40
0.7673175761497322
 40
0.7876586014185546
 40
0.8080750734411591
 40
0.8284912870793281
 40
0.8488284471354086
 40
0.8693002691547205
 40
0.8845884445403709
 40
0.899855826710363
 40
0.9152070253030111
 40
0.9315916909622143
 40
0.9379167405018037
 40
0.9427181489057298
 40
0.9475157204957574
 40
0.9538137916692502
 40
0.9603640519079422
 40
0.9662292209938307
 40
0.9717729189493559
 40
0.9791020600316526
 40
0.9885058741448255
 40
1.0
 40
1.0
 40
1.0
 40
1.0
 10
1716.699132796312
 20
1841.726690300573
 30
0.0
 10
1715.650531327087
 20
1841.765604144439
 30
0.0
 10
1713.795577455228
 20
1841.834441913091
 30
0.0
 10
1711.479961987673
 20
1841.650227858096
 30
0.0
 10
1709.89653801595
 20
1841.424481233947
 30
0.0
 10
1708.805623958505
 20
1841.216004060801
 30
0.0
 10
1707.929455331073
 20
1841.018060280034
 30
0.0
 10
1707.036229985556
 20
1840.784054137958
 30
0.0
 10
1706.084878550391
 20
1840.49614482374
 30
0.0
 10
1705.10412467711
 20
1840.15496562155
 30
0.0
 10
1704.122121323059
 20
1839.765886476181
 30
0.0
 10
1702.806398550046
 20
1839.17832869398
 30
0.0
 10
1701.184217026725
 20
1838.319681640182
 30
0.0
 10
1699.32285804656
 20
1837.106611864075
 30
0.0
 10
1697.233383261552
 20
1835.462326114936
 30
0.0
 10
1694.8454578935
 20
1833.111340510017
 30
0.0
 10
1692.331711561327
 20
1829.822840898385
 30
0.0
 10
1690.044138965727
 20
1825.761377261497
 30
0.0
 10
1688.375960807995
 20
1821.641819199223
 30
0.0
 10
1687.286315077897
 20
1817.940334185687
 30
0.0
 10
1686.579396888844
 20
1814.826518279829
 30
0.0
 10
1686.034677491935
 20
1811.64244298106
 30
0.0
 10
1685.631334659373
 20
1808.068641801578
 30
0.0
 10
1685.415985726082
 20
1804.261701575605
 30
0.0
 10
1685.388886192446
 20
1799.111277962268
 30
0.0
 10
1685.832260678121
 20
1792.434352056516
 30
0.0
 10
1687.110345121962
 20
1784.168455321427
 30
0.0
 10
1689.123317907357
 20
1775.760103621457
 30
0.0
 10
1691.841129858852
 20
1767.361457719228
 30
0.0
 10
1695.232437137876
 20
1759.099140095706
 30
0.0
 10
1699.251222881372
 20
1751.115900807373
 30
0.0
 10
1703.844789236525
 20
1743.546932234887
 30
0.0
 10
1708.956990219108
 20
1736.510926410596
 30
0.0
 10
1713.356209421461
 20
1731.463137256114
 30
0.0
 10
1716.746021376737
 20
1728.049845439703
 30
0.0
 10
1718.970392980977
 20
1725.970607826839
 30
0.0
 10
1721.231339782364
 20
1724.014136812794
 30
0.0
 10
1723.532652155973
 20
1722.178498480983
 30
0.0
 10
1725.916169537352
 20
1720.434171138324
 30
0.0
 10
1728.418660777302
 20
1718.768290509448
 30
0.0
 10
1730.848538022668
 20
1717.317145239651
 30
0.0
 10
1733.313303269312
 20
1715.99782666021
 30
0.0
 10
1736.071030338119
 20
1714.689190430894
 30
0.0
 10
1739.229027123644
 20
1713.435970009406
 30
0.0
 10
1742.580051593825
 20
1712.398033467938
 30
0.0
 10
1745.824141887256
 20
1711.665704825153
 30
0.0
 10
1749.05664995778
 20
1711.209145871204
 30
0.0
 10
1752.621053395301
 20
1711.02279277184
 30
0.0
 10
1756.205106724013
 20
1711.226271846555
 30
0.0
 10
1759.606569695184
 20
1711.823094066245
 30
0.0
 10
1762.787745314016
 20
1712.725156487114
 30
0.0
 10
1765.913423854657
 20
1714.002048342145
 30
0.0
 10
1768.904801520798
 20
1715.681949588669
 30
0.0
 10
1771.530345222831
 20
1717.574506384166
 30
0.0
 10
1773.788194761714
 20
1719.582493484759
 30
0.0
 10
1775.755213703801
 20
1721.702073871924
 30
0.0
 10
1777.549453181942
 20
1723.999439520824
 30
0.0
 10
1779.212370178699
 20
1726.544049107667
 30
0.0
 10
1780.671542886453
 20
1729.268469347884
 30
0.0
 10
1781.874779430539
 20
1732.00087654055
 30
0.0
 10
1782.854633874706
 20
1734.695738604006
 30
0.0
 10
1783.681346482735
 20
1737.51314005626
 30
0.0
 10
1784.356081511041
 20
1740.461657770184
 30
0.0
 10
1784.875017367389
 20
1743.546156180795
 30
0.0
 10
1785.207286574631
 20
1746.543525045704
 30
0.0
 10
1785.380586466518
 20
1749.35388057907
 30
0.0
 10
1785.444001498866
 20
1752.329625897186
 30
0.0
 10
1785.359846786113
 20
1755.702161920414
 30
0.0
 10
1785.067601703019
 20
1759.458236281528
 30
0.0
 10
1784.603450627558
 20
1763.125543498819
 30
0.0
 10
1783.993038293095
 20
1766.683066669674
 30
0.0
 10
1783.237738238087
 20
1770.206649350001
 30
0.0
 10
1781.930660673946
 20
1775.308050722957
 30
0.0
 10
1779.754419904899
 20
1781.99644678505
 30
0.0
 10
1776.312174721063
 20
1790.160479491561
 30
0.0
 10
1772.185972596599
 20
1798.094203476532
 30
0.0
 10
1767.450773790103
 20
1805.681222159467
 30
0.0
 10
1762.190544650172
 20
1812.811719917509
 30
0.0
 10
1756.977968139661
 20
1818.818234920401
 30
0.0
 10
1752.0014687001
 20
1823.785815132439
 30
0.0
 10
1747.383863994943
 20
1827.836411041359
 30
0.0
 10
1742.557911656098
 20
1831.516606506675
 30
0.0
 10
1738.603127611824
 20
1834.078236708315
 30
0.0
 10
1735.743616873843
 20
1835.69804144324
 30
0.0
 10
1734.089042368355
 20
1836.569455034388
 30
0.0
 10
1732.437577483555
 20
1837.382139649837
 30
0.0
 10
1730.608747987419
 20
1838.208676832641
 30
0.0
 10
1728.678143018771
 20
1838.990528611708
 30
0.0
 10
1726.836052255358
 20
1839.651611835209
 30
0.0
 10
1724.925357572322
 20
1840.255546517462
 30
0.0
 10
1722.670809140114
 20
1840.853944975554
 30
0.0
 10
1719.84684557142
 20
1841.433754647384
 30
0.0
 10
1717.816079365578
 20
1841.622743880991
 30
0.0
 10
1716.699132796312
 20
1841.726690300573
 30
0.0
  0
SPLINE
  5
7E
330
1F
100
AcDbEntity
  8
0
  6
Continuous
 62
     7
370
    25
100
AcDbSpline
210
0.0
220
0.0
230
1.0
 70
     8
 71
     3
 72
    39
 73
    35
 74
     0
 42
0.00000001
 43
0.00000001
 40
0.0
 40
0.0
 40
0.0
 40
0.0
 40
0.0169948477656949
 40
0.0688597131375877
 40
0.1051431338241365
 40
0.1313045462792976
 40
0.1644216311507605
 40
0.2007225917252069
 40
0.2344827977075784
 40
0.2679218060472359
 40
0.2887008550243633
 40
0.3106082039956047
 40
0.3325470328447884
 40
0.350000153284957
 40
0.3647724326417454
 40
0.3895982264072149
 40
0.4178369256820614
 40
0.4450822393838012
 40
0.4703759104005045
 40
0.4998695030127289
 40
0.5321583378600306
 40
0.5671144732357558
 40
0.6028287832388652
 40
0.6386651841841096
 40
0.6776899286423387
 40
0.706649412860841
 40
0.7269853917832259
 40
0.754220699349759
 40
0.7842197461989175
 40
0.8131444045912186
 40
0.8418118042132955
 40
0.8705876915937748
 40
0.9377582097787499
 40
1.0
 40
1.0
 40
1.0
 40
1.0
 10
1774.341684838254
 20
1720.243421439011
 30
0.0
 10
1774.882127687543
 20
1719.900087832073
 30
0.0
 10
1777.071893673232
 20
1718.508968946501
 30
0.0
 10
1780.381591172117
 20
1716.844290120941
 30
0.0
 10
1783.924882035179
 20
1715.282648185292
 30
0.0
 10
1786.839181668384
 20
1714.205526939572
 30
0.0
 10
1789.713517062988
 20
1713.325502950128
 30
0.0
 10
1792.739900130427
 20
1712.640073861376
 30
0.0
 10
1795.691272559526
 20
1712.222547351309
 30
0.0
 10
1798.120677354781
 20
1712.093278615136
 30
0.0
 10
1800.160325997891
 20
1712.140502424283
 30
0.0
 10
1801.847132926802
 20
1712.287528050788
 30
0.0
 10
1803.400289643449
 20
1712.531589122853
 30
0.0
 10
1804.733213232955
 20
1712.83034358256
 30
0.0
 10
1806.105420688251
 20
1713.217335237492
 30
0.0
 10
1807.686781305674
 20
1713.78372987079
 30
0.0
 10
1809.467538604528
 20
1714.620337305221
 30
0.0
 10
1811.15702987799
 20
1715.63420832403
 30
0.0
 10
1812.768033161415
 20
1716.825931355447
 30
0.0
 10
1814.35507342344
 20
1718.264211062524
 30
0.0
 10
1815.955381149968
 20
1720.066624602034
 30
0.0
 10
1817.470996280945
 20
1722.217898753788
 30
0.0
 10
1818.831229592561
 20
1724.685272272163
 30
0.0
 10
1820.02046227483
 20
1727.485931046355
 30
0.0
 10
1820.913107900191
 20
1730.335607705054
 30
0.0
 10
1821.501613839889
 20
1732.919950483596
 30
0.0
 10
1821.902593021891
 20
1735.244815943479
 30
0.0
 10
1822.204579028239
 20
1737.691267906353
 30
0.0
 10
1822.399615347202
 20
1740.522614755348
 30
0.0
 10
1822.451069728769
 20
1743.509715359641
 30
0.0
 10
1822.361652245054
 20
1746.552014961658
 30
0.0
 10
1822.024536542842
 20
1751.069073930583
 30
0.0
 10
1821.217478036304
 20
1757.037607983475
 30
0.0
 10
1819.951741788745
 20
1762.148625565925
 30
0.0
 10
1819.342976741847
 20
1764.606806616103
 30
0.0
  0
SPLINE
  5
7F
330
1F
100
AcDbEntity
  8
0
  6
Continuous
 62
     7
370
    25
100
AcDbSpline
210
0.0
220
0.0
230
1.0
 70
     8
 71
     3
 72
    29
 73
    25
 74
     0
 42
0.00000001
 43
0.00000001
 40
0.0
 40
0.0
 40
0.0
 40
0.0
 40
0.0080859931028449
 40
0.075864252476873
 40
0.1433921667288221
 40
0.2113547912653082
 40
0.2789374363482828
 40
0.3466273131282868
 40
0.4145949063086239
 40
0.4822008359201799
 40
0.5501947221212532
 40
0.618126369815684
 40
0.6611307489098406
 40
0.7018104181445135
 40
0.7356725739237159
 40
0.7802151901764346
 40
0.8212270543986058
 40
0.8502505185865818
 40
0.8805021770590347
 40
0.9128925524294298
 40
0.9390674781253937
 40
0.9619594755852594
 40
0.993351736689996
 40
1.0
 40
1.0
 40
1.0
 40
1.0
 10
1816.99467266672
 20
1772.230814169208
 30
0.0
 10
1816.895541698432
 20
1772.550732183005
 30
0.0
 10
1815.965476991377
 20
1775.552260957746
 30
0.0
 10
1813.556794357305
 20
1781.292007944901
 30
0.0
 10
1809.76490126178
 20
1789.298027563167
 30
0.0
 10
1805.325333345155
 20
1797.073196042002
 30
0.0
 10
1800.379603964919
 20
1804.486129559309
 30
0.0
 10
1794.976708956939
 20
1811.406660770596
 30
0.0
 10
1789.200623293237
 20
1817.717011635693
 30
0.0
 10
1783.12543359152
 20
1823.316719987956
 30
0.0
 10
1776.852440509497
 20
1828.100904508382
 30
0.0
 10
1771.245771691217
 20
1831.518529055069
 30
0.0
 10
1766.494691679419
 20
1833.827864911321
 30
0.0
 10
1762.834982991987
 20
1835.264123719729
 30
0.0
 10
1759.158230879724
 20
1836.393923127601
 30
0.0
 10
1755.524835368843
 20
1837.176225888973
 30
0.0
 10
1752.121658353802
 20
1837.551449081159
 30
0.0
 10
1749.220428219765
 20
1837.605667545399
 30
0.0
 10
1746.637065691925
 20
1837.44502619563
 30
0.0
 10
1744.215324457996
 20
1837.072489676726
 30
0.0
 10
1742.071459605628
 20
1836.550460037202
 30
0.0
 10
1740.029864653289
 20
1835.869101922528
 30
0.0
 10
1738.518792973917
 20
1835.271027926452
 30
0.0
 10
1737.64419926911
 20
1834.779113215552
 30
0.0
 10
1737.491348346881
 20
1834.693142304939
 30
0.0
  0
SPLINE
  5
80
330
1F
100
AcDbEntity
  8
0
  6
Continuous
 62
     7
370
    25
100
AcDbSpline
210
0.0
220
0.0
230
1.0
 70
     8
 71
     3
 72
    39
 73
    35
 74
     0
 42
0.00000001
 43
0.00000001
 40
0.0
 40
0.0
 40
0.0
 40
0.0
 40
0.0173901226486877
 40
0.0704612876517389
 40
0.1075886067399789
 40
0.1343584947395948
 40
0.1682458337509076
 40
0.2053911006787515
 40
0.2399365188415138
 40
0.2741532687821025
 40
0.2954156075342478
 40
0.3178324888602762
 40
0.3402815822393883
 40
0.3581406363033802
 40
0.3732564969075444
 40
0.39865970171318
 40
0.4275551911344074
 40
0.4554341903115366
 40
0.481316154497407
 40
0.5114957242086661
 40
0.5445355493320926
 40
0.5803047124272201
 40
0.61684968416395
 40
0.6535195864965454
 40
0.6934519884702897
 40
0.7230850272209555
 40
0.7438939907678523
 40
0.7717627510819516
 40
0.8024595311439457
 40
0.8320569340714886
 40
0.8613910947724266
 40
0.8908362664956763
 40
0.9595690710325043
 40
1.0
 40
1.0
 40
1.0
 40
1.0
 10
1031.87956459238
 20
2116.196047670504
 30
0.0
 10
1032.420007441669
 20
2115.852714063566
 30
0.0
 10
1034.609773427358
 20
2114.461595177994
 30
0.0
 10
1037.919470926243
 20
2112.796916352434
 30
0.0
 10
1041.462761789305
 20
2111.235274416785
 30
0.0
 10
1044.37706142251
 20
2110.158153171065
 30
0.0
 10
1047.251396817114
 20
2109.278129181621
 30
0.0
 10
1050.277779884553
 20
2108.592700092869
 30
0.0
 10
1053.229152313652
 20
2108.175173582802
 30
0.0
 10
1055.658557108908
 20
2108.045904846629
 30
0.0
 10
1057.698205752017
 20
2108.093128655776
 30
0.0
 10
1059.385012680929
 20
2108.24015428228
 30
0.0
 10
1060.938169397575
 20
2108.484215354346
 30
0.0
 10
1062.271092987081
 20
2108.782969814053
 30
0.0
 10
1063.643300442378
 20
2109.169961468985
 30
0.0
 10
1065.224661059799
 20
2109.736356102284
 30
0.0
 10
1067.005418358661
 20
2110.572963536711
 30
0.0
 10
1068.694909632094
 20
2111.58683455553
 30
0.0
 10
1070.305912915622
 20
2112.778557586909
 30
0.0
 10
1071.892953177192
 20
2114.216837294158
 30
0.0
 10
1073.493260905688
 20
2116.019250832926
 30
0.0
 10
1075.008876028539
 20
2118.170524987743
 30
0.0
 10
1076.36910937162
 20
2120.637898494258
 30
0.0
 10
1077.558341932129
 20
2123.438557314343
 30
0.0
 10
1078.450988007909
 20
2126.288233803275
 30
0.0
 10
1079.039492764524
 20
2128.872577027732
 30
0.0
 10
1079.440475172415
 20
2131.197441271745
 30
0.0
 10
1079.742445660394
 20
2133.643899083645
 30
0.0
 10
1079.93754830232
 20
2136.475220934868
 30
0.0
 10
1079.98876025727
 20
2139.462412912119
 30
0.0
 10
1079.900232981385
 20
2142.504376986114
 30
0.0
 10
1079.558305727573
 20
2147.023249475817
 30
0.0
 10
1078.903231420662
 20
2152.12059692709
 30
0.0
 10
1077.876803566879
 20
2156.327514566512
 30
0.0
 10
1077.496645887086
 20
2157.885628995099
 30
0.0
  0
SPLINE
  5
81
330
1F
100
AcDbEntity
  8
0
  6
Continuous
 62
     7
370
    25
100
AcDbSpline
210
0.0
220
0.0
230
1.0
 70
     8
 71
     3
 72
    29
 73
    25
 74
     0
 42
0.00000001
 43
0.00000001
 40
0.0
 40
0.0
 40
0.0
 40
0.0
 40
0.0227192395069089
 40
0.089497597716761
 40
0.156029304029786
 40
0.2229893075485288
 40
0.2895749372740622
 40
0.3562662167572286
 40
0.4232311156197284
 40
0.4898396863680131
 40
0.5568304903625324
 40
0.6237599740261757
 40
0.6661299294995718
 40
0.7062094704777556
 40
0.7395720736083968
 40
0.78345757334237
 40
0.8238644085897703
 40
0.8524597030977054
 40
0.8822650729105754
 40
0.9141776081248485
 40
0.9399663873054356
 40
0.962520669764624
 40
0.993449815429179
 40
1.0
 40
1.0
 40
1.0
 40
1.0
 10
1075.090499687818
 20
2166.405452593824
 30
0.0
 10
1074.812743329531
 20
2167.317281262036
 30
0.0
 10
1073.718581405245
 20
2170.909235795088
 30
0.0
 10
1071.108104218323
 20
2177.243261511451
 30
0.0
 10
1067.299161640972
 20
2185.251023723888
 30
0.0
 10
1062.86417942748
 20
2193.025723506981
 30
0.0
 10
1057.917224981707
 20
2200.438782235839
 30
0.0
 10
1052.514658414695
 20
2207.359279877818
 30
0.0
 10
1046.738484450865
 20
2213.669639767897
 30
0.0
 10
1040.66331835466
 20
2219.269345707487
 30
0.0
 10
1034.390318899257
 20
2224.053530879323
 30
0.0
 10
1028.783651665757
 20
2227.471155264034
 30
0.0
 10
1024.032571388759
 20
2229.780491147391
 30
0.0
 10
1020.372862755567
 20
2231.216749950256
 30
0.0
 10
1016.696110630668
 20
2232.346549359419
 30
0.0
 10
1013.062715123846
 20
2233.128852120376
 30
0.0
 10
1009.659538107775
 20
2233.504075312668
 30
0.0
 10
1006.758307973928
 20
2233.558293776889
 30
0.0
 10
1004.17494544604
 20
2233.397652427124
 30
0.0
 10
1001.753204212125
 20
2233.025115908219
 30
0.0
 10
999.6093393597539
 20
2232.503086268694
 30
0.0
 10
997.5677444074156
 20
2231.821728154021
 30
0.0
 10
996.056672728044
 20
2231.223654157945
 30
0.0
 10
995.1820790232357
 20
2230.731739447045
 30
0.0
 10
995.0292281010078
 20
2230.645768536432
 30
0.0
  0
SPLINE
  5
82
330
1F
100
AcDbEntity
  8
0
  6
Continuous
 62
     7
370
    25
100
AcDbSpline
210
0.0
220
0.0
230
1.0
 70
     8
 71
     3
 72
    40
 73
    36
 74
     0
 42
0.00000001
 43
0.00000001
 40
0.0
 40
0.0
 40
0.0
 40
0.0
 40
0.0161765581700262
 40
0.0655441678854013
 40
0.1000805681777461
 40
0.1249823275948109
 40
0.1565048488454172
 40
0.191057944492777
 40
0.2231926210391772
 40
0.2550215653764354
 40
0.2748001182137751
 40
0.2956526442187276
 40
0.3165351343683279
 40
0.3331478997158805
 40
0.3472089045341374
 40
0.3708393543328606
 40
0.397718380715641
 40
0.4236518523202809
 40
0.4477276514198845
 40
0.4758011489358662
 40
0.5065352998003476
 40
0.5398083226070702
 40
0.5738030144826788
 40
0.6079139187100955
 40
0.6450596500224559
 40
0.6726247560765505
 40
0.6919815723609795
 40
0.7179055196185664
 40
0.7464601341165168
 40
0.773992091182687
 40
0.8012791763018614
 40
0.828669525572544
 40
0.8926058320173379
 40
0.9561311063037291
 40
1.0
 40
1.0
 40
1.0
 40
1.0
 10
1350.077616126326
 20
1924.338814391537
 30
0.0
 10
1350.618058975615
 20
1923.995480784598
 30
0.0
 10
1352.807824961304
 20
1922.604361899027
 30
0.0
 10
1356.117522460189
 20
1920.939683073467
 30
0.0
 10
1359.660813323251
 20
1919.378041137818
 30
0.0
 10
1362.575112956456
 20
1918.300919892098
 30
0.0
 10
1365.449448351061
 20
1917.420895902653
 30
0.0
 10
1368.475831418499
 20
1916.735466813901
 30
0.0
 10
1371.427203847598
 20
1916.317940303835
 30
0.0
 10
1373.856608642853
 20
1916.188671567661
 30
0.0
 10
1375.896257285963
 20
1916.235895376809
 30
0.0
 10
1377.583064214875
 20
1916.382921003313
 30
0.0
 10
1379.13622093152
 20
1916.626982075379
 30
0.0
 10
1380.469144521027
 20
1916.925736535085
 30
0.0
 10
1381.841351976323
 20
1917.312728190018
 30
0.0
 10
1383.422712593748
 20
1917.879122823316
 30
0.0
 10
1385.203469892591
 20
1918.715730257748
 30
0.0
 10
1386.892961166093
 20
1919.729601276548
 30
0.0
 10
1388.503964449372
 20
1920.921324307998
 30
0.0
 10
1390.091004712045
 20
1922.359604014928
 30
0.0
 10
1391.69131243578
 20
1924.162017555076
 30
0.0
 10
1393.206927578285
 20
1926.313291704198
 30
0.0
 10
1394.567160845261
 20
1928.78066523276
 30
0.0
 10
1395.756393700275
 20
1931.58132396753
 30
0.0
 10
1396.649038686608
 20
1934.431000772065
 30
0.0
 10
1397.237546304794
 20
1937.015343167549
 30
0.0
 10
1397.638520910096
 20
1939.340209671909
 30
0.0
 10
1397.940528932978
 20
1941.786656610253
 30
0.0
 10
1398.135471156888
 20
1944.618024933268
 30
0.0
 10
1398.187269478843
 20
1947.605047044775
 30
0.0
 10
1398.096589021491
 20
1950.647634877897
 30
0.0
 10
1397.766299660984
 20
1955.163135964738
 30
0.0
 10
1396.874925496185
 20
1961.315347159278
 30
0.0
 10
1395.314849309262
 20
1968.382781737259
 30
0.0
 10
1393.825978531995
 20
1972.92021497942
 30
0.0
 10
1393.217797332939
 20
1974.773687847578
 30
0.0
  0
SPLINE
  5
83
330
1F
100
AcDbEntity
  8
0
  6
Continuous
 62
     7
370
    25
100
AcDbSpline
210
0.0
220
0.0
230
1.0
 70
     8
 71
     3
 72
    28
 73
    24
 74
     0
 42
0.00000001
 43
0.00000001
 40
0.0
 40
0.0
 40
0.0
 40
0.0
 40
0.018058477299468
 40
0.0898103418097094
 40
0.1620241082427752
 40
0.2338341270617312
 40
0.3057580850461667
 40
0.3779771309175857
 40
0.4498118907397025
 40
0.5220588742911503
 40
0.5942397262443493
 40
0.6399340797023622
 40
0.6831583099718979
 40
0.7191385833212095
 40
0.7664673924766691
 40
0.8100445969198916
 40
0.8408835128423309
 40
0.8730274480426227
 40
0.9074438793919047
 40
0.9352560773978312
 40
0.9595799961550537
 40
0.9929358800204013
 40
1.0
 40
1.0
 40
1.0
 40
1.0
 10
1390.028838969538
 20
1983.34724350729
 30
0.0
 10
1389.765848303843
 20
1984.02387097057
 30
0.0
 10
1388.457915127245
 20
1987.388946704664
 30
0.0
 10
1385.456423301817
 20
1993.39287063851
 30
0.0
 10
1381.073121351431
 20
2001.168735804912
 30
0.0
 10
1376.112360580332
 20
2008.581483202904
 30
0.0
 10
1370.713495499264
 20
2015.502064312916
 30
0.0
 10
1364.936326404758
 20
2021.812401762927
 30
0.0
 10
1358.861426339526
 20
2027.412113701481
 30
0.0
 10
1352.588355056975
 20
2032.196297253624
 30
0.0
 10
1346.981705683731
 20
2035.613922041081
 30
0.0
 10
1342.230622417962
 20
2037.923257857042
 30
0.0
 10
1338.570914396056
 20
2039.359516673691
 30
0.0
 10
1334.894162128751
 20
2040.489316079643
 30
0.0
 10
1331.260766667674
 20
2041.271618841632
 30
0.0
 10
1327.857589639987
 20
2041.646842033662
 30
0.0
 10
1324.956359508288
 20
2041.70106049793
 30
0.0
 10
1322.372996979863
 20
2041.540419148154
 30
0.0
 10
1319.951255746097
 20
2041.167882629252
 30
0.0
 10
1317.807390893694
 20
2040.645852989727
 30
0.0
 10
1315.765795941364
 20
2039.964494875054
 30
0.0
 10
1314.25472426199
 20
2039.366420878977
 30
0.0
 10
1313.380130557182
 20
2038.874506168078
 30
0.0
 10
1313.227279634953
 20
2038.788535257465
 30
0.0
  0
LINE
  5
84
330
1F
100
AcDbEntity
  8
0
  6
Continuous
 62
     7
370
    25
100
AcDbLine
 10
2094.1920939864
 20
1672.807456436
 30
0.0
 11
2031.8652977508
 21
1702.4911561173
 31
0.0
  0
LINE
  5
85
330
1F
100
AcDbEntity
  8
0
  6
Continuous
 62
     7
370
    25
100
AcDbLine
 10
2030.1453616145
 20
1698.8798101512
 30
0.0
 11
2092.4721578501
 21
1669.1961104699
 31
0.0
  0
SPLINE
  5
86
330
1F
100
AcDbEntity
  8
0
  6
Continuous
 62
     7
370
    25
100
AcDbSpline
210
0.0
220
0.0
230
1.0
 70
     8
 71
     3
 72
    12
 73
     8
 74
     0
 42
0.00000001
 43
0.00000001
 40
0.0
 40
0.0
 40
0.0
 40
0.0
 40
0.1222009168935813
 40
0.3543764761813074
 40
0.5865523020627758
 40
0.8187280206273736
 40
1.0
 40
1.0
 40
1.0
 40
1.0
 10
1954.87654673184
 20
1708.386954168629
 30
0.0
 10
1960.650771870258
 20
1706.023275502932
 30
0.0
 10
1977.395732622168
 20
1699.168726963793
 30
0.0
 10
2005.086819229724
 20
1688.031641310408
 30
0.0
 10
2037.936635767356
 20
1675.071997149317
 30
0.0
 10
2068.354616087178
 20
1663.301749527892
 30
0.0
 10
2087.809507546257
 20
1655.944092276563
 30
0.0
 10
2096.339308778339
 20
1652.718201552905
 30
0.0
  0
SPLINE
  5
87
330
1F
100
AcDbEntity
  8
0
  6
Continuous
 62
     7
370
    25
100
AcDbSpline
210
0.0
220
0.0
230
1.0
 70
     8
 71
     3
 72
    12
 73
     8
 74
     0
 42
0.00000001
 43
0.00000001
 40
0.0
 40
0.0
 40
0.0
 40
0.0
 40
0.1222009159454599
 40
0.3543925167733511
 40
0.586584360067294
 40
0.8187760847418354
 40
1.0
 40
1.0
 40
1.0
 40
1.0
 10
2097.39601087006
 20
1655.525937418216
 30
0.0
 10
2091.649719445842
 20
1657.695893030767
 30
0.0
 10
2074.985010640788
 20
1663.988939403365
 30
0.0
 10
2047.373106868855
 20
1674.614951714912
 30
0.0
 10
2014.548983020641
 20
1687.499514202529
 30
0.0
 10
1984.095853032843
 20
1699.683330009296
 30
0.0
 10
1964.573731906175
 20
1707.663809142745
 30
0.0
 10
1956.016060441945
 20
1711.16211335406
 30
0.0
  0
SPLINE
  5
88
330
1F
100
AcDbEntity
  8
0
  6
Continuous
 62
     7
370
    25
100
AcDbSpline
210
0.0
220
0.0
230
1.0
 70
     8
 71
     3
 72
    21
 73
    17
 74
     0
 42
0.00000001
 43
0.00000001
 40
0.0
 40
0.0
 40
0.0
 40
0.0
 40
0.0395495841247763
 40
0.1139170465082499
 40
0.1882216639570828
 40
0.2624656336343703
 40
0.3366532068273934
 40
0.4107900102986528
 40
0.4848824368463536
 40
0.5589371409578013
 40
0.6329606545072457
 40
0.706959118334879
 40
0.7809381144474986
 40
0.8549025788655971
 40
0.9288567747500133
 40
1.0
 40
1.0
 40
1.0
 40
1.0
 10
1951.513099425595
 20
1713.380471601811
 30
0.0
 10
1952.437073636127
 20
1713.535745606053
 30
0.0
 10
1955.098452142194
 20
1713.982990661956
 30
0.0
 10
1959.629165673573
 20
1714.40974941654
 30
0.0
 10
1965.086000027762
 20
1714.681644649288
 30
0.0
 10
1970.651634016876
 20
1714.652433608798
 30
0.0
 10
1976.31135231952
 20
1714.340312120174
 30
0.0
 10
1982.060265754151
 20
1713.741019139696
 30
0.0
 10
1987.890755504654
 20
1712.856691660696
 30
0.0
 10
1993.795817756747
 20
1711.688091463908
 30
0.0
 10
1999.768138964005
 20
1710.236876135058
 30
0.0
 10
2005.800392294376
 20
1708.504313855904
 30
0.0
 10
2011.88494670583
 20
1706.494203768305
 30
0.0
 10
2018.014736172418
 20
1704.202538447735
 30
0.0
 10
2024.102175911157
 20
1701.688164344449
 30
0.0
 10
2028.157152048403
 20
1699.803759363749
 30
0.0
 10
2030.1453616145
 20
1698.879810151172
 30
0.0
  0
SPLINE
  5
89
330
1F
100
AcDbEntity
  8
0
  6
Continuous
 62
     7
370
    25
100
AcDbSpline
210
0.0
220
0.0
230
1.0
 70
     8
 71
     3
 72
    23
 73
    19
 74
     0
 42
0.00000001
 43
0.00000001
 40
0.0
 40
0.0
 40
0.0
 40
0.0
 40
0.036367839325736
 40
0.1054138543440012
 40
0.1744617866587881
 40
0.2435040986343233
 40
0.312537460189366
 40
0.3815579576174768
 40
0.4505610924757962
 40
0.5195418226566235
 40
0.5884946595302566
 40
0.657413835821228
 40
0.7262935560296325
 40
0.7951283345188749
 40
0.8639134151602849
 40
0.93264525086587
 40
0.9976474787881554
 40
1.0
 40
1.0
 40
1.0
 40
1.0
 10
2031.865297750779
 20
1702.491156117308
 30
0.0
 10
2030.757054812441
 20
1703.011683624122
 30
0.0
 10
2027.544761702771
 20
1704.520456534546
 30
0.0
 10
2022.243525808939
 20
1706.81070919521
 30
0.0
 10
2015.977324508976
 20
1709.268880403341
 30
0.0
 10
2009.747950561902
 20
1711.44547083701
 30
0.0
 10
2003.563199643485
 20
1713.342089075501
 30
0.0
 10
1997.431023868784
 20
1714.954916227883
 30
0.0
 10
1991.359277662187
 20
1716.28207106557
 30
0.0
 10
1985.355814553165
 20
1717.321637779197
 30
0.0
 10
1979.428441638942
 20
1718.072223823497
 30
0.0
 10
1973.584926909462
 20
1718.532794410919
 30
0.0
 10
1967.832910527695
 20
1718.702869446188
 30
0.0
 10
1962.180116405016
 20
1718.581983975214
 30
0.0
 10
1956.63342819583
 20
1718.171707903017
 30
0.0
 10
1951.298964689542
 20
1717.480677664607
 30
0.0
 10
1947.785403299556
 20
1716.839369524728
 30
0.0
 10
1946.06991763553
 20
1716.467383100992
 30
0.0
 10
1946.010000310247
 20
1716.454390610283
 30
0.0
  0
SPLINE
  5
8A
330
1F
100
AcDbEntity
  8
0
  6
Continuous
 62
     7
370
    25
100
AcDbSpline
210
0.0
220
0.0
230
1.0
 70
     8
 71
     3
 72
    14
 73
    10
 74
     0
 42
0.00000001
 43
0.00000001
 40
0.0
 40
0.0
 40
0.0
 40
0.0
 40
0.0920821411370857
 40
0.2670337192662717
 40
0.441985659501604
 40
0.616937731289805
 40
0.7918899333198121
 40
0.9668422641285506
 40
1.0
 40
1.0
 40
1.0
 40
1.0
 10
539.4420538066231
 20
2523.775689288278
 30
0.0
 10
545.2185651629451
 20
2519.485450235027
 30
0.0
 10
561.9701664269301
 20
2507.043966177599
 30
0.0
 10
589.7208575894646
 20
2486.632219468642
 30
0.0
 10
622.7028883114416
 20
2462.621537525221
 30
0.0
 10
655.7130875819769
 20
2438.847855462639
 30
0.0
 10
688.7520170638012
 20
2415.335681776694
 30
0.0
 10
712.8780376541783
 20
2398.293093553758
 30
0.0
 10
725.9976206091818
 20
2389.1626460236
 30
0.0
 10
728.0879359567522
 20
2387.707911168999
 30
0.0
  0
SPLINE
  5
8B
330
1F
100
AcDbEntity
  8
0
  6
Continuous
 62
     7
370
    25
100
AcDbSpline
210
0.0
220
0.0
230
1.0
 70
     8
 71
     3
 72
    13
 73
     9
 74
     0
 42
0.00000001
 43
0.00000001
 40
0.0
 40
0.0
 40
0.0
 40
0.0
 40
0.0259828543721093
 40
0.2627718000166301
 40
0.4995609066145134
 40
0.7363501707501793
 40
0.9731395887322408
 40
1.0
 40
1.0
 40
1.0
 40
1.0
 10
817.5059574742488
 20
2326.149886065826
 30
0.0
 10
818.7176856014651
 20
2325.3244743399
 30
0.0
 10
830.9722276375095
 20
2316.976857027718
 30
0.0
 10
854.2882161731768
 20
2301.340766656438
 30
0.0
 10
887.4530282195952
 20
2279.252456019871
 30
0.0
 10
920.6375159384899
 20
2257.462792408372
 30
0.0
 10
944.0219035881735
 20
2242.215889585168
 30
0.0
 10
956.3482084147664
 20
2234.308736176296
 30
0.0
 10
957.6040014414341
 20
2233.503162385015
 30
0.0
  0
SPLINE
  5
8C
330
1F
100
AcDbEntity
  8
0
  6
Continuous
 62
     7
370
    25
100
AcDbSpline
210
0.0
220
0.0
230
1.0
 70
     8
 71
     3
 72
    15
 73
    11
 74
     0
 42
0.00000001
 43
0.00000001
 40
0.0
 40
0.0
 40
0.0
 40
0.0
 40
0.0799871215686202
 40
0.2183478120596692
 40
0.356708579062891
 40
0.4950694193389734
 40
0.6334303294426273
 40
0.7717913057196091
 40
0.9101523442975766
 40
1.0
 40
1.0
 40
1.0
 40
1.0
 10
1034.291310902657
 20
2184.758383130595
 30
0.0
 10
1040.695128748022
 20
2180.739866948776
 30
0.0
 10
1058.176188047855
 20
2169.770173342865
 30
0.0
 10
1086.744655734937
 20
2152.129884490283
 30
0.0
 10
1119.993905169391
 20
2131.813148027785
 30
0.0
 10
1153.249444742268
 20
2111.763275423279
 30
0.0
 10
1186.509229153907
 20
2091.962973253158
 30
0.0
 10
1219.771855888977
 20
2072.430279902713
 30
0.0
 10
1249.148190441147
 20
2055.373121032244
 30
0.0
 10
1267.436150480802
 20
2044.937035702471
 30
0.0
 10
1274.636272028861
 20
2040.828262351187
 30
0.0
  0
SPLINE
  5
8D
330
1F
100
AcDbEntity
  8
0
  6
Continuous
 62
     7
370
    25
100
AcDbSpline
210
0.0
220
0.0
230
1.0
 70
     8
 71
     3
 72
    12
 73
     8
 74
     0
 42
0.00000001
 43
0.00000001
 40
0.0
 40
0.0
 40
0.0
 40
0.0
 40
0.0259793207794473
 40
0.2962507256164129
 40
0.5665222074531112
 40
0.8367937558701221
 40
1.0
 40
1.0
 40
1.0
 40
1.0
 10
1349.623304634246
 20
1998.662817435556
 30
0.0
 10
1350.688957035743
 20
1998.069513869192
 30
0.0
 10
1362.840941295779
 20
1991.303878480246
 30
0.0
 10
1386.075254361835
 20
1978.609087007671
 30
0.0
 10
1419.323521831835
 20
1960.611916118472
 30
0.0
 10
1448.175873911558
 20
1945.205323640672
 30
0.0
 10
1465.941145383905
 20
1935.893569452273
 30
0.0
 10
1472.629846126599
 20
1932.387654147085
 30
0.0
  0
SPLINE
  5
8E
330
1F
100
AcDbEntity
  8
0
  6
Continuous
 62
     7
370
    25
100
AcDbSpline
210
0.0
220
0.0
230
1.0
 70
     8
 71
     3
 72
    12
 73
     8
 74
     0
 42
0.00000001
 43
0.00000001
 40
0.0
 40
0.0
 40
0.0
 40
0.0
 40
0.0938536537545678
 40
0.3825704475527349
 40
0.6712872281871306
 40
0.9600039799986073
 40
1.0
 40
1.0
 40
1.0
 40
1.0
 10
1574.627244692482
 20
1880.097209320931
 30
0.0
 10
1578.224311832661
 20
1878.288355225902
 30
0.0
 10
1592.886837271406
 20
1870.915023522667
 30
0.0
 10
1618.60009493317
 20
1858.243374063849
 30
0.0
 10
1651.762658405902
 20
1842.116736217342
 30
0.0
 10
1675.393916686381
 20
1830.756171445086
 30
0.0
 10
1687.964899851407
 20
1824.842704566495
 30
0.0
 10
1689.494470154783
 20
1824.123185400114
 30
0.0
  0
SPLINE
  5
8F
330
1F
100
AcDbEntity
  8
0
  6
Continuous
 62
     7
370
    25
100
AcDbSpline
210
0.0
220
0.0
230
1.0
 70
     8
 71
     3
 72
    14
 73
    10
 74
     0
 42
0.00000001
 43
0.00000001
 40
0.0
 40
0.0
 40
0.0
 40
0.0
 40
0.0273871114735182
 40
0.2160947189774783
 40
0.404802249484556
 40
0.5935096898939478
 40
0.7822170265881924
 40
0.9609920510722902
 40
1.0
 40
1.0
 40
1.0
 40
1.0
 10
1779.415565341409
 20
1782.488188862065
 30
0.0
 10
1781.016005155381
 20
1781.759022381464
 30
0.0
 10
1793.644083592026
 20
1776.005621703716
 30
0.0
 10
1817.277022893398
 20
1765.486904234933
 30
0.0
 10
1850.310931041733
 20
1750.950550777192
 30
0.0
 10
1883.315552909422
 20
1736.711453917976
 30
0.0
 10
1915.71343495748
 20
1722.984823745257
 30
0.0
 10
1939.370847224325
 20
1713.140004247144
 30
0.0
 10
1952.037938303428
 20
1707.932169888213
 30
0.0
 10
1954.306789876787
 20
1706.999374575914
 30
0.0
  0
SPLINE
  5
90
330
1F
100
AcDbEntity
  8
0
  6
Continuous
 62
     7
370
    25
100
AcDbSpline
210
0.0
220
0.0
230
1.0
 70
     8
 71
     3
 72
    13
 73
     9
 74
     0
 42
0.00000001
 43
0.00000001
 40
0.0
 40
0.0
 40
0.0
 40
0.0
 40
0.0441632634043776
 40
0.2379116307704254
 40
0.431660198129926
 40
0.6254086371139786
 40
0.8191569623595807
 40
1.0
 40
1.0
 40
1.0
 40
1.0
 10
1946.770320454941
 20
1716.600502907923
 30
0.0
 10
1944.270652974936
 20
1717.630964629962
 30
0.0
 10
1930.80471045374
 20
1723.182158310827
 30
0.0
 10
1906.350726960425
 20
1733.443056187987
 30
0.0
 10
1873.397335624328
 20
1747.493089542751
 30
0.0
 10
1840.413922912817
 20
1761.831402313664
 30
0.0
 10
1808.138918390369
 20
1776.091831728766
 30
0.0
 10
1786.846007801709
 20
1785.712972605077
 30
0.0
 10
1776.566340375873
 20
1790.357810991721
 30
0.0
  0
SPLINE
  5
91
330
1F
100
AcDbEntity
  8
0
  6
Continuous
 62
     7
370
    25
100
AcDbSpline
210
0.0
220
0.0
230
1.0
 70
     8
 71
     3
 72
    12
 73
     8
 74
     0
 42
0.00000001
 43
0.00000001
 40
0.0
 40
0.0
 40
0.0
 40
0.0
 40
0.140456342427998
 40
0.4119502466035277
 40
0.6834440990893963
 40
0.9549379154109657
 40
1.0
 40
1.0
 40
1.0
 40
1.0
 10
1692.25026416028
 20
1829.473771892351
 30
0.0
 10
1686.542439154667
 20
1832.171354329546
 30
0.0
 10
1669.801721875646
 20
1840.083206019729
 30
0.0
 10
1642.00699092615
 20
1853.496084338008
 30
0.0
 10
1608.867791875331
 20
1869.721754042051
 30
0.0
 10
1584.932531005191
 20
1881.572896654819
 30
0.0
 10
1572.040380594479
 20
1888.089165918713
 30
0.0
 10
1570.205168644012
 20
1889.016764096254
 30
0.0
  0
SPLINE
  5
92
330
1F
100
AcDbEntity
  8
0
  6
Continuous
 62
     7
370
    25
100
AcDbSpline
210
0.0
220
0.0
230
1.0
 70
     8
 71
     3
 72
    12
 73
     8
 74
     0
 42
0.00000001
 43
0.00000001
 40
0.0
 40
0.0
 40
0.0
 40
0.0
 40
0.0033985796374403
 40
0.2608690717840968
 40
0.5183395904334445
 40
0.7758101470159724
 40
1.0
 40
1.0
 40
1.0
 40
1.0
 10
1476.60057024566
 20
1937.051083955007
 30
0.0
 10
1476.454513402196
 20
1937.127102689501
 30
0.0
 10
1465.243443706437
 20
1942.962168752763
 30
0.0
 10
1442.957624902967
 20
1954.796299066841
 30
0.0
 10
1409.744016422082
 20
1972.581562508288
 30
0.0
 10
1377.953616019298
 20
1989.85748217916
 30
0.0
 10
1357.232968110179
 20
2001.317840380807
 30
0.0
 10
1347.588498861275
 20
2006.652088264465
 30
0.0
  0
SPLINE
  5
93
330
1F
100
AcDbEntity
  8
0
  6
Continuous
 62
     7
370
    25
100
AcDbSpline
210
0.0
220
0.0
230
1.0
 70
     8
 71
     3
 72
    16
 73
    12
 74
     0
 42
0.00000001
 43
0.00000001
 40
0.0
 40
0.0
 40
0.0
 40
0.0
 40
0.01587843386149
 40
0.1494839660587501
 40
0.2830895436187945
 40
0.4166951709342904
 40
0.5503008521691694
 40
0.6839065912627322
 40
0.8175123919398833
 40
0.9511182577152149
 40
1.0
 40
1.0
 40
1.0
 40
1.0
 10
1280.776748725762
 20
2044.217191645085
 30
0.0
 10
1279.46015181773
 20
2044.963360495422
 30
0.0
 10
1267.065344544542
 20
2051.988000335273
 30
0.0
 10
1243.590750966719
 20
2065.536728150778
 30
0.0
 10
1210.354756855981
 20
2084.880443711434
 30
0.0
 10
1177.120214336552
 20
2104.506774378724
 30
0.0
 10
1143.888923880594
 20
2124.383300237382
 30
0.0
 10
1110.662101073537
 20
2144.512324780751
 30
0.0
 10
1077.442088139451
 20
2164.911678586385
 30
0.0
 10
1051.248193089473
 20
2181.149879935664
 30
0.0
 10
1036.131554949423
 20
2190.675095725306
 30
0.0
 10
1032.08236159526
 20
2193.226551949572
 30
0.0
  0
SPLINE
  5
94
330
1F
100
AcDbEntity
  8
0
  6
Continuous
 62
     7
370
    25
100
AcDbSpline
210
0.0
220
0.0
230
1.0
 70
     8
 71
     3
 72
    13
 73
     9
 74
     0
 42
0.00000001
 43
0.00000001
 40
0.0
 40
0.0
 40
0.0
 40
0.0
 40
0.1268904034078349
 40
0.3447356434083772
 40
0.5625810134764868
 40
0.7804265175227143
 40
0.9982721591903567
 40
1.0
 40
1.0
 40
1.0
 40
1.0
 10
963.9804904878969
 20
2236.550155482137
 30
0.0
 10
957.5377209757469
 20
2240.696198335101
 30
0.0
 10
940.0340151520344
 20
2251.960160873871
 30
0.0
 10
911.4843711838906
 20
2270.621573473419
 30
0.0
 10
878.3312906829441
 20
2292.497937647037
 30
0.0
 10
845.1979220389335
 20
2314.663316431585
 30
0.0
 10
823.0272765247096
 20
2329.586577439309
 30
0.0
 10
811.9073352641373
 20
2337.190389966697
 30
0.0
 10
811.8198315815703
 20
2337.250224958816
 30
0.0
  0
SPLINE
  5
95
330
1F
100
AcDbEntity
  8
0
  6
Continuous
 62
     7
370
    25
100
AcDbSpline
210
0.0
220
0.0
230
1.0
 70
     8
 71
     3
 72
    14
 73
    10
 74
     0
 42
0.00000001
 43
0.00000001
 40
0.0
 40
0.0
 40
0.0
 40
0.0
 40
0.116297091044976
 40
0.2878692779263618
 40
0.4594415846305054
 40
0.6310140129106032
 40
0.8025865643557362
 40
0.9651292116180753
 40
1.0
 40
1.0
 40
1.0
 40
1.0
 10
735.2598552425281
 20
2390.025533296199
 30
0.0
 10
727.7906488497023
 20
2395.23964377561
 30
0.0
 10
709.3021808092224
 20
2408.146090577068
 30
0.0
 10
679.8217895232107
 20
2429.023274684498
 30
0.0
 10
646.8169578112435
 20
2452.618964859884
 30
0.0
 10
613.8400616709555
 20
2476.463800256534
 30
0.0
 10
581.469785641751
 20
2500.124473864478
 30
0.0
 10
557.8705792755011
 20
2517.55144063794
 30
0.0
 10
545.2523008171712
 20
2526.932539776695
 30
0.0
 10
543.0234286209674
 20
2528.589601879838
 30
0.0
  0
LINE
  5
96
330
1F
100
AcDbEntity
  8
0
  6
Continuous
 62
     7
370
    25
100
AcDbLine
 10
1956.585817297
 20
1712.5496929468
 30
0.0
 11
1953.7207484809
 21
1713.7320935411
 31
0.0
  0
SPLINE
  5
97
330
1F
100
AcDbEntity
  8
0
  6
Continuous
 62
     7
370
    25
100
AcDbSpline
210
0.0
220
0.0
230
1.0
 70
     8
 71
     3
 72
    12
 73
     8
 74
     0
 42
0.00000001
 43
0.00000001
 40
0.0
 40
0.0
 40
0.0
 40
0.0
 40
0.1160191126657317
 40
0.3498411023390726
 40
0.583663491347823
 40
0.8174859679565817
 40
1.0
 40
1.0
 40
1.0
 40
1.0
 10
541.1373286487317
 20
2528.12527527526
 30
0.0
 10
535.6961366514071
 20
2532.180353049659
 30
0.0
 10
519.2889037167181
 20
2544.407932162022
 30
0.0
 10
491.9400131310634
 20
2564.986036976487
 30
0.0
 10
459.1041564104672
 20
2589.943004873099
 30
0.0
 10
428.7012348074987
 20
2613.281178554656
 30
0.0
 10
409.2567268610569
 20
2628.377594708241
 30
0.0
 10
400.7326232269692
 20
2634.995577336083
 30
0.0
  0
SPLINE
  5
98
330
1F
100
AcDbEntity
  8
0
  6
Continuous
 62
     7
370
    25
100
AcDbSpline
210
0.0
220
0.0
230
1.0
 70
     8
 71
     3
 72
    12
 73
     8
 74
     0
 42
0.00000001
 43
0.00000001
 40
0.0
 40
0.0
 40
0.0
 40
0.0
 40
0.123075177851438
 40
0.3569156563649095
 40
0.590756536274689
 40
0.8245975068183222
 40
1.0
 40
1.0
 40
1.0
 40
1.0
 10
398.8901467260093
 20
2632.628030009542
 30
0.0
 10
404.6391948610811
 20
2628.16131917102
 30
0.0
 10
421.3113242410565
 20
2615.207943368081
 30
0.0
 10
448.9352777439742
 20
2593.944566015726
 30
0.0
 10
481.773385615697
 20
2568.920872298221
 30
0.0
 10
511.9061799195248
 20
2546.184730689329
 30
0.0
 10
531.1030296985597
 20
2531.867511969535
 30
0.0
 10
539.330834443016
 20
2525.731125975684
 30
0.0
  0
SPLINE
  5
99
330
1F
100
AcDbEntity
  8
0
  6
Continuous
 62
     7
370
    25
100
AcDbSpline
210
0.0
220
0.0
230
1.0
 70
    11
 71
     3
 72
    71
 73
    67
 74
     0
 42
0.00000001
 43
0.00000001
 40
0.0
 40
0.0
 40
0.0
 40
0.0
 40
0.0156193749493644
 40
0.031238063172885
 40
0.0469037445899781
 40
0.0625744073419183
 40
0.0781558608735103
 40
0.0937451044136528
 40
0.1094152579698506
 40
0.1250935560938513
 40
0.1406843728998319
 40
0.1562817241637485
 40
0.171923913007028
 40
0.1875705429914369
 40
0.2032019329983466
 40
0.2188359884127374
 40
0.2344352869852232
 40
0.2500359284175792
 40
0.2657047615280766
 40
0.281373568309039
 40
0.2969550254904223
 40
0.3125346391542559
 40
0.3282009565891478
 40
0.3438632578757596
 40
0.359485209841154
 40
0.3751017945614121
 40
0.3907303957321787
 40
0.4063542076096278
 40
0.4220228896420433
 40
0.4376899572011452
 40
0.4532750317961242
 40
0.4688635566028
 40
0.4845637742596929
 40
0.5002724778392312
 40
0.5159675141044101
 40
0.5316735942336154
 40
0.5472464651356479
 40
0.5628288346650513
 40
0.5784799139363993
 40
0.5941355865821082
 40
0.609745528116576
 40
0.6253536892444771
 40
0.6409499702255963
 40
0.6565396251969604
 40
0.6721796423820589
 40
0.6878119511888596
 40
0.7033665420532917
 40
0.7189168625197563
 40
0.7345471773471427
 40
0.7501793208494533
 40
0.7657374453929781
 40
0.781303310922299
 40
0.7969097590845943
 40
0.8125268353146614
 40
0.828145905796393
 40
0.8437740285410144
 40
0.8593493356070131
 40
0.8749284494492563
 40
0.8905931941779811
 40
0.9062553721754315
 40
0.9218392897363219
 40
0.9374161255206832
 40
0.9530843014311944
 40
0.9687444221366112
 40
0.98437510758844
 40
1.0
 40
1.0
 40
1.0
 40
1.0
 10
1582.134978574993
 20
1840.557370307589
 30
0.0
 10
1581.949707785077
 20
1842.967760550959
 30
0.0
 10
1581.579174350913
 20
1847.788435061803
 30
0.0
 10
1580.243675724333
 20
1855.24961100149
 30
0.0
 10
1578.359158062554
 20
1862.792183639662
 30
0.0
 10
1575.886753663687
 20
1870.352358756646
 30
0.0
 10
1572.884349597258
 20
1877.847860923545
 30
0.0
 10
1569.373142428002
 20
1885.222476150501
 30
0.0
 10
1565.392670220202
 20
1892.425446930969
 30
0.0
 10
1560.9877827409
 20
1899.3720690934
 30
0.0
 10
1556.223189806814
 20
1905.993655957632
 30
0.0
 10
1551.144006606818
 20
1912.23235676339
 30
0.0
 10
1545.79928341976
 20
1918.049465654995
 30
0.0
 10
1540.24363961675
 20
1923.380973398159
 30
0.0
 10
1534.543061030191
 20
1928.18090291359
 30
0.0
 10
1528.758158442935
 20
1932.393537959709
 30
0.0
 10
1522.946157531625
 20
1935.991454857659
 30
0.0
 10
1517.154485749061
 20
1938.936689350633
 30
0.0
 10
1511.433756508198
 20
1941.209555678694
 30
0.0
 10
1505.849016313058
 20
1942.769912002588
 30
0.0
 10
1500.456665634903
 20
1943.612467054652
 30
0.0
 10
1495.295167617566
 20
1943.720706496887
 30
0.0
 10
1490.39739224899
 20
1943.097930257381
 30
0.0
 10
1485.813788698884
 20
1941.731962017403
 30
0.0
 10
1481.586073795073
 20
1939.646330509656
 30
0.0
 10
1477.750478048811
 20
1936.84781412201
 30
0.0
 10
1474.328697934279
 20
1933.367478088384
 30
0.0
 10
1471.35025146149
 20
1929.220531230321
 30
0.0
 10
1468.833984198231
 20
1924.452016163277
 30
0.0
 10
1466.810639958845
 20
1919.103830285119
 30
0.0
 10
1465.287721351138
 20
1913.241620007653
 30
0.0
 10
1464.278267731344
 20
1906.901367620553
 30
0.0
 10
1463.784060649525
 20
1900.134993528233
 30
0.0
 10
1463.821098362602
 20
1893.002757279445
 30
0.0
 10
1464.382659542547
 20
1885.594401687844
 30
0.0
 10
1465.469183111734
 20
1878.003001198091
 30
0.0
 10
1467.061285414079
 20
1870.304508660896
 30
0.0
 10
1469.15317885569
 20
1862.564560135075
 30
0.0
 10
1471.730880345111
 20
1854.836954925897
 30
0.0
 10
1474.781887137202
 20
1847.208764239191
 30
0.0
 10
1478.272336364866
 20
1839.765388723806
 30
0.0
 10
1482.179514415759
 20
1832.585855886132
 30
0.0
 10
1486.470673652679
 20
1825.731621515721
 30
0.0
 10
1491.12163809256
 20
1819.269022750345
 30
0.0
 10
1496.091666672684
 20
1813.258377700147
 30
0.0
 10
1501.335100067679
 20
1807.777791211676
 30
0.0
 10
1506.79532032851
 20
1802.8793465078
 30
0.0
 10
1512.434412219417
 20
1798.608928631959
 30
0.0
 10
1518.208403835133
 20
1794.995935014057
 30
0.0
 10
1524.053882752768
 20
1792.093936369696
 30
0.0
 10
1529.903727181364
 20
1789.92272689537
 30
0.0
 10
1535.703129299793
 20
1788.506876484429
 30
0.0
 10
1541.40477776895
 20
1787.846099492786
 30
0.0
 10
1546.945558931864
 20
1787.956941402046
 30
0.0
 10
1552.266296475618
 20
1788.824988031538
 30
0.0
 10
1557.299040201542
 20
1790.446843155757
 30
0.0
 10
1561.995581102752
 20
1792.789838395161
 30
0.0
 10
1566.307727060232
 20
1795.840266683909
 30
0.0
 10
1570.196705551143
 20
1799.562668958491
 30
0.0
 10
1573.602990796738
 20
1803.92396531004
 30
0.0
 10
1576.490839661544
 20
1808.859525756429
 30
0.0
 10
1578.826341550805
 20
1814.335998098193
 30
0.0
 10
1580.59534804889
 20
1820.301259314915
 30
0.0
 10
1581.749130582755
 20
1826.708370770072
 30
0.0
 10
1582.336533695339
 20
1833.454667348992
 30
0.0
 10
1582.202155313024
 20
1838.190095216096
 30
0.0
 10
1582.134978574993
 20
1840.557370307589
 30
0.0
  0
SPLINE
  5
9A
330
1F
100
AcDbEntity
  8
0
  6
Continuous
 62
     7
370
    25
100
AcDbSpline
210
0.0
220
0.0
230
1.0
 70
    11
 71
     3
 72
    71
 73
    67
 74
     0
 42
0.00000001
 43
0.00000001
 40
0.0
 40
0.0
 40
0.0
 40
0.0
 40
0.0156193749493644
 40
0.031238063172885
 40
0.0469037445899781
 40
0.0625744073419183
 40
0.0781558608735103
 40
0.0937451044136527
 40
0.1094152579698505
 40
0.1250935560938513
 40
0.1406843728998319
 40
0.1562817241637484
 40
0.1719239130070279
 40
0.1875705429914369
 40
0.2032019329983467
 40
0.2188359884127374
 40
0.2344352869852231
 40
0.2500359284175791
 40
0.2657047615280766
 40
0.2813735683090389
 40
0.2969550254904222
 40
0.3125346391542558
 40
0.3282009565891477
 40
0.3438632578757595
 40
0.3594852098411538
 40
0.3751017945614119
 40
0.3907303957321785
 40
0.4063542076096277
 40
0.4220228896420431
 40
0.4376899572011451
 40
0.4532750317961239
 40
0.4688635566027998
 40
0.4845637742596927
 40
0.500272477839231
 40
0.5159675141044099
 40
0.531673594233615
 40
0.5472464651356476
 40
0.5628288346650511
 40
0.5784799139363991
 40
0.5941355865821079
 40
0.6097455281165758
 40
0.6253536892444769
 40
0.6409499702255961
 40
0.6565396251969602
 40
0.6721796423820586
 40
0.6878119511888595
 40
0.7033665420532916
 40
0.7189168625197562
 40
0.7345471773471425
 40
0.750179320849453
 40
0.765737445392978
 40
0.7813033109222989
 40
0.7969097590845942
 40
0.8125268353146613
 40
0.8281459057963928
 40
0.8437740285410141
 40
0.859349335607013
 40
0.8749284494492562
 40
0.8905931941779809
 40
0.9062553721754314
 40
0.9218392897363217
 40
0.937416125520683
 40
0.9530843014311942
 40
0.9687444221366112
 40
0.98437510758844
 40
1.0
 40
1.0
 40
1.0
 40
1.0
 10
825.5307227053886
 20
2285.501118251596
 30
0.0
 10
825.3454519154727
 20
2287.911508494967
 30
0.0
 10
824.9749184813088
 20
2292.73218300581
 30
0.0
 10
823.6394198547285
 20
2300.193358945498
 30
0.0
 10
821.7549021929493
 20
2307.735931583669
 30
0.0
 10
819.2824977940826
 20
2315.296106700653
 30
0.0
 10
816.2800937276535
 20
2322.791608867552
 30
0.0
 10
812.7688865583972
 20
2330.166224094509
 30
0.0
 10
808.7884143505978
 20
2337.369194874977
 30
0.0
 10
804.3835268712955
 20
2344.315817037407
 30
0.0
 10
799.6189339372096
 20
2350.937403901639
 30
0.0
 10
794.5397507372135
 20
2357.176104707398
 30
0.0
 10
789.1950275501556
 20
2362.993213599003
 30
0.0
 10
783.6393837471456
 20
2368.324721342167
 30
0.0
 10
777.9388051605864
 20
2373.124650857597
 30
0.0
 10
772.1539025733299
 20
2377.337285903716
 30
0.0
 10
766.3419016620206
 20
2380.935202801666
 30
0.0
 10
760.5502298794562
 20
2383.880437294641
 30
0.0
 10
754.8295006385941
 20
2386.153303622701
 30
0.0
 10
749.2447604434528
 20
2387.713659946595
 30
0.0
 10
743.8524097652983
 20
2388.556214998659
 30
0.0
 10
738.6909117479621
 20
2388.664454440895
 30
0.0
 10
733.7931363793851
 20
2388.041678201388
 30
0.0
 10
729.2095328292794
 20
2386.675709961411
 30
0.0
 10
724.981817925468
 20
2384.590078453663
 30
0.0
 10
721.1462221792066
 20
2381.791562066017
 30
0.0
 10
717.724442064674
 20
2378.311226032391
 30
0.0
 10
714.7459955918855
 20
2374.164279174329
 30
0.0
 10
712.2297283286262
 20
2369.395764107285
 30
0.0
 10
710.2063840892405
 20
2364.047578229126
 30
0.0
 10
708.6834654815331
 20
2358.18536795166
 30
0.0
 10
707.6740118617389
 20
2351.845115564561
 30
0.0
 10
707.1798047799207
 20
2345.078741472241
 30
0.0
 10
707.2168424929978
 20
2337.946505223453
 30
0.0
 10
707.7784036729425
 20
2330.538149631852
 30
0.0
 10
708.8649272421297
 20
2322.946749142098
 30
0.0
 10
710.4570295444735
 20
2315.248256604904
 30
0.0
 10
712.5489229860857
 20
2307.508308079082
 30
0.0
 10
715.1266244755058
 20
2299.780702869905
 30
0.0
 10
718.1776312675977
 20
2292.152512183198
 30
0.0
 10
721.668080495261
 20
2284.709136667814
 30
0.0
 10
725.5752585461541
 20
2277.52960383014
 30
0.0
 10
729.8664177830751
 20
2270.675369459728
 30
0.0
 10
734.5173822229559
 20
2264.212770694352
 30
0.0
 10
739.4874108030791
 20
2258.202125644155
 30
0.0
 10
744.7308441980747
 20
2252.721539155683
 30
0.0
 10
750.1910644589053
 20
2247.823094451808
 30
0.0
 10
755.8301563498127
 20
2243.552676575966
 30
0.0
 10
761.6041479655282
 20
2239.939682958064
 30
0.0
 10
767.449626883164
 20
2237.037684313703
 30
0.0
 10
773.2994713117596
 20
2234.866474839378
 30
0.0
 10
779.0988734301886
 20
2233.450624428437
 30
0.0
 10
784.8005218993451
 20
2232.789847436794
 30
0.0
 10
790.3413030622597
 20
2232.900689346053
 30
0.0
 10
795.6620406060132
 20
2233.768735975546
 30
0.0
 10
800.6947843319379
 20
2235.390591099764
 30
0.0
 10
805.3913252331478
 20
2237.733586339169
 30
0.0
 10
809.7034711906277
 20
2240.784014627916
 30
0.0
 10
813.5924496815386
 20
2244.506416902499
 30
0.0
 10
816.9987349271333
 20
2248.867713254047
 30
0.0
 10
819.8865837919388
 20
2253.803273700436
 30
0.0
 10
822.2220856812006
 20
2259.279746042201
 30
0.0
 10
823.9910921792858
 20
2265.245007258923
 30
0.0
 10
825.1448747131504
 20
2271.652118714079
 30
0.0
 10
825.7322778257344
 20
2278.398415293
 30
0.0
 10
825.597899443419
 20
2283.133843160104
 30
0.0
 10
825.5307227053886
 20
2285.501118251596
 30
0.0
  0
SPLINE
  5
9B
330
1F
100
AcDbEntity
  8
0
  6
Continuous
 62
     7
370
    25
100
AcDbSpline
210
0.0
220
0.0
230
1.0
 70
     8
 71
     3
 72
    17
 73
    13
 74
     0
 42
0.00000001
 43
0.00000001
 40
0.0
 40
0.0
 40
0.0
 40
0.0
 40
0.0618403907732304
 40
0.1750441824809111
 40
0.2850606149320049
 40
0.3982717418761607
 40
0.5082131349964607
 40
0.6213465871346034
 40
0.7312232322345652
 40
0.844288424573429
 40
0.9541281347473639
 40
1.0
 40
1.0
 40
1.0
 40
1.0
 10
1570.374311349937
 20
1888.93135452319
 30
0.0
 10
1570.263387351983
 20
1889.61758072398
 30
0.0
 10
1569.949408085413
 20
1891.559998985125
 30
0.0
 10
1568.890483420249
 20
1894.913215827759
 30
0.0
 10
1567.264354465871
 20
1898.870201370349
 30
0.0
 10
1565.212030183398
 20
1902.72333201932
 30
0.0
 10
1562.781087389923
 20
1906.419346103021
 30
0.0
 10
1560.074025299873
 20
1909.783993507891
 30
0.0
 10
1557.115853116681
 20
1912.793904361818
 30
0.0
 10
1554.046840978178
 20
1915.259118076085
 30
0.0
 10
1551.509483080666
 20
1916.922384185673
 30
0.0
 10
1550.06988552017
 20
1917.510560112362
 30
0.0
 10
1549.645787150269
 20
1917.683833851196
 30
0.0
  0
SPLINE
  5
9C
330
1F
100
AcDbEntity
  8
0
  6
Continuous
 62
     7
370
    25
100
AcDbSpline
210
0.0
220
0.0
230
1.0
 70
     8
 71
     3
 72
    16
 73
    12
 74
     0
 42
0.00000001
 43
0.00000001
 40
0.0
 40
0.0
 40
0.0
 40
0.0
 40
0.1126692273439193
 40
0.2310040083571286
 40
0.3527750348912845
 40
0.471029102845735
 40
0.5927165815774851
 40
0.7109010059101869
 40
0.8325150637154456
 40
0.9506597604703158
 40
1.0
 40
1.0
 40
1.0
 40
1.0
 10
813.3068009926745
 20
2336.243051047615
 30
0.0
 10
812.9717065755351
 20
2337.456246513043
 30
0.0
 10
812.2846675732968
 20
2339.943642779452
 30
0.0
 10
810.6489919011173
 20
2343.81755542491
 30
0.0
 10
808.6106870314347
 20
2347.666134265109
 30
0.0
 10
806.1760350546379
 20
2351.363352642701
 30
0.0
 10
803.4699783511692
 20
2354.727673619672
 30
0.0
 10
800.5115400216973
 20
2357.737670885704
 30
0.0
 10
797.4426004926388
 20
2360.202861025209
 30
0.0
 10
794.9052258429288
 20
2361.866132573884
 30
0.0
 10
793.4656293392359
 20
2362.454308157451
 30
0.0
 10
793.0415312806641
 20
2362.627581795203
 30
0.0
  0
SPLINE
  5
9D
330
1F
100
AcDbEntity
  8
0
  6
Continuous
 62
     7
370
    25
100
AcDbSpline
210
0.0
220
0.0
230
1.0
 70
    11
 71
     3
 72
    55
 73
    51
 74
     0
 42
0.00000001
 43
0.00000001
 40
0.0
 40
0.0
 40
0.0
 40
0.0
 40
0.0208204089546865
 40
0.0416937326714729
 40
0.0625806358688368
 40
0.0833550162328987
 40
0.1042123323602999
 40
0.1251083232652916
 40
0.1458931771912386
 40
0.1667379758149737
 40
0.1875958674853244
 40
0.208433681169222
 40
0.2292750970011193
 40
0.2500734661801763
 40
0.2709615404193296
 40
0.2918137542353968
 40
0.3125831785228875
 40
0.3334663242289013
 40
0.3543444592428947
 40
0.3751715395262712
 40
0.3959943850658595
 40
0.4168686984704605
 40
0.437752511140263
 40
0.4585272130318003
 40
0.479402743909398
 40
0.5003383165235501
 40
0.5212500789756708
 40
0.5421176503672429
 40
0.562894035873852
 40
0.5837529039114723
 40
0.6046084602094648
 40
0.6254096440073312
 40
0.6461903077007486
 40
0.6670207200315441
 40
0.6878550945288013
 40
0.7085821972472814
 40
0.7293794784968886
 40
0.7502080856688111
 40
0.7709434962852822
 40
0.791735947147332
 40
0.8125436923068884
 40
0.8333472330093702
 40
0.8541610204687754
 40
0.8749354707963559
 40
0.8958108415887601
 40
0.9166545560716797
 40
0.9374170856854496
 40
0.9582970424063303
 40
0.979172700346043
 40
1.0
 40
1.0
 40
1.0
 40
1.0
 10
1358.584241074535
 20
1959.045881940021
 30
0.0
 10
1358.367379175039
 20
1961.690862888358
 30
0.0
 10
1357.933104224731
 20
1966.98754696508
 30
0.0
 10
1356.168035866667
 20
1975.238247749578
 30
0.0
 10
1353.628012356355
 20
1983.52741275888
 30
0.0
 10
1350.289175587511
 20
1991.751534895226
 30
0.0
 10
1346.237617438491
 20
1999.770274810694
 30
0.0
 10
1341.546745667089
 20
2007.452843843863
 30
0.0
 10
1336.315309887497
 20
2014.672428652409
 30
0.0
 10
1330.644162021764
 20
2021.309192815125
 30
0.0
 10
1324.631254039295
 20
2027.262892754962
 30
0.0
 10
1318.392870270434
 20
2032.433038790508
 30
0.0
 10
1312.045185017178
 20
2036.728278856973
 30
0.0
 10
1305.688069589481
 20
2040.084537759531
 30
0.0
 10
1299.432649358296
 20
2042.443319622931
 30
0.0
 10
1293.386599830399
 20
2043.755958538058
 30
0.0
 10
1287.64424455515
 20
2043.99991605931
 30
0.0
 10
1282.291182863456
 20
2043.168128706282
 30
0.0
 10
1277.409514019888
 20
2041.260178113227
 30
0.0
 10
1273.081185136486
 20
2038.306943999065
 30
0.0
 10
1269.362443123141
 20
2034.355182600894
 30
0.0
 10
1266.306439310039
 20
2029.457536705531
 30
0.0
 10
1263.963366507884
 20
2023.700406093315
 30
0.0
 10
1262.359820113525
 20
2017.180470437058
 30
0.0
 10
1261.519489204386
 20
2009.999631750301
 30
0.0
 10
1261.458467091101
 20
2002.268482085164
 30
0.0
 10
1262.177473315886
 20
1994.140057911776
 30
0.0
 10
1263.664319270386
 20
1985.776552658326
 30
0.0
 10
1265.896451597151
 20
1977.312370429173
 30
0.0
 10
1268.84240185964
 20
1968.889362389316
 30
0.0
 10
1272.467686970726
 20
1960.651019214751
 30
0.0
 10
1276.714622306018
 20
1952.756253770461
 30
0.0
 10
1281.523021133745
 20
1945.335055513699
 30
0.0
 10
1286.829357722073
 20
1938.514210302389
 30
0.0
 10
1292.545717577613
 20
1932.426750498665
 30
0.0
 10
1298.58117503432
 20
1927.174542326705
 30
0.0
 10
1304.840590947125
 20
1922.849655830814
 30
0.0
 10
1311.219395323487
 20
1919.530124005801
 30
0.0
 10
1317.604993616319
 20
1917.26841081818
 30
0.0
 10
1323.88264760973
 20
1916.102587673118
 30
0.0
 10
1329.946619000822
 20
1916.049065579383
 30
0.0
 10
1335.681665608905
 20
1917.100728760577
 30
0.0
 10
1340.974980522577
 20
1919.235132953644
 30
0.0
 10
1345.73501331422
 20
1922.412506345489
 30
0.0
 10
1349.868622114761
 20
1926.570616614609
 30
0.0
 10
1353.287422999968
 20
1931.636271842252
 30
0.0
 10
1355.932231261925
 20
1937.515584391642
 30
0.0
 10
1357.731175459618
 20
1944.116039563442
 30
0.0
 10
1358.722700770925
 20
1951.300196781349
 30
0.0
 10
1358.630358613685
 20
1956.465983616782
 30
0.0
 10
1358.584241074535
 20
1959.045881940021
 30
0.0
  0
SPLINE
  5
9E
330
1F
100
AcDbEntity
  8
0
  6
Continuous
 62
     7
370
    25
100
AcDbSpline
210
0.0
220
0.0
230
1.0
 70
    11
 71
     3
 72
    55
 73
    51
 74
     0
 42
0.00000001
 43
0.00000001
 40
0.0
 40
0.0
 40
0.0
 40
0.0
 40
0.0208204089546865
 40
0.0416937326714729
 40
0.0625806358688367
 40
0.0833550162328987
 40
0.1042123323602998
 40
0.1251083232652914
 40
0.1458931771912386
 40
0.1667379758149736
 40
0.1875958674853243
 40
0.2084336811692219
 40
0.2292750970011192
 40
0.2500734661801762
 40
0.2709615404193295
 40
0.2918137542353966
 40
0.3125831785228873
 40
0.3334663242289012
 40
0.3543444592428946
 40
0.3751715395262711
 40
0.3959943850658593
 40
0.4168686984704604
 40
0.4377525111402629
 40
0.4585272130318002
 40
0.4794027439093978
 40
0.5003383165235499
 40
0.5212500789756705
 40
0.5421176503672428
 40
0.5628940358738518
 40
0.583752903911472
 40
0.6046084602094646
 40
0.6254096440073309
 40
0.6461903077007484
 40
0.6670207200315439
 40
0.6878550945288012
 40
0.7085821972472813
 40
0.7293794784968884
 40
0.7502080856688109
 40
0.770943496285282
 40
0.7917359471473316
 40
0.8125436923068882
 40
0.8333472330093701
 40
0.8541610204687753
 40
0.8749354707963557
 40
0.89581084158876
 40
0.9166545560716794
 40
0.9374170856854493
 40
0.9582970424063301
 40
0.9791727003460429
 40
0.9999999999999999
 40
0.9999999999999999
 40
0.9999999999999999
 40
0.9999999999999999
 10
1040.386189540589
 20
2150.903115218988
 30
0.0
 10
1040.169327641093
 20
2153.548096167326
 30
0.0
 10
1039.735052690785
 20
2158.844780244047
 30
0.0
 10
1037.969984332721
 20
2167.095481028545
 30
0.0
 10
1035.429960822409
 20
2175.384646037848
 30
0.0
 10
1032.091124053565
 20
2183.608768174194
 30
0.0
 10
1028.039565904545
 20
2191.627508089661
 30
0.0
 10
1023.348694133142
 20
2199.310077122831
 30
0.0
 10
1018.117258353551
 20
2206.529661931376
 30
0.0
 10
1012.446110487818
 20
2213.166426094092
 30
0.0
 10
1006.433202505349
 20
2219.120126033929
 30
0.0
 10
1000.194818736488
 20
2224.290272069476
 30
0.0
 10
993.8471334832321
 20
2228.58551213594
 30
0.0
 10
987.4900180555348
 20
2231.941771038498
 30
0.0
 10
981.2345978243497
 20
2234.300552901899
 30
0.0
 10
975.188548296453
 20
2235.613191817025
 30
0.0
 10
969.4461930212043
 20
2235.857149338277
 30
0.0
 10
964.09313132951
 20
2235.025361985249
 30
0.0
 10
959.2114624859423
 20
2233.117411392194
 30
0.0
 10
954.88313360254
 20
2230.164177278032
 30
0.0
 10
951.164391589195
 20
2226.212415879862
 30
0.0
 10
948.1083877760933
 20
2221.314769984499
 30
0.0
 10
945.7653149739384
 20
2215.557639372282
 30
0.0
 10
944.1617685795794
 20
2209.037703716025
 30
0.0
 10
943.3214376704402
 20
2201.856865029269
 30
0.0
 10
943.2604155571548
 20
2194.125715364131
 30
0.0
 10
943.9794217819402
 20
2185.997291190744
 30
0.0
 10
945.4662677364404
 20
2177.633785937294
 30
0.0
 10
947.6984000632053
 20
2169.16960370814
 30
0.0
 10
950.6443503256938
 20
2160.746595668283
 30
0.0
 10
954.2696354367804
 20
2152.508252493718
 30
0.0
 10
958.5165707720723
 20
2144.613487049428
 30
0.0
 10
963.3249695997993
 20
2137.192288792666
 30
0.0
 10
968.631306188127
 20
2130.371443581356
 30
0.0
 10
974.3476660436669
 20
2124.283983777632
 30
0.0
 10
980.3831235003742
 20
2119.031775605672
 30
0.0
 10
986.6425394131786
 20
2114.706889109781
 30
0.0
 10
993.021343789541
 20
2111.387357284768
 30
0.0
 10
999.4069420823728
 20
2109.125644097148
 30
0.0
 10
1005.684596075784
 20
2107.959820952085
 30
0.0
 10
1011.748567466877
 20
2107.906298858351
 30
0.0
 10
1017.483614074959
 20
2108.957962039544
 30
0.0
 10
1022.776928988631
 20
2111.092366232611
 30
0.0
 10
1027.536961780274
 20
2114.269739624457
 30
0.0
 10
1031.670570580815
 20
2118.427849893577
 30
0.0
 10
1035.089371466022
 20
2123.49350512122
 30
0.0
 10
1037.73417972798
 20
2129.372817670609
 30
0.0
 10
1039.533123925672
 20
2135.97327284241
 30
0.0
 10
1040.524649236979
 20
2143.157430060316
 30
0.0
 10
1040.43230707974
 20
2148.323216895749
 30
0.0
 10
1040.386189540589
 20
2150.903115218988
 30
0.0
  0
SPLINE
  5
9F
330
1F
100
AcDbEntity
  8
0
  6
Continuous
 62
     7
370
    25
100
AcDbSpline
210
0.0
220
0.0
230
1.0
 70
    11
 71
     3
 72
    55
 73
    51
 74
     0
 42
0.00000001
 43
0.00000001
 40
0.0
 40
0.0
 40
0.0
 40
0.0
 40
0.0208204089546865
 40
0.0416937326714729
 40
0.0625806358688368
 40
0.0833550162328987
 40
0.1042123323602998
 40
0.1251083232652915
 40
0.1458931771912386
 40
0.1667379758149737
 40
0.1875958674853243
 40
0.208433681169222
 40
0.2292750970011193
 40
0.2500734661801764
 40
0.2709615404193296
 40
0.2918137542353968
 40
0.3125831785228875
 40
0.3334663242289011
 40
0.3543444592428945
 40
0.375171539526271
 40
0.3959943850658594
 40
0.4168686984704604
 40
0.4377525111402629
 40
0.4585272130318002
 40
0.4794027439093978
 40
0.5003383165235499
 40
0.5212500789756707
 40
0.5421176503672428
 40
0.5628940358738519
 40
0.5837529039114722
 40
0.6046084602094647
 40
0.625409644007331
 40
0.6461903077007485
 40
0.667020720031544
 40
0.6878550945288012
 40
0.7085821972472813
 40
0.7293794784968884
 40
0.7502080856688108
 40
0.7709434962852821
 40
0.791735947147332
 40
0.8125436923068884
 40
0.8333472330093702
 40
0.8541610204687754
 40
0.8749354707963559
 40
0.89581084158876
 40
0.9166545560716796
 40
0.9374170856854493
 40
0.9582970424063301
 40
0.9791727003460429
 40
0.9999999999999999
 40
0.9999999999999999
 40
0.9999999999999999
 40
0.9999999999999999
 10
1782.848309786463
 20
1754.950488987495
 30
0.0
 10
1782.631447886967
 20
1757.595469935833
 30
0.0
 10
1782.197172936659
 20
1762.892154012554
 30
0.0
 10
1780.432104578595
 20
1771.142854797052
 30
0.0
 10
1777.892081068282
 20
1779.432019806355
 30
0.0
 10
1774.553244299439
 20
1787.656141942701
 30
0.0
 10
1770.501686150419
 20
1795.674881858168
 30
0.0
 10
1765.810814379016
 20
1803.357450891338
 30
0.0
 10
1760.579378599425
 20
1810.577035699883
 30
0.0
 10
1754.908230733691
 20
1817.2137998626
 30
0.0
 10
1748.895322751223
 20
1823.167499802437
 30
0.0
 10
1742.656938982362
 20
1828.337645837983
 30
0.0
 10
1736.309253729106
 20
1832.632885904447
 30
0.0
 10
1729.952138301408
 20
1835.989144807005
 30
0.0
 10
1723.696718070223
 20
1838.347926670406
 30
0.0
 10
1717.650668542326
 20
1839.660565585532
 30
0.0
 10
1711.908313267078
 20
1839.904523106785
 30
0.0
 10
1706.555251575384
 20
1839.072735753756
 30
0.0
 10
1701.673582731816
 20
1837.164785160701
 30
0.0
 10
1697.345253848413
 20
1834.211551046539
 30
0.0
 10
1693.626511835069
 20
1830.259789648368
 30
0.0
 10
1690.570508021967
 20
1825.362143753006
 30
0.0
 10
1688.227435219813
 20
1819.605013140789
 30
0.0
 10
1686.623888825453
 20
1813.085077484533
 30
0.0
 10
1685.783557916314
 20
1805.904238797776
 30
0.0
 10
1685.722535803029
 20
1798.173089132638
 30
0.0
 10
1686.441542027814
 20
1790.044664959251
 30
0.0
 10
1687.928387982314
 20
1781.681159705801
 30
0.0
 10
1690.160520309079
 20
1773.216977476647
 30
0.0
 10
1693.106470571568
 20
1764.79396943679
 30
0.0
 10
1696.731755682654
 20
1756.555626262226
 30
0.0
 10
1700.978691017946
 20
1748.660860817936
 30
0.0
 10
1705.787089845673
 20
1741.239662561173
 30
0.0
 10
1711.093426434001
 20
1734.418817349864
 30
0.0
 10
1716.80978628954
 20
1728.331357546139
 30
0.0
 10
1722.845243746248
 20
1723.07914937418
 30
0.0
 10
1729.104659659052
 20
1718.754262878288
 30
0.0
 10
1735.483464035415
 20
1715.434731053275
 30
0.0
 10
1741.869062328247
 20
1713.173017865655
 30
0.0
 10
1748.146716321658
 20
1712.007194720592
 30
0.0
 10
1754.21068771275
 20
1711.953672626857
 30
0.0
 10
1759.945734320833
 20
1713.005335808051
 30
0.0
 10
1765.239049234505
 20
1715.139740001118
 30
0.0
 10
1769.999082026148
 20
1718.317113392964
 30
0.0
 10
1774.132690826689
 20
1722.475223662084
 30
0.0
 10
1777.551491711895
 20
1727.540878889727
 30
0.0
 10
1780.196299973853
 20
1733.420191439117
 30
0.0
 10
1781.995244171546
 20
1740.020646610917
 30
0.0
 10
1782.986769482852
 20
1747.204803828823
 30
0.0
 10
1782.894427325613
 20
1752.370590664256
 30
0.0
 10
1782.848309786463
 20
1754.950488987495
 30
0.0
  0
SPLINE
  5
A0
330
1F
100
AcDbEntity
  8
0
  6
Continuous
 62
     7
370
    25
100
AcDbSpline
210
0.0
220
0.0
230
1.0
 70
     8
 71
     3
 72
    20
 73
    16
 74
     0
 42
0.00000001
 43
0.00000001
 40
0.0
 40
0.0
 40
0.0
 40
0.0
 40
0.0260936620903924
 40
0.115051960721996
 40
0.2015055547645001
 40
0.2904696176037061
 40
0.3768642439111443
 40
0.4657672679946236
 40
0.5521110137295814
 40
0.6409603975990952
 40
0.7272751189689699
 40
0.8160942690764286
 40
0.90238596148025
 40
0.9911814533470866
 40
1.0
 40
1.0
 40
1.0
 40
1.0
 10
1040.241282201928
 20
2188.092923209965
 30
0.0
 10
1040.179124084697
 20
2188.462296156971
 30
0.0
 10
1039.905057024372
 20
2190.090932323235
 30
0.0
 10
1038.923006379992
 20
2193.117554592898
 30
0.0
 10
1037.307031652953
 20
2197.070975245665
 30
0.0
 10
1035.251934986695
 20
2200.925225651522
 30
0.0
 10
1032.821797530412
 20
2204.620378504215
 30
0.0
 10
1030.114245914167
 20
2207.987392606488
 30
0.0
 10
1027.15720307829
 20
2210.988813910403
 30
0.0
 10
1024.084109252834
 20
2213.486022661245
 30
0.0
 10
1020.927783925464
 20
2215.446913578254
 30
0.0
 10
1017.823448604659
 20
2216.803066287134
 30
0.0
 10
1014.844233129873
 20
2217.456932372656
 30
0.0
 10
1012.827956232292
 20
2217.623563067541
 30
0.0
 10
1011.910191454509
 20
2217.382989447073
 30
0.0
 10
1011.827279696815
 20
2217.361255793515
 30
0.0
  0
SPLINE
  5
A1
330
1F
100
AcDbEntity
  8
0
  6
Continuous
 62
     7
370
    25
100
AcDbSpline
210
0.0
220
0.0
230
1.0
 70
     8
 71
     3
 72
     9
 73
     5
 74
     0
 42
0.00000001
 43
0.00000001
 40
0.0
 40
0.0
 40
0.0
 40
0.0
 40
0.6622351476813823
 40
1.0
 40
1.0
 40
1.0
 40
1.0
 10
1042.406345537264
 20
2164.979419666774
 30
0.0
 10
1042.228844839517
 20
2168.34135633464
 30
0.0
 10
1041.960812104667
 20
2173.4180072488
 30
0.0
 10
1041.405420261438
 20
2178.652375777929
 30
0.0
 10
1041.217828417531
 20
2180.420361491152
 30
0.0
  0
SPLINE
  5
A2
330
1F
100
AcDbEntity
  8
0
  6
Continuous
 62
     7
370
    25
100
AcDbSpline
210
0.0
220
0.0
230
1.0
 70
     8
 71
     3
 72
     9
 73
     5
 74
     0
 42
0.00000001
 43
0.00000001
 40
0.0
 40
0.0
 40
0.0
 40
0.0
 40
0.6009837840044181
 40
1.0
 40
1.0
 40
1.0
 40
1.0
 10
1041.997923986261
 20
2159.764399341384
 30
0.0
 10
1042.175500328912
 20
2160.739002077075
 30
0.0
 10
1042.470976425567
 20
2162.360681000253
 30
0.0
 10
1042.424779042317
 20
2164.232523968605
 30
0.0
 10
1042.406345537264
 20
2164.979419666774
 30
0.0
  0
SPLINE
  5
A3
330
1F
100
AcDbEntity
  8
0
  6
Continuous
 62
     7
370
    25
100
AcDbSpline
210
0.0
220
0.0
230
1.0
 70
     8
 71
     3
 72
    18
 73
    14
 74
     0
 42
0.00000001
 43
0.00000001
 40
0.0
 40
0.0
 40
0.0
 40
0.0
 40
0.0936409036330036
 40
0.1946226801315221
 40
0.292687927671071
 40
0.3936004199913274
 40
0.4916079137544146
 40
0.5924595198704564
 40
0.6904340685110487
 40
0.7912513567361897
 40
0.889199765542013
 40
0.9899901996522376
 40
0.9999999999999999
 40
0.9999999999999999
 40
0.9999999999999999
 40
0.9999999999999999
 10
1356.979433579417
 20
2001.472135191619
 30
0.0
 10
1356.495794622038
 20
2002.706835618373
 30
0.0
 10
1355.490602377524
 20
2005.273029417145
 30
0.0
 10
1353.445554434947
 20
2009.067714848403
 30
0.0
 10
1351.021060981822
 20
2012.76322111195
 30
0.0
 10
1348.311979590565
 20
2016.130139424217
 30
0.0
 10
1345.35534152936
 20
2019.13158607393
 30
0.0
 10
1342.282137983362
 20
2021.628787954395
 30
0.0
 10
1339.125841697228
 20
2023.589680689881
 30
0.0
 10
1336.021498495701
 20
2024.945832905293
 30
0.0
 10
1333.042285135876
 20
2025.599699123248
 30
0.0
 10
1331.0260077576
 20
2025.766329788032
 30
0.0
 10
1330.108242987739
 20
2025.525756168061
 30
0.0
 10
1330.02533123076
 20
2025.504022514548
 30
0.0
  0
SPLINE
  5
A4
330
1F
100
AcDbEntity
  8
0
  6
Continuous
 62
     7
370
    25
100
AcDbSpline
210
0.0
220
0.0
230
1.0
 70
     8
 71
     3
 72
     9
 73
     5
 74
     0
 42
0.00000001
 43
0.00000001
 40
0.0
 40
0.0
 40
0.0
 40
0.0
 40
0.4995289696301879
 40
1.0
 40
1.0
 40
1.0
 40
1.0
 10
1360.60439707121
 20
1973.122186387807
 30
0.0
 10
1360.416575416115
 20
1976.489787733526
 30
0.0
 10
1360.04057789342
 20
1983.231341377977
 30
0.0
 10
1359.283622882482
 20
1990.181984293302
 30
0.0
 10
1358.904788828215
 20
1993.660579714867
 30
0.0
  0
SPLINE
  5
A5
330
1F
100
AcDbEntity
  8
0
  6
Continuous
 62
     7
370
    25
100
AcDbSpline
210
0.0
220
0.0
230
1.0
 70
     8
 71
     3
 72
     9
 73
     5
 74
     0
 42
0.00000001
 43
0.00000001
 40
0.0
 40
0.0
 40
0.0
 40
0.0
 40
0.6009837840044161
 40
1.0
 40
1.0
 40
1.0
 40
1.0
 10
1360.195975520206
 20
1967.907166062416
 30
0.0
 10
1360.373551862857
 20
1968.881768798108
 30
0.0
 10
1360.669027959513
 20
1970.503447721286
 30
0.0
 10
1360.622830576263
 20
1972.375290689637
 30
0.0
 10
1360.60439707121
 20
1973.122186387807
 30
0.0
  0
SPLINE
  5
A6
330
1F
100
AcDbEntity
  8
0
  6
Continuous
 62
     7
370
    25
100
AcDbSpline
210
0.0
220
0.0
230
1.0
 70
     8
 71
     3
 72
    20
 73
    16
 74
     0
 42
0.00000001
 43
0.00000001
 40
0.0
 40
0.0
 40
0.0
 40
0.0
 40
0.0815317723243664
 40
0.165426257554415
 40
0.2469586146256731
 40
0.330858535944733
 40
0.4123352819279348
 40
0.4961776390279212
 40
0.5776064007364448
 40
0.661398171008586
 40
0.7427995605190659
 40
0.8265628180392415
 40
0.907942489471902
 40
0.9916834354601675
 40
1.0
 40
1.0
 40
1.0
 40
1.0
 10
1783.168857540142
 20
1789.565186762342
 30
0.0
 10
1782.98064781849
 20
1790.782833767709
 30
0.0
 10
1782.598774237177
 20
1793.253414025905
 30
0.0
 10
1781.401548287832
 20
1797.159231014535
 30
0.0
 10
1779.764660057579
 20
1801.119907417805
 30
0.0
 10
1777.715233211839
 20
1804.972190730791
 30
0.0
 10
1775.28359566752
 20
1808.667864025441
 30
0.0
 10
1772.576450641621
 20
1812.034737064876
 30
0.0
 10
1769.619300222947
 20
1815.036195693668
 30
0.0
 10
1766.5462355595
 20
1817.533394327016
 30
0.0
 10
1763.389902513424
 20
1819.49428792196
 30
0.0
 10
1760.285569287191
 20
1820.850439904146
 30
0.0
 10
1757.306353250282
 20
1821.504306184692
 30
0.0
 10
1755.290076480462
 20
1821.670936835251
 30
0.0
 10
1754.372311700572
 20
1821.430363215514
 30
0.0
 10
1754.289399942688
 20
1821.408629562023
 30
0.0
  0
SPLINE
  5
A7
330
1F
100
AcDbEntity
  8
0
  6
Continuous
 62
     7
370
    25
100
AcDbSpline
210
0.0
220
0.0
230
1.0
 70
     8
 71
     3
 72
     9
 73
     5
 74
     0
 42
0.00000001
 43
0.00000001
 40
0.0
 40
0.0
 40
0.0
 40
0.0
 40
0.8979393218773841
 40
1.0
 40
1.0
 40
1.0
 40
1.0
 10
1784.868465783137
 20
1769.026793435281
 30
0.0
 10
1784.705916531967
 20
1772.380523972123
 30
0.0
 10
1784.524891770928
 20
1776.11544286378
 30
0.0
 10
1784.131938100062
 20
1779.966679356746
 30
0.0
 10
1784.091832981943
 20
1780.359739164828
 30
0.0
  0
LINE
  5
A8
330
1F
100
AcDbEntity
  8
0
  6
Continuous
 62
     7
370
    25
100
AcDbLine
 10
1783.3977753156
 20
1787.2820376227
 30
0.0
 11
1783.1688575401
 21
1789.5651867623
 31
0.0
  0
SPLINE
  5
A9
330
1F
100
AcDbEntity
  8
0
  6
Continuous
 62
     7
370
    25
100
AcDbSpline
210
0.0
220
0.0
230
1.0
 70
     8
 71
     3
 72
     9
 73
     5
 74
     0
 42
0.00000001
 43
0.00000001
 40
0.0
 40
0.0
 40
0.0
 40
0.0
 40
0.6009837840044145
 40
0.9999999999999999
 40
0.9999999999999999
 40
0.9999999999999999
 40
0.9999999999999999
 10
1784.460044232134
 20
1763.811773109891
 30
0.0
 10
1784.637620574785
 20
1764.786375845583
 30
0.0
 10
1784.933096671441
 20
1766.408054768761
 30
0.0
 10
1784.886899288191
 20
1768.279897737112
 30
0.0
 10
1784.868465783137
 20
1769.026793435281
 30
0.0
  0
LWPOLYLINE
  5
AA
330
1F
100
AcDbEntity
  8
0
  6
Continuous
 62
     7
370
    25
100
AcDbPolyline
 90
       17
 70
   128
 43
0.0
 10
2093.4553827517
 20
1669.3037615424
 10
2092.9048042838
 20
1669.1205899056
 10
2092.419281661
 20
1669.2238129333
 10
2092.0727313015
 20
1669.5977158553
 10
2091.9179123559
 20
1670.1853753411
 10
2091.9783946053
 20
1670.8973255612
 10
2092.2449701755
 20
1671.6251785484
 10
2092.6770553525
 20
1672.2581252834
 10
2093.2088690848
 20
1672.6998053634
 10
2093.7594475528
 20
1672.8829770002
 10
2094.2449701755
 20
1672.7797539725
 10
2094.5915205351
 20
1672.4058510506
 10
2094.7463394806
 20
1671.8181915647
 10
2094.6858572312
 20
1671.1062413447
 10
2094.419281661
 20
1670.3783883575
 10
2093.9871964841
 20
1669.7454416225
 10
2093.4553827517
 20
1669.3037615424
  0
LWPOLYLINE
  5
AB
330
1F
100
AcDbEntity
  8
0
  6
Continuous
 62
     7
370
    25
100
AcDbPolyline
 90
       10
 70
   128
 43
0.0
 10
1956.0162890123
 20
1711.1620194489
 10
1955.7122117729
 20
1711.2096388009
 10
1955.2947807052
 20
1711.0742547784
 10
1954.9004176227
 20
1710.7410000132
 10
1954.5891607297
 20
1710.2606095221
 10
1954.4083960668
 20
1709.7062184028
 10
1954.3856434151
 20
1709.1622276775
 10
1954.5243666597
 20
1708.7114550029
 10
1954.803446444
 20
1708.4225264324
 10
1954.8768253284
 20
1708.3868398499
  0
LWPOLYLINE
  5
AC
330
1F
100
AcDbEntity
  8
0
  6
Continuous
 62
     7
370
    25
100
AcDbPolyline
 90
       17
 70
   128
 43
0.0
 10
2097.0494872822
 20
1652.8104229404
 10
2097.4415435662
 20
1653.1445854824
 10
2097.7462312528
 20
1653.627561103
 10
2097.9171644036
 20
1654.1858211421
 10
2097.928319996
 20
1654.7343755694
 10
2097.7779996921
 20
1655.189711946
 10
2097.4890883956
 20
1655.4825094362
 10
2097.1055702324
 20
1655.5681922764
 10
2096.6858323662
 20
1655.4337160307
 10
2096.2937760822
 20
1655.0995534887
 10
2095.9890883956
 20
1654.6165778681
 10
2095.8181552448
 20
1654.058317829
 10
2095.8069996524
 20
1653.5097634017
 10
2095.9573199563
 20
1653.0544270251
 10
2096.2462312528
 20
1652.7616295349
 10
2096.629749416
 20
1652.6759466948
 10
2097.0494872822
 20
1652.8104229404
  0
SPLINE
  5
AD
330
1F
100
AcDbEntity
  8
0
  6
Continuous
 62
     7
370
    25
100
AcDbSpline
210
0.0
220
0.0
230
1.0
 70
     8
 71
     3
 72
    18
 73
    14
 74
     0
 42
0.00000001
 43
0.00000001
 40
0.0
 40
0.0
 40
0.0
 40
0.0
 40
0.0286364023392813
 40
0.1866475379668686
 40
0.3697181084550062
 40
0.5561217733630207
 40
0.6751925495764555
 40
0.7537541161754544
 40
0.8135116361628649
 40
0.8735647768796662
 40
0.9277243060445641
 40
0.9816093584096675
 40
1.0
 40
1.0
 40
1.0
 40
1.0
 10
1951.506519400884
 20
1713.424142451295
 30
0.0
 10
1951.404519737
 20
1713.407719549906
 30
0.0
 10
1950.739702071994
 20
1713.300677678022
 30
0.0
 10
1949.559869136773
 20
1713.341682195989
 30
0.0
 10
1948.002708388305
 20
1713.487115012357
 30
0.0
 10
1946.652584109779
 20
1713.799038254732
 30
0.0
 10
1945.688949419344
 20
1714.261781089057
 30
0.0
 10
1945.190392821807
 20
1714.776737918579
 30
0.0
 10
1945.014197028063
 20
1715.304091169691
 30
0.0
 10
1945.096632348915
 20
1715.799305526146
 30
0.0
 10
1945.393648402949
 20
1716.183307867201
 30
0.0
 10
1945.715886489147
 20
1716.398963090723
 30
0.0
 10
1945.952961978376
 20
1716.428246046632
 30
0.0
 10
1946.013286135969
 20
1716.435697131739
 30
0.0
  0
LWPOLYLINE
  5
AE
330
1F
100
AcDbEntity
  8
0
  6
Continuous
 62
     7
370
    25
100
AcDbPolyline
 90
       11
 70
   128
 43
0.0
 10
1955.1432578235
 20
1712.3739757955
 10
1954.4359994314
 20
1711.7983682299
 10
1953.8505986308
 20
1710.9786563588
 10
1953.4576633981
 20
1710.0137095314
 10
1953.3045875214
 20
1709.0199145763
 10
1953.4098342105
 20
1708.1171378319
 10
1953.7607091615
 20
1707.4142674972
 10
1954.3148916769
 20
1706.9960801077
 10
1955.0055391665
 20
1706.9130152345
 10
1955.7493493503
 20
1707.1750917271
 10
1956.4292114548
 20
1707.7214520348
  0
LWPOLYLINE
  5
AF
330
1F
100
AcDbEntity
  8
0
  6
Continuous
 62
     7
370
    25
100
AcDbPolyline
 90
        6
 70
   128
 43
0.0
 10
1957.5885475739
 20
1710.5532815474
 10
1957.4827729633
 20
1711.4319296908
 10
1957.1318980123
 20
1712.1348000255
 10
1956.5777154969
 20
1712.5529874149
 10
1955.8870680072
 20
1712.6360522882
 10
1955.1432578235
 20
1712.3739757955
  0
LWPOLYLINE
  5
B0
330
1F
100
AcDbEntity
  8
0
  6
Continuous
 62
     7
370
    25
100
AcDbPolyline
 90
        8
 70
   128
 43
0.0
 10
541.5357869772
 20
2528.4321984275
 10
540.7919767934
 20
2527.877691762
 10
540.1013293038
 20
2527.1187375112
 10
539.5471467884
 20
2526.2468767587
 10
539.1962718374
 20
2525.3672687787
 10
539.0910251483
 20
2524.586007275
 10
539.244101025
 20
2523.9973239153
 10
539.4426234643
 20
2523.7752659215
  0
ARC
  5
B1
330
1F
100
AcDbEntity
  8
0
  6
Continuous
 62
     7
370
    25
100
AcDbCircle
 10
542.3931791128
 20
2527.4378207618
 30
0.0
 40
1.31297685288899
100
AcDbArc
 50
61.3238984414
 51
130.7692243571
  0
LWPOLYLINE
  5
B2
330
1F
100
AcDbEntity
  8
0
  6
Continuous
 62
     7
370
    25
100
AcDbPolyline
 90
       10
 70
   128
 43
0.0
 10
398.8904070319
 20
2632.6278276419
 10
398.7618803971
 20
2632.8244992902
 10
398.7507248047
 20
2633.1994975889
 10
398.9010451086
 20
2633.6677139384
 10
399.1899564051
 20
2634.1578666437
 10
399.5734745683
 20
2634.5953343987
 10
399.9932124345
 20
2634.9135167035
 10
400.3852687185
 20
2635.0639731864
 10
400.6899564051
 20
2635.0237982118
 10
400.7326099053
 20
2634.9955877027
  0
SPLINE
  5
B3
330
1F
100
AcDbEntity
  8
0
  6
Continuous
 62
     8
370
    25
100
AcDbSpline
210
0.0
220
0.0
230
1.0
 70
     8
 71
     3
 72
    24
 73
    20
 74
     0
 42
0.00000001
 43
0.00000001
 40
0.0
 40
0.0
 40
0.0
 40
0.0
 40
0.0611784776671796
 40
0.1223854701876592
 40
0.1836961203150729
 40
0.2450427144734599
 40
0.3060105596971326
 40
0.3670047980788189
 40
0.4282787820347809
 40
0.4895572566709257
 40
0.5504711757752545
 40
0.6113633907515275
 40
0.6724322825761718
 40
0.733460009149351
 40
0.7944526658423727
 40
0.8554017008556432
 40
0.916169895380797
 40
0.9769115307547717
 40
1.0
 40
1.0
 40
1.0
 40
1.0
 10
860.1212466897539
 20
2281.053802076619
 30
0.0
 10
860.3640969495357
 20
2278.788468300448
 30
0.0
 10
860.849910659878
 20
2274.256744892145
 30
0.0
 10
860.9160832636439
 20
2267.88687028097
 30
0.0
 10
860.4993565555268
 20
2261.902323462115
 30
0.0
 10
859.5488650496992
 20
2256.404897698356
 30
0.0
 10
858.0943913410429
 20
2251.430250863408
 30
0.0
 10
856.1358022982085
 20
2247.022781308879
 30
0.0
 10
853.6883662896267
 20
2243.204768695649
 30
0.0
 10
850.7655481569182
 20
2240.028348801882
 30
0.0
 10
847.4019049252465
 20
2237.51218723002
 30
0.0
 10
843.6152855505596
 20
2235.679733478717
 30
0.0
 10
839.432316356467
 20
2234.532704310081
 30
0.0
 10
834.8799735569245
 20
2234.090372598835
 30
0.0
 10
830.0043920497878
 20
2234.348118646541
 30
0.0
 10
824.8496792886443
 20
2235.296059576279
 30
0.0
 10
819.455443061381
 20
2236.962014901318
 30
0.0
 10
815.0498744958256
 20
2238.692912455146
 30
0.0
 10
812.418806376353
 20
2240.07879484049
 30
0.0
 10
811.6941581651347
 20
2240.460494266691
 30
0.0
  0
SPLINE
  5
B4
330
1F
100
AcDbEntity
  8
0
  6
Continuous
 62
     8
370
    25
100
AcDbSpline
210
0.0
220
0.0
230
1.0
 70
     8
 71
     3
 72
    25
 73
    21
 74
     0
 42
0.00000001
 43
0.00000001
 40
0.0
 40
0.0
 40
0.0
 40
0.0
 40
0.0537947657777895
 40
0.1125076255467701
 40
0.1712256127401225
 40
0.2302515514320368
 40
0.2892811560327869
 40
0.3480390289533081
 40
0.4068020799264362
 40
0.4656889368784038
 40
0.524582658568152
 40
0.5835329165285221
 40
0.6424891139529861
 40
0.7012804936074901
 40
0.760073748516138
 40
0.8192043794553237
 40
0.8783324795603696
 40
0.937162697060858
 40
0.9959904249558472
 40
1.0
 40
1.0
 40
1.0
 40
1.0
 10
768.0378538203595
 20
2382.724760837659
 30
0.0
 10
769.5382705584772
 20
2382.982475400256
 30
0.0
 10
772.6762770558668
 20
2383.521465636339
 30
0.0
 10
777.8046331263575
 20
2383.441512651091
 30
0.0
 10
783.2813103290991
 20
2382.683806970744
 30
0.0
 10
788.9361996247288
 20
2381.178731669862
 30
0.0
 10
794.6955711507026
 20
2378.949601917036
 30
0.0
 10
800.4920518332088
 20
2376.026886332713
 30
0.0
 10
806.2729558402648
 20
2372.431615501402
 30
0.0
 10
811.9921176434535
 20
2368.200935048896
 30
0.0
 10
817.5967402039385
 20
2363.365654801304
 30
0.0
 10
823.033183267703
 20
2357.984342112817
 30
0.0
 10
828.2457863762868
 20
2352.109683878828
 30
0.0
 10
833.1911678305995
 20
2345.811150671638
 30
0.0
 10
837.8352754539026
 20
2339.136222217617
 30
0.0
 10
842.1421284936198
 20
2332.149740713851
 30
0.0
 10
846.0807062729657
 20
2324.929730071844
 30
0.0
 10
849.5542530987702
 20
2317.570774103278
 30
0.0
 10
851.775106670781
 20
2312.444744287735
 30
0.0
 10
852.6996812758476
 20
2309.803036930442
 30
0.0
 10
852.7586773035182
 20
2309.634472663703
 30
0.0
  0
SPLINE
  5
B5
330
1F
100
AcDbEntity
  8
0
  6
Continuous
 62
     8
370
    25
100
AcDbSpline
210
0.0
220
0.0
230
1.0
 70
     8
 71
     3
 72
    10
 73
     6
 74
     0
 42
0.00000001
 43
0.00000001
 40
0.0
 40
0.0
 40
0.0
 40
0.0
 40
0.2536932981619416
 40
0.6267994287199489
 40
1.0
 40
1.0
 40
1.0
 40
1.0
 10
855.8958062246217
 20
2300.296790175375
 30
0.0
 10
856.3980618182079
 20
2298.62195013361
 30
0.0
 10
857.6389835193802
 20
2294.483926823647
 30
0.0
 10
859.0864120077241
 20
2288.013774293742
 30
0.0
 10
859.7762726964736
 20
2283.37398852819
 30
0.0
 10
860.1212466897539
 20
2281.053802076619
 30
0.0
  0
SPLINE
  5
B6
330
1F
100
AcDbEntity
  8
0
  6
Continuous
 62
     8
370
    25
100
AcDbSpline
210
0.0
220
0.0
230
1.0
 70
     8
 71
     3
 72
    24
 73
    20
 74
     0
 42
0.00000001
 43
0.00000001
 40
0.0
 40
0.0
 40
0.0
 40
0.0
 40
0.0611784776671796
 40
0.1223854701876592
 40
0.1836961203150729
 40
0.2450427144734599
 40
0.3060105596971326
 40
0.3670047980788189
 40
0.4282787820347808
 40
0.4895572566709258
 40
0.5504711757752545
 40
0.6113633907515275
 40
0.6724322825761718
 40
0.7334600091493514
 40
0.7944526658423726
 40
0.8554017008556426
 40
0.9161698953807973
 40
0.9769115307547717
 40
1.0
 40
1.0
 40
1.0
 40
1.0
 10
1616.725502559358
 20
1836.110054132611
 30
0.0
 10
1616.96835281914
 20
1833.84472035644
 30
0.0
 10
1617.454166529483
 20
1829.312996948137
 30
0.0
 10
1617.520339133249
 20
1822.943122336962
 30
0.0
 10
1617.103612425131
 20
1816.958575518108
 30
0.0
 10
1616.153120919304
 20
1811.461149754349
 30
0.0
 10
1614.698647210647
 20
1806.486502919401
 30
0.0
 10
1612.740058167813
 20
1802.079033364872
 30
0.0
 10
1610.292622159232
 20
1798.261020751641
 30
0.0
 10
1607.369804026523
 20
1795.084600857875
 30
0.0
 10
1604.006160794851
 20
1792.568439286012
 30
0.0
 10
1600.219541420164
 20
1790.73598553471
 30
0.0
 10
1596.036572226072
 20
1789.588956366074
 30
0.0
 10
1591.484229426529
 20
1789.146624654828
 30
0.0
 10
1586.608647919392
 20
1789.404370702534
 30
0.0
 10
1581.453935158249
 20
1790.352311632271
 30
0.0
 10
1576.059698930986
 20
1792.018266957311
 30
0.0
 10
1571.654130365431
 20
1793.749164511138
 30
0.0
 10
1569.023062245958
 20
1795.135046896482
 30
0.0
 10
1568.298414034739
 20
1795.516746322684
 30
0.0
  0
SPLINE
  5
B7
330
1F
100
AcDbEntity
  8
0
  6
Continuous
 62
     8
370
    25
100
AcDbSpline
210
0.0
220
0.0
230
1.0
 70
     8
 71
     3
 72
    24
 73
    20
 74
     0
 42
0.00000001
 43
0.00000001
 40
0.0
 40
0.0
 40
0.0
 40
0.0
 40
0.0565030503913592
 40
0.1181717950393218
 40
0.1798459252506102
 40
0.2418435107049829
 40
0.3038449466274938
 40
0.3655609706033435
 40
0.4272824333196193
 40
0.4891339349971207
 40
0.5509926470159837
 40
0.612910741610489
 40
0.6748350746899855
 40
0.736586292288324
 40
0.7983394795500274
 40
0.8604470279578148
 40
0.9225519181172226
 40
0.98434392884361
 40
1.0
 40
1.0
 40
1.0
 40
1.0
 10
1524.642109689964
 20
1937.781012893652
 30
0.0
 10
1526.142526428
 20
1938.038727456243
 30
0.0
 10
1529.280532925218
 20
1938.577717692314
 30
0.0
 10
1534.408888997082
 20
1938.497764707159
 30
0.0
 10
1539.885566194507
 20
1937.740059026455
 30
0.0
 10
1545.540455510089
 20
1936.234983726911
 30
0.0
 10
1551.299826961627
 20
1934.005853969096
 30
0.0
 10
1557.096307920694
 20
1931.083138403308
 30
0.0
 10
1562.8772108958
 20
1927.487867502831
 30
0.0
 10
1568.596376558509
 20
1923.257187309009
 30
0.0
 10
1574.200984702469
 20
1918.421906095153
 30
0.0
 10
1579.637481621519
 20
1913.040597016302
 30
0.0
 10
1584.849883867401
 20
1907.165925319547
 30
0.0
 10
1589.796012942123
 20
1900.867442221404
 30
0.0
 10
1594.437326626322
 20
1894.192326504404
 30
0.0
 10
1598.754664881956
 20
1887.206547769272
 30
0.0
 10
1602.654131964749
 20
1879.98391574388
 30
0.0
 10
1605.373840757123
 20
1874.460591300345
 30
0.0
 10
1606.63901366457
 20
1871.359909170214
 30
0.0
 10
1606.894767410597
 20
1870.733108623543
 30
0.0
  0
SPLINE
  5
B8
330
1F
100
AcDbEntity
  8
0
  6
Continuous
 62
     8
370
    25
100
AcDbSpline
210
0.0
220
0.0
230
1.0
 70
     8
 71
     3
 72
    11
 73
     7
 74
     0
 42
0.00000001
 43
0.00000001
 40
0.0
 40
0.0
 40
0.0
 40
0.0
 40
0.1744620578973105
 40
0.4501613608768853
 40
0.7250458910161056
 40
1.0
 40
1.0
 40
1.0
 40
1.0
 10
1610.14888456466
 20
1862.456422596964
 30
0.0
 10
1610.719803270294
 20
1860.880013391559
 30
0.0
 10
1612.192934704004
 20
1856.812432613498
 30
0.0
 10
1614.014312559145
 20
1850.329209141941
 30
0.0
 10
1615.704276236854
 20
1843.067714612553
 30
0.0
 10
1616.385065068583
 20
1838.429469940116
 30
0.0
 10
1616.725502559358
 20
1836.110054132611
 30
0.0
  0
SPLINE
  5
B9
330
1F
100
AcDbEntity
  8
0
  6
Continuous
 62
     8
370
    25
100
AcDbSpline
210
0.0
220
0.0
230
1.0
 70
     8
 71
     3
 72
    20
 73
    16
 74
     0
 42
0.00000001
 43
0.00000001
 40
0.0
 40
0.0
 40
0.0
 40
0.0
 40
0.0771117482336343
 40
0.1544009068493614
 40
0.2317050639605029
 40
0.3085461717930458
 40
0.3856705320075332
 40
0.4628900926305082
 40
0.5396937453808891
 40
0.6166177397014798
 40
0.6934800034216809
 40
0.7703192269828736
 40
0.8470863839736026
 40
0.9236338798472236
 40
1.0
 40
1.0
 40
1.0
 40
1.0
 10
1819.199160746412
 20
1751.482694503343
 30
0.0
 10
1819.44592822596
 20
1749.019083644025
 30
0.0
 10
1819.940030921019
 20
1744.0861939156
 30
0.0
 10
1819.700133022764
 20
1737.333622724376
 30
0.0
 10
1818.741316417116
 20
1731.213393211902
 30
0.0
 10
1817.012141525195
 20
1725.855045967539
 30
0.0
 10
1814.552169451512
 20
1721.332513305206
 30
0.0
 10
1811.386756568019
 20
1717.720654608293
 30
0.0
 10
1807.566050397302
 20
1715.070767212838
 30
0.0
 10
1803.145041983268
 20
1713.422627236002
 30
0.0
 10
1798.179596769048
 20
1712.797762780533
 30
0.0
 10
1792.749408436725
 20
1713.19334030752
 30
0.0
 10
1786.939296153703
 20
1714.62237098095
 30
0.0
 10
1780.856215811373
 20
1716.970114105233
 30
0.0
 10
1776.665059654358
 20
1719.318644872268
 30
0.0
 10
1774.571967207899
 20
1720.491517422132
 30
0.0
  0
SPLINE
  5
BA
330
1F
100
AcDbEntity
  8
0
  6
Continuous
 62
     8
370
    25
100
AcDbSpline
210
0.0
220
0.0
230
1.0
 70
     8
 71
     3
 72
    22
 73
    18
 74
     0
 42
0.00000001
 43
0.00000001
 40
0.0
 40
0.0
 40
0.0
 40
0.0
 40
0.0370185690465306
 40
0.1102305300803861
 40
0.1830075091250214
 40
0.2560602124780323
 40
0.3292301876890608
 40
0.4020684832589476
 40
0.4750645202727552
 40
0.5480623092818201
 40
0.6211359068274405
 40
0.6941907521074765
 40
0.7670668475627463
 40
0.8403516949590266
 40
0.9135358299018393
 40
0.9864624703750053
 40
1.0
 40
1.0
 40
1.0
 40
1.0
 10
1739.33716923727
 20
1833.502957738866
 30
0.0
 10
1740.143089666174
 20
1833.851147698904
 30
0.0
 10
1742.542886264715
 20
1834.887956112955
 30
0.0
 10
1747.104229309385
 20
1835.47764040439
 30
0.0
 10
1752.861477064637
 20
1835.317621453475
 30
0.0
 10
1758.947171237495
 20
1834.034197181945
 30
0.0
 10
1765.216780526491
 20
1831.709345010602
 30
0.0
 10
1771.564269431116
 20
1828.368563722773
 30
0.0
 10
1777.874462643343
 20
1824.074149053657
 30
0.0
 10
1784.05274574166
 20
1818.890796476117
 30
0.0
 10
1789.992557386027
 20
1812.915895829997
 30
0.0
 10
1795.595249040326
 20
1806.258716749401
 30
0.0
 10
1800.776694184369
 20
1799.030600845568
 30
0.0
 10
1805.47847542089
 20
1791.362354728875
 30
0.0
 10
1809.547268766024
 20
1783.398611938557
 30
0.0
 10
1812.219229326456
 20
1777.480745285529
 30
0.0
 10
1813.305516973328
 20
1774.287540626117
 30
0.0
 10
1813.475594951108
 20
1773.787586684197
 30
0.0
  0
SPLINE
  5
BB
330
1F
100
AcDbEntity
  8
0
  6
Continuous
 62
     8
370
    25
100
AcDbSpline
210
0.0
220
0.0
230
1.0
 70
     8
 71
     3
 72
     9
 73
     5
 74
     0
 42
0.00000001
 43
0.00000001
 40
0.0
 40
0.0
 40
0.0
 40
0.0
 40
0.463594909604976
 40
1.0
 40
1.0
 40
1.0
 40
1.0
 10
1816.056585650055
 20
1766.060581671694
 30
0.0
 10
1816.707404170083
 20
1763.746372244528
 30
0.0
 10
1818.111255909057
 20
1758.754493819595
 30
0.0
 10
1818.819340543869
 20
1754.021497709577
 30
0.0
 10
1819.199160746412
 20
1751.482694503343
 30
0.0
  0
SPLINE
  5
BC
330
1F
100
AcDbEntity
  8
0
  6
Continuous
 62
     8
370
    25
100
AcDbSpline
210
0.0
220
0.0
230
1.0
 70
     8
 71
     3
 72
    20
 73
    16
 74
     0
 42
0.00000001
 43
0.00000001
 40
0.0
 40
0.0
 40
0.0
 40
0.0
 40
0.0771117482336342
 40
0.1544009068493613
 40
0.2317050639605028
 40
0.3085461717930458
 40
0.3856705320075329
 40
0.4628900926305079
 40
0.5396937453808883
 40
0.6166177397014796
 40
0.6934800034216801
 40
0.7703192269828733
 40
0.8470863839736021
 40
0.923633879847223
 40
0.9999999999999999
 40
0.9999999999999999
 40
0.9999999999999999
 40
0.9999999999999999
 10
1076.737040500539
 20
2147.435320734835
 30
0.0
 10
1076.983807980086
 20
2144.971709875518
 30
0.0
 10
1077.477910675145
 20
2140.038820147093
 30
0.0
 10
1077.23801277689
 20
2133.286248955869
 30
0.0
 10
1076.279196171243
 20
2127.166019443395
 30
0.0
 10
1074.550021279321
 20
2121.807672199032
 30
0.0
 10
1072.090049205638
 20
2117.285139536699
 30
0.0
 10
1068.924636322145
 20
2113.673280839786
 30
0.0
 10
1065.103930151429
 20
2111.023393444331
 30
0.0
 10
1060.682921737395
 20
2109.375253467495
 30
0.0
 10
1055.717476523174
 20
2108.750389012026
 30
0.0
 10
1050.287288190851
 20
2109.145966539013
 30
0.0
 10
1044.47717590783
 20
2110.574997212443
 30
0.0
 10
1038.394095565499
 20
2112.922740336726
 30
0.0
 10
1034.202939408485
 20
2115.271271103761
 30
0.0
 10
1032.109846962026
 20
2116.444143653625
 30
0.0
  0
SPLINE
  5
BD
330
1F
100
AcDbEntity
  8
0
  6
Continuous
 62
     8
370
    25
100
AcDbSpline
210
0.0
220
0.0
230
1.0
 70
     8
 71
     3
 72
    22
 73
    18
 74
     0
 42
0.00000001
 43
0.00000001
 40
0.0
 40
0.0
 40
0.0
 40
0.0
 40
0.0366807325153235
 40
0.1092245511656249
 40
0.181337357531915
 40
0.2537233719087789
 40
0.3262255879046225
 40
0.3983991512131567
 40
0.4707290163955899
 40
0.5430606175843319
 40
0.6154673354705413
 40
0.6878554722269118
 40
0.7600664904538975
 40
0.8326825302956974
 40
0.9051987767996734
 40
0.9774598787637998
 40
1.0
 40
1.0
 40
1.0
 40
1.0
 10
996.8750489913959
 20
2229.455583970359
 30
0.0
 10
997.6809694204095
 20
2229.803773930393
 30
0.0
 10
1000.080766019276
 20
2230.840582344434
 30
0.0
 10
1004.642109059658
 20
2231.430266636009
 30
0.0
 10
1010.399356832826
 20
2231.270247684505
 30
0.0
 10
1016.485050938939
 20
2229.98682341517
 30
0.0
 10
1022.754660477161
 20
2227.661971235633
 30
0.0
 10
1029.102148454811
 20
2224.321189978279
 30
0.0
 10
1035.412345130477
 20
2220.026775195304
 30
0.0
 10
1041.590615291942
 20
2214.843423043054
 30
0.0
 10
1047.530475261115
 20
2208.868520808292
 30
0.0
 10
1053.132986717775
 20
2202.211347651559
 30
0.0
 10
1058.315103988218
 20
2194.98320965207
 30
0.0
 10
1063.014365639496
 20
2187.315046364872
 30
0.0
 10
1067.092549851109
 20
2179.350994856786
 30
0.0
 10
1069.891739840861
 20
2173.092608408709
 30
0.0
 10
1071.083316051932
 20
2169.559605243907
 30
0.0
 10
1071.366627504601
 20
2168.719591613552
 30
0.0
  0
SPLINE
  5
BE
330
1F
100
AcDbEntity
  8
0
  6
Continuous
 62
     8
370
    25
100
AcDbSpline
210
0.0
220
0.0
230
1.0
 70
     8
 71
     3
 72
     9
 73
     5
 74
     0
 42
0.00000001
 43
0.00000001
 40
0.0
 40
0.0
 40
0.0
 40
0.0
 40
0.377959981419438
 40
1.0
 40
1.0
 40
1.0
 40
1.0
 10
1074.129855929648
 20
2159.968066422045
 30
0.0
 10
1074.580936037985
 20
2158.343486827379
 30
0.0
 10
1075.774396008648
 20
2154.045202155643
 30
0.0
 10
1076.367873654614
 20
2149.970160020374
 30
0.0
 10
1076.737040500539
 20
2147.435320734835
 30
0.0
  0
SPLINE
  5
BF
330
1F
100
AcDbEntity
  8
0
  6
Continuous
 62
     8
370
    25
100
AcDbSpline
210
0.0
220
0.0
230
1.0
 70
     8
 71
     3
 72
    20
 73
    16
 74
     0
 42
0.00000001
 43
0.00000001
 40
0.0
 40
0.0
 40
0.0
 40
0.0
 40
0.0771117482336342
 40
0.1544009068493613
 40
0.2317050639605027
 40
0.3085461717930456
 40
0.3856705320075327
 40
0.4628900926305077
 40
0.5396937453808881
 40
0.6166177397014796
 40
0.6934800034216798
 40
0.7703192269828731
 40
0.8470863839736016
 40
0.923633879847223
 40
1.0
 40
1.0
 40
1.0
 40
1.0
 10
1394.935092034485
 20
1955.578087455868
 30
0.0
 10
1395.181859514031
 20
1953.114476596551
 30
0.0
 10
1395.675962209091
 20
1948.181586868126
 30
0.0
 10
1395.436064310836
 20
1941.429015676902
 30
0.0
 10
1394.477247705189
 20
1935.308786164428
 30
0.0
 10
1392.748072813267
 20
1929.950438920065
 30
0.0
 10
1390.288100739584
 20
1925.427906257732
 30
0.0
 10
1387.122687856091
 20
1921.816047560818
 30
0.0
 10
1383.301981685375
 20
1919.166160165364
 30
0.0
 10
1378.880973271341
 20
1917.518020188528
 30
0.0
 10
1373.91552805712
 20
1916.893155733059
 30
0.0
 10
1368.485339724797
 20
1917.288733260045
 30
0.0
 10
1362.675227441776
 20
1918.717763933476
 30
0.0
 10
1356.592147099445
 20
1921.065507057758
 30
0.0
 10
1352.400990942431
 20
1923.414037824794
 30
0.0
 10
1350.307898495972
 20
1924.586910374658
 30
0.0
  0
SPLINE
  5
C0
330
1F
100
AcDbEntity
  8
0
  6
Continuous
 62
     8
370
    25
100
AcDbSpline
210
0.0
220
0.0
230
1.0
 70
     8
 71
     3
 72
    21
 73
    17
 74
     0
 42
0.00000001
 43
0.00000001
 40
0.0
 40
0.0
 40
0.0
 40
0.0
 40
0.0397553231105578
 40
0.1183797875732463
 40
0.196537112166022
 40
0.2749905451511873
 40
0.3535699198117689
 40
0.4317930940128955
 40
0.5101856713604023
 40
0.5885801302268149
 40
0.6670560020960239
 40
0.7455117353592164
 40
0.8237755039618994
 40
0.9024782432191888
 40
0.9810728244295303
 40
1.0
 40
1.0
 40
1.0
 40
1.0
 10
1315.073100525342
 20
2037.598350691392
 30
0.0
 10
1315.87902095663
 20
2037.946540651657
 30
0.0
 10
1318.27881756227
 20
2038.983349066386
 30
0.0
 10
1322.840160513447
 20
2039.573033348893
 30
0.0
 10
1328.597408659325
 20
2039.41301443528
 30
0.0
 10
1334.683101376874
 20
2038.129590024779
 30
0.0
 10
1340.952716100108
 20
2035.804738372366
 30
0.0
 10
1347.300184792525
 20
2032.463955154416
 30
0.0
 10
1353.610453523201
 20
2028.169547696773
 30
0.0
 10
1359.788454540296
 20
2022.986168182487
 30
0.0
 10
1365.729319881494
 20
2017.011368156908
 30
0.0
 10
1371.328082421687
 20
2010.353813873904
 30
0.0
 10
1376.524182925968
 20
2003.127097452572
 30
0.0
 10
1381.171025940464
 20
1995.453605127045
 30
0.0
 10
1384.367359387441
 20
1989.511884230253
 30
0.0
 10
1385.785263437279
 20
1986.156568843522
 30
0.0
 10
1386.060452480004
 20
1985.505363968679
 30
0.0
  0
SPLINE
  5
C1
330
1F
100
AcDbEntity
  8
0
  6
Continuous
 62
     8
370
    25
100
AcDbSpline
210
0.0
220
0.0
230
1.0
 70
     8
 71
     3
 72
    10
 73
     6
 74
     0
 42
0.00000001
 43
0.00000001
 40
0.0
 40
0.0
 40
0.0
 40
0.0
 40
0.2519846795376032
 40
0.6264321515709191
 40
1.0
 40
1.0
 40
1.0
 40
1.0
 10
1389.612615463127
 20
1976.723820749263
 30
0.0
 10
1390.269216348829
 20
1974.898047864258
 30
0.0
 10
1391.901521560036
 20
1970.359189237087
 30
0.0
 10
1393.737993909769
 20
1963.211053336805
 30
0.0
 10
1394.536372275476
 20
1958.120413981767
 30
0.0
 10
1394.935092034485
 20
1955.578087455868
 30
0.0
  0
LINE
  5
C2
330
1F
100
AcDbEntity
  8
0
  6
Continuous
 62
     8
370
    25
100
AcDbLine
 10
1035.289178213
 20
2182.3903227067
 30
0.0
 11
1036.7374449122
 21
2183.226389276
 31
0.0
  0
LINE
  5
C3
330
1F
100
AcDbEntity
  8
0
  6
Continuous
 62
     8
370
    25
100
AcDbLine
 10
1041.1583914198
 20
2164.2589910895
 30
0.0
 11
1042.4063455373
 21
2164.9794196668
 31
0.0
  0
LINE
  5
C4
330
1F
100
AcDbEntity
  8
0
  6
Continuous
 62
     8
370
    25
100
AcDbLine
 10
1353.487229747
 20
1990.5330894278
 30
0.0
 11
1358.9047888282
 21
1993.6605797149
 31
0.0
  0
LINE
  5
C5
330
1F
100
AcDbEntity
  8
0
  6
Continuous
 62
     8
370
    25
100
AcDbLine
 10
1359.3564429537
 20
1972.4017578105
 30
0.0
 11
1360.6043970712
 21
1973.1221863878
 31
0.0
  0
LINE
  5
C6
330
1F
100
AcDbEntity
  8
0
  6
Continuous
 62
     8
370
    25
100
AcDbLine
 10
1781.0471772499
 20
1788.3403668018
 30
0.0
 11
1783.1688575401
 21
1789.5651867623
 31
0.0
  0
LINE
  5
C7
330
1F
100
AcDbEntity
  8
0
  6
Continuous
 62
     8
370
    25
100
AcDbLine
 10
1783.6205116657
 20
1768.306364858
 30
0.0
 11
1784.8684657831
 21
1769.0267934353
 31
0.0
  0
LWPOLYLINE
  5
C8
330
1F
100
AcDbEntity
  8
0
  6
Continuous
 62
     8
370
    25
100
AcDbPolyline
 90
       10
 70
   128
 43
0.0
 10
2030.1453616145
 20
1698.8798101512
 10
2030.0924854254
 20
1698.9075126146
 10
2029.7459350658
 20
1699.2814155366
 10
2029.5911161203
 20
1699.8690750224
 10
2029.6515983697
 20
1700.5810252425
 10
2029.9181739399
 20
1701.3088782297
 10
2030.3502591168
 20
1701.9418249647
 10
2030.8820728492
 20
1702.3835050448
 10
2031.4326513171
 20
1702.5666766816
 10
2031.8652977508
 20
1702.4911561173
  0
ENDSEC
  0
SECTION
  2
OBJECTS
  0
DICTIONARY
  5
C
330
0
100
AcDbDictionary
281
     1
  3
ACAD_GROUP
350
D
  3
ACAD_LAYOUT
350
1A
  3
ACAD_MLINESTYLE
350
17
  3
ACAD_PLOTSETTINGS
350
19
  3
ACAD_PLOTSTYLENAME
350
E
  3
ACAD_SCALELIST
350
47
  3
DWGPROPS
350
C9
  0
DICTIONARY
  5
D
102
{ACAD_REACTORS
330
C
102
}
330
C
100
AcDbDictionary
281
     1
  0
DICTIONARY
  5
1A
102
{ACAD_REACTORS
330
C
102
}
330
C
100
AcDbDictionary
281
     1
  3
Layout1
350
1E
  3
Layout2
350
26
  3
Model
350
22
  0
DICTIONARY
  5
17
102
{ACAD_REACTORS
330
C
102
}
330
C
100
AcDbDictionary
281
     1
  3
Standard
350
18
  0
DICTIONARY
  5
19
102
{ACAD_REACTORS
330
C
102
}
330
C
100
AcDbDictionary
281
     1
  0
ACDBDICTIONARYWDFLT
  5
E
102
{ACAD_REACTORS
330
C
102
}
330
C
100
AcDbDictionary
281
     1
  3
Normal
350
F
100
AcDbDictionaryWithDefault
340
F
  0
DICTIONARY
  5
47
102
{ACAD_REACTORS
330
C
102
}
330
C
100
AcDbDictionary
281
     1
  3
A0
350
48
  3
A1
350
49
  3
A2
350
4A
  3
A3
350
4B
  3
A4
350
4C
  3
A5
350
4D
  3
A6
350
4E
  3
A7
350
4F
  3
A8
350
50
  3
A9
350
51
  3
B0
350
52
  3
B1
350
53
  3
B2
350
54
  3
B3
350
55
  3
B4
350
56
  3
B5
350
57
  3
B6
350
58
  3
B7
350
59
  3
B8
350
5A
  3
B9
350
5B
  3
C0
350
5C
  3
C1
350
5D
  3
C2
350
5E
  3
C3
350
5F
  3
C4
350
60
  3
C5
350
61
  3
C6
350
62
  3
C7
350
63
  3
C8
350
64
  3
C9
350
65
  3
D0
350
66
  3
D1
350
67
  3
D2
350
68
  0
XRECORD
  5
C9
102
{ACAD_REACTORS
330
C
102
}
330
C
100
AcDbXrecord
280
     1
  1
DWGPROPS COOKIE
  2

  3

  4

  6

  7

  8
9222
  9

300
=
301
=
302
=
303
=
304
=
305
=
306
=
307
=
308
=
309
=
 40
0.0
 41
2459919.202193646
 42
2459919.202194005
  1

 90
        0
  0
LAYOUT
  5
1E
102
{ACAD_REACTORS
330
1A
102
}
330
1A
100
AcDbPlotSettings
  1

  2
none_device
  4

  6

 40
0.0
 41
0.0
 42
0.0
 43
0.0
 44
0.0
 45
0.0
 46
0.0
 47
0.0
 48
0.0
 49
0.0
140
0.0
141
0.0
142
1.0
143
1.0
 70
   688
 72
     1
 73
     0
 74
     5
  7

 75
    16
147
1.0
148
0.0
149
0.0
100
AcDbLayout
  1
Layout1
 70
     1
 71
     1
 10
0.0
 20
0.0
 11
420.0
 21
297.0
 12
0.0
 22
0.0
 32
0.0
 14
1.0000000000E+20
 24
1.0000000000E+20
 34
1.0000000000E+20
 15
-1.0000000000E+20
 25
-1.0000000000E+20
 35
-1.0000000000E+20
146
0.0
 13
0.0
 23
0.0
 33
0.0
 16
1.0
 26
0.0
 36
0.0
 17
0.0
 27
1.0
 37
0.0
 76
     0
330
1B
  0
LAYOUT
  5
26
102
{ACAD_REACTORS
330
1A
102
}
330
1A
100
AcDbPlotSettings
  1

  2
none_device
  4

  6

 40
0.0
 41
0.0
 42
0.0
 43
0.0
 44
0.0
 45
0.0
 46
0.0
 47
0.0
 48
0.0
 49
0.0
140
0.0
141
0.0
142
1.0
143
1.0
 70
   688
 72
     1
 73
     0
 74
     5
  7

 75
    16
147
1.0
148
0.0
149
0.0
100
AcDbLayout
  1
Layout2
 70
     1
 71
     2
 10
0.0
 20
0.0
 11
0.0
 21
0.0
 12
0.0
 22
0.0
 32
0.0
 14
0.0
 24
0.0
 34
0.0
 15
0.0
 25
0.0
 35
0.0
146
0.0
 13
0.0
 23
0.0
 33
0.0
 16
1.0
 26
0.0
 36
0.0
 17
0.0
 27
1.0
 37
0.0
 76
     0
330
23
  0
LAYOUT
  5
22
102
{ACAD_REACTORS
330
1A
102
}
330
1A
100
AcDbPlotSettings
  1

  2
none_device
  4
Letter_(8.50_x_11.00_Inches)
  6

 40
6.35
 41
6.35
 42
6.35000508
 43
6.35000508
 44
215.9
 45
279.4
 46
0.0
 47
0.0
 48
0.0
 49
0.0
140
0.0
141
0.0
142
1.0
143
1.0
 70
  1712
 72
     1
 73
     0
 74
     0
  7

 75
     0
147
1.0
148
0.0
149
0.0
100
AcDbLayout
  1
Model
 70
     1
 71
     0
 10
0.0
 20
0.0
 11
2520.0
 21
3564.0
 12
0.0
 22
0.0
 32
0.0
 14
0.0
 24
0.0
 34
0.0
 15
2520.0
 25
3564.0
 35
0.0
146
0.0
 13
0.0
 23
0.0
 33
0.0
 16
1.0
 26
0.0
 36
0.0
 17
0.0
 27
1.0
 37
0.0
 76
     0
330
1F
331
29
  0
MLINESTYLE
  5
18
102
{ACAD_REACTORS
330
17
102
}
330
17
100
AcDbMlineStyle
  2
Standard
 70
     0
  3

 62
   256
 51
90.0
 52
90.0
 71
     2
 49
0.5
 62
   256
  6
BYLAYER
 49
-0.5
 62
   256
  6
BYLAYER
  0
ACDBPLACEHOLDER
  5
F
102
{ACAD_REACTORS
330
E
102
}
330
E
  0
SCALE
  5
48
102
{ACAD_REACTORS
330
47
102
}
330
47
100
AcDbScale
 70
     0
300
1:1
140
1.0
141
1.0
290
     1
  0
SCALE
  5
49
102
{ACAD_REACTORS
330
47
102
}
330
47
100
AcDbScale
 70
     0
300
1:2
140
1.0
141
2.0
290
     0
  0
SCALE
  5
4A
102
{ACAD_REACTORS
330
47
102
}
330
47
100
AcDbScale
 70
     0
300
1:4
140
1.0
141
4.0
290
     0
  0
SCALE
  5
4B
102
{ACAD_REACTORS
330
47
102
}
330
47
100
AcDbScale
 70
     0
300
1:5
140
1.0
141
5.0
290
     0
  0
SCALE
  5
4C
102
{ACAD_REACTORS
330
47
102
}
330
47
100
AcDbScale
 70
     0
300
1:8
140
1.0
141
8.0
290
     0
  0
SCALE
  5
4D
102
{ACAD_REACTORS
330
47
102
}
330
47
100
AcDbScale
 70
     0
300
1:10
140
1.0
141
10.0
290
     0
  0
SCALE
  5
4E
102
{ACAD_REACTORS
330
47
102
}
330
47
100
AcDbScale
 70
     0
300
1:16
140
1.0
141
16.0
290
     0
  0
SCALE
  5
4F
102
{ACAD_REACTORS
330
47
102
}
330
47
100
AcDbScale
 70
     0
300
1:20
140
1.0
141
20.0
290
     0
  0
SCALE
  5
50
102
{ACAD_REACTORS
330
47
102
}
330
47
100
AcDbScale
 70
     0
300
1:30
140
1.0
141
30.0
290
     0
  0
SCALE
  5
51
102
{ACAD_REACTORS
330
47
102
}
330
47
100
AcDbScale
 70
     0
300
1:40
140
1.0
141
40.0
290
     0
  0
SCALE
  5
52
102
{ACAD_REACTORS
330
47
102
}
330
47
100
AcDbScale
 70
     0
300
1:50
140
1.0
141
50.0
290
     0
  0
SCALE
  5
53
102
{ACAD_REACTORS
330
47
102
}
330
47
100
AcDbScale
 70
     0
300
1:100
140
1.0
141
100.0
290
     0
  0
SCALE
  5
54
102
{ACAD_REACTORS
330
47
102
}
330
47
100
AcDbScale
 70
     0
300
2:1
140
2.0
141
1.0
290
     0
  0
SCALE
  5
55
102
{ACAD_REACTORS
330
47
102
}
330
47
100
AcDbScale
 70
     0
300
4:1
140
4.0
141
1.0
290
     0
  0
SCALE
  5
56
102
{ACAD_REACTORS
330
47
102
}
330
47
100
AcDbScale
 70
     0
300
8:1
140
8.0
141
1.0
290
     0
  0
SCALE
  5
57
102
{ACAD_REACTORS
330
47
102
}
330
47
100
AcDbScale
 70
     0
300
10:1
140
10.0
141
1.0
290
     0
  0
SCALE
  5
58
102
{ACAD_REACTORS
330
47
102
}
330
47
100
AcDbScale
 70
     0
300
100:1
140
100.0
141
1.0
290
     0
  0
SCALE
  5
59
102
{ACAD_REACTORS
330
47
102
}
330
47
100
AcDbScale
 70
     0
300
1/128" = 1'-0"
140
0.0078125
141
12.0
290
     0
  0
SCALE
  5
5A
102
{ACAD_REACTORS
330
47
102
}
330
47
100
AcDbScale
 70
     0
300
1/64" = 1'-0"
140
0.015625
141
12.0
290
     0
  0
SCALE
  5
5B
102
{ACAD_REACTORS
330
47
102
}
330
47
100
AcDbScale
 70
     0
300
1/32" = 1'-0"
140
0.03125
141
12.0
290
     0
  0
SCALE
  5
5C
102
{ACAD_REACTORS
330
47
102
}
330
47
100
AcDbScale
 70
     0
300
1/16" = 1'-0"
140
0.0625
141
12.0
290
     0
  0
SCALE
  5
5D
102
{ACAD_REACTORS
330
47
102
}
330
47
100
AcDbScale
 70
     0
300
3/32" = 1'-0"
140
0.09375
141
12.0
290
     0
  0
SCALE
  5
5E
102
{ACAD_REACTORS
330
47
102
}
330
47
100
AcDbScale
 70
     0
300
1/8" = 1'-0"
140
0.125
141
12.0
290
     0
  0
SCALE
  5
5F
102
{ACAD_REACTORS
330
47
102
}
330
47
100
AcDbScale
 70
     0
300
3/16" = 1'-0"
140
0.1875
141
12.0
290
     0
  0
SCALE
  5
60
102
{ACAD_REACTORS
330
47
102
}
330
47
100
AcDbScale
 70
     0
300
1/4" = 1'-0"
140
0.25
141
12.0
290
     0
  0
SCALE
  5
61
102
{ACAD_REACTORS
330
47
102
}
330
47
100
AcDbScale
 70
     0
300
3/8" = 1'-0"
140
0.375
141
12.0
290
     0
  0
SCALE
  5
62
102
{ACAD_REACTORS
330
47
102
}
330
47
100
AcDbScale
 70
     0
300
1/2" = 1'-0"
140
0.5
141
12.0
290
     0
  0
SCALE
  5
63
102
{ACAD_REACTORS
330
47
102
}
330
47
100
AcDbScale
 70
     0
300
3/4" = 1'-0"
140
0.75
141
12.0
290
     0
  0
SCALE
  5
64
102
{ACAD_REACTORS
330
47
102
}
330
47
100
AcDbScale
 70
     0
300
1" = 1'-0"
140
1.0
141
12.0
290
     0
  0
SCALE
  5
65
102
{ACAD_REACTORS
330
47
102
}
330
47
100
AcDbScale
 70
     0
300
1-1/2" = 1'-0"
140
1.5
141
12.0
290
     0
  0
SCALE
  5
66
102
{ACAD_REACTORS
330
47
102
}
330
47
100
AcDbScale
 70
     0
300
3" = 1'-0"
140
3.0
141
12.0
290
     0
  0
SCALE
  5
67
102
{ACAD_REACTORS
330
47
102
}
330
47
100
AcDbScale
 70
     0
300
6" = 1'-0"
140
6.0
141
12.0
290
     0
  0
SCALE
  5
68
102
{ACAD_REACTORS
330
47
102
}
330
47
100
AcDbScale
 70
     0
300
1'-0" = 1'-0"
140
12.0
141
12.0
290
     0
  0
ENDSEC
  0
EOF
