  0
SECTION
  2
HEADER
  9
$ACADVER
  1
AC1015
  9
$ACADMAINTVER
 70
     6
  9
$DWGCODEPAGE
  3
DOS932
  9
$INSBASE
 10
0.0
 20
0.0
 30
0.0
  9
$EXTMIN
 10
0.0
 20
0.0
 30
0.0
  9
$EXTMAX
 10
210.0
 20
297.0
 30
0.0
  9
$LIMMIN
 10
0.0
 20
0.0
  9
$LIMMAX
 10
210.0
 20
297.0
  9
$ORTHOMODE
 70
     0
  9
$REGENMODE
 70
     1
  9
$FILLMODE
 70
     1
  9
$QTEXTMODE
 70
     0
  9
$MIRRTEXT
 70
     1
  9
$LTSCALE
 40
1.0
  9
$ATTMODE
 70
     1
  9
$TEXTSIZE
 40
3.5277777778
  9
$TRACEWID
 40
1.0
  9
$TEXTSTYLE
  7
Standard
  9
$CLAYER
  8
0
  9
$CELTYPE
  6
ByLayer
  9
$CECOLOR
 62
   256
  9
$CELTSCALE
 40
1.0
  9
$DISPSILH
 70
     0
  9
$DIMSCALE
 40
1.0
  9
$DIMASZ
 40
1.5
  9
$DIMEXO
 40
1.0
  9
$DIMDLI
 40
3.75
  9
$DIMRND
 40
0.0
  9
$DIMDLE
 40
0.0
  9
$DIMEXE
 40
1.0
  9
$DIMTP
 40
0.0
  9
$DIMTM
 40
0.0
  9
$DIMTXT
 40
3.5277777778
  9
$DIMCEN
 40
2.5
  9
$DIMTSZ
 40
0.0
  9
$DIMTOL
 70
     0
  9
$DIMLIM
 70
     0
  9
$DIMTIH
 70
     1
  9
$DIMTOH
 70
     1
  9
$DIMSE1
 70
     0
  9
$DIMSE2
 70
     0
  9
$DIMTAD
 70
     1
  9
$DIMZIN
 70
     0
  9
$DIMBLK
  1

  9
$DIMASO
 70
     1
  9
$DIMSHO
 70
     1
  9
$DIMPOST
  1

  9
$DIMAPOST
  1

  9
$DIMALT
 70
     0
  9
$DIMALTD
 70
     3
  9
$DIMALTF
 40
0.0393700787
  9
$DIMLFAC
 40
1.0
  9
$DIMTOFL
 70
     1
  9
$DIMTVP
 40
0.0
  9
$DIMTIX
 70
     0
  9
$DIMSOXD
 70
     0
  9
$DIMSAH
 70
     0
  9
$DIMBLK1
  1

  9
$DIMBLK2
  1

  9
$DIMSTYLE
  2
ISO-25
  9
$DIMCLRD
 70
     0
  9
$DIMCLRE
 70
     0
  9
$DIMCLRT
 70
     0
  9
$DIMTFAC
 40
1.0
  9
$DIMGAP
 40
1.5
  9
$DIMJUST
 70
     0
  9
$DIMSD1
 70
     0
  9
$DIMSD2
 70
     0
  9
$DIMTOLJ
 70
     0
  9
$DIMTZIN
 70
     0
  9
$DIMALTZ
 70
     0
  9
$DIMALTTZ
 70
     0
  9
$DIMUPT
 70
     0
  9
$DIMDEC
 70
     1
  9
$DIMTDEC
 70
     1
  9
$DIMALTU
 70
     2
  9
$DIMALTTD
 70
     3
  9
$DIMTXSTY
  7
Standard
  9
$DIMAUNIT
 70
     0
  9
$DIMADEC
 70
     2
  9
$DIMALTRND
 40
0.0
  9
$DIMAZIN
 70
     0
  9
$DIMDSEP
 70
    44
  9
$DIMATFIT
 70
     3
  9
$DIMFRAC
 70
     0
  9
$DIMLDRBLK
  1

  9
$DIMLUNIT
 70
     2
  9
$DIMLWD
 70
    -2
  9
$DIMLWE
 70
    -2
  9
$DIMTMOVE
 70
     0
  9
$LUNITS
 70
     2
  9
$LUPREC
 70
     2
  9
$SKETCHINC
 40
1.0
  9
$FILLETRAD
 40
0.0
  9
$AUNITS
 70
     0
  9
$AUPREC
 70
     2
  9
$MENU
  1
.
  9
$ELEVATION
 40
0.0
  9
$PELEVATION
 40
0.0
  9
$THICKNESS
 40
0.0
  9
$LIMCHECK
 70
     0
  9
$CHAMFERA
 40
0.0
  9
$CHAMFERB
 40
0.0
  9
$CHAMFERC
 40
0.0
  9
$CHAMFERD
 40
0.0
  9
$SKPOLY
 70
     0
  9
$TDCREATE
 40
2460334.716073229
  9
$TDUCREATE
 40
2460334.341073229
  9
$TDUPDATE
 40
2460334.716073391
  9
$TDUUPDATE
 40
2460334.341073391
  9
$TDINDWG
 40
0.0000000116
  9
$TDUSRTIMER
 40
0.0000000116
  9
$USRTIMER
 70
     1
  9
$ANGBASE
 50
0.0
  9
$ANGDIR
 70
     0
  9
$PDMODE
 70
     0
  9
$PDSIZE
 40
-1.0
  9
$PLINEWID
 40
0.0
  9
$SPLFRAME
 70
     0
  9
$SPLINETYPE
 70
     6
  9
$SPLINESEGS
 70
     8
  9
$HANDSEED
  5
7D
  9
$SURFTAB1
 70
     6
  9
$SURFTAB2
 70
     6
  9
$SURFTYPE
 70
     6
  9
$SURFU
 70
     6
  9
$SURFV
 70
     6
  9
$UCSBASE
  2

  9
$UCSNAME
  2

  9
$UCSORG
 10
0.0
 20
0.0
 30
0.0
  9
$UCSXDIR
 10
1.0
 20
0.0
 30
0.0
  9
$UCSYDIR
 10
0.0
 20
1.0
 30
0.0
  9
$UCSORTHOREF
  2

  9
$UCSORTHOVIEW
 70
     0
  9
$UCSORGTOP
 10
0.0
 20
0.0
 30
0.0
  9
$UCSORGBOTTOM
 10
0.0
 20
0.0
 30
0.0
  9
$UCSORGLEFT
 10
0.0
 20
0.0
 30
0.0
  9
$UCSORGRIGHT
 10
0.0
 20
0.0
 30
0.0
  9
$UCSORGFRONT
 10
0.0
 20
0.0
 30
0.0
  9
$UCSORGBACK
 10
0.0
 20
0.0
 30
0.0
  9
$PUCSBASE
  2

  9
$PUCSNAME
  2

  9
$PUCSORG
 10
0.0
 20
0.0
 30
0.0
  9
$PUCSXDIR
 10
1.0
 20
0.0
 30
0.0
  9
$PUCSYDIR
 10
0.0
 20
1.0
 30
0.0
  9
$PUCSORTHOREF
  2

  9
$PUCSORTHOVIEW
 70
     0
  9
$PUCSORGTOP
 10
0.0
 20
0.0
 30
0.0
  9
$PUCSORGBOTTOM
 10
0.0
 20
0.0
 30
0.0
  9
$PUCSORGLEFT
 10
0.0
 20
0.0
 30
0.0
  9
$PUCSORGRIGHT
 10
0.0
 20
0.0
 30
0.0
  9
$PUCSORGFRONT
 10
0.0
 20
0.0
 30
0.0
  9
$PUCSORGBACK
 10
0.0
 20
0.0
 30
0.0
  9
$USERI1
 70
     0
  9
$USERI2
 70
     0
  9
$USERI3
 70
     0
  9
$USERI4
 70
     0
  9
$USERI5
 70
     0
  9
$USERR1
 40
0.0
  9
$USERR2
 40
0.0
  9
$USERR3
 40
0.0
  9
$USERR4
 40
0.0
  9
$USERR5
 40
0.0
  9
$WORLDVIEW
 70
     1
  9
$SHADEDGE
 70
     3
  9
$SHADEDIF
 70
    70
  9
$TILEMODE
 70
     1
  9
$MAXACTVP
 70
    64
  9
$PINSBASE
 10
0.0
 20
0.0
 30
0.0
  9
$PLIMCHECK
 70
     0
  9
$PEXTMIN
 10
1.0000000000E+20
 20
1.0000000000E+20
 30
1.0000000000E+20
  9
$PEXTMAX
 10
-1.0000000000E+20
 20
-1.0000000000E+20
 30
-1.0000000000E+20
  9
$PLIMMIN
 10
0.0
 20
0.0
  9
$PLIMMAX
 10
420.0
 20
297.0
  9
$UNITMODE
 70
     0
  9
$VISRETAIN
 70
     1
  9
$PLINEGEN
 70
     0
  9
$PSLTSCALE
 70
     1
  9
$TREEDEPTH
 70
  3020
  9
$CMLSTYLE
  2
Standard
  9
$CMLJUST
 70
     0
  9
$CMLSCALE
 40
20.0
  9
$PROXYGRAPHICS
 70
     1
  9
$MEASUREMENT
 70
     1
  9
$CELWEIGHT
370
    -1
  9
$ENDCAPS
280
     0
  9
$JOINSTYLE
280
     0
  9
$LWDISPLAY
290
     1
  9
$INSUNITS
 70
     4
  9
$HYPERLINKBASE
  1

  9
$STYLESHEET
  1

  9
$XEDIT
290
     1
  9
$CEPSNTYPE
380
     0
  9
$PSTYLEMODE
290
     1
  9
$FINGERPRINTGUID
  2
{9930e841-b448-4a61-b018-de7ed588ca15}
  9
$VERSIONGUID
  2
{FAEB1C32-E019-11D5-929B-00C0DF256EC4}
  9
$EXTNAMES
290
     1
  9
$PSVPSCALE
 40
0.0
  9
$OLESTARTUP
290
     0
  0
ENDSEC
  0
SECTION
  2
CLASSES
  0
CLASS
  1
ACDBDICTIONARYWDFLT
  2
AcDbDictionaryWithDefault
  3
ObjectDBX Classes
 90
        0
280
     0
281
     0
  0
CLASS
  1
VISUALSTYLE
  2
AcDbVisualStyle
  3
ObjectDBX Classes
 90
     4095
280
     0
281
     0
  0
CLASS
  1
MATERIAL
  2
AcDbMaterial
  3
ObjectDBX Classes
 90
     1153
280
     0
281
     0
  0
CLASS
  1
SCALE
  2
AcDbScale
  3
ObjectDBX Classes
 90
     1153
280
     0
281
     0
  0
CLASS
  1
TABLESTYLE
  2
AcDbTableStyle
  3
ObjectDBX Classes
 90
     4095
280
     0
281
     0
  0
CLASS
  1
MLEADERSTYLE
  2
AcDbMLeaderStyle
  3
ACDB_MLEADERSTYLE_CLASS
 90
     4095
280
     0
281
     0
  0
CLASS
  1
SUN
  2
AcDbSun
  3
SCENEOE
 90
     1153
280
     0
281
     0
  0
CLASS
  1
ACDBPLACEHOLDER
  2
AcDbPlaceHolder
  3
ObjectDBX Classes
 90
        0
280
     0
281
     0
  0
CLASS
  1
LAYOUT
  2
AcDbLayout
  3
ObjectDBX Classes
 90
        0
280
     0
281
     0
  0
ENDSEC
  0
SECTION
  2
TABLES
  0
TABLE
  2
VPORT
  5
8
330
0
100
AcDbSymbolTable
 70
     1
  0
VPORT
  5
29
330
8
100
AcDbSymbolTableRecord
100
AcDbViewportTableRecord
  2
*Active
 70
     0
 10
0.0
 20
0.0
 11
1.0
 21
1.0
 12
105.0
 22
148.5
 13
0.0
 23
0.0
 14
10.0
 24
10.0
 15
10.0
 25
10.0
 16
0.0
 26
0.0
 36
1.0
 17
0.0
 27
0.0
 37
0.0
 40
297.0
 41
0.7070707071
 42
50.0
 43
0.0
 44
0.0
 50
0.0
 51
0.0
 71
     0
 72
  2000
 73
     1
 74
     3
 75
     0
 76
     0
 77
     0
 78
     0
281
     0
 65
     1
110
0.0
120
0.0
130
0.0
111
1.0
121
0.0
131
0.0
112
0.0
122
1.0
132
0.0
 79
     0
146
0.0
  0
ENDTAB
  0
TABLE
  2
LTYPE
  5
5
330
0
100
AcDbSymbolTable
 70
     6
  0
LTYPE
  5
14
330
5
100
AcDbSymbolTableRecord
100
AcDbLinetypeTableRecord
  2
ByBlock
 70
     0
  3

 72
    65
 73
     0
 40
0.0
  0
LTYPE
  5
15
330
5
100
AcDbSymbolTableRecord
100
AcDbLinetypeTableRecord
  2
ByLayer
 70
     0
  3

 72
    65
 73
     0
 40
0.0
  0
LTYPE
  5
16
330
5
100
AcDbSymbolTableRecord
100
AcDbLinetypeTableRecord
  2
Continuous
 70
     0
  3
Solid line
 72
    65
 73
     0
 40
0.0
  0
LTYPE
  5
5E
330
5
100
AcDbSymbolTableRecord
100
AcDbLinetypeTableRecord
  2
HIDDEN
 70
     0
  3
Hidden __ __ __ __ __ __ __ __ __ __ __ __ __ __
 72
    65
 73
     2
 40
1.905
 49
1.27
 74
     0
 49
-0.635
 74
     0
  0
LTYPE
  5
5F
330
5
100
AcDbSymbolTableRecord
100
AcDbLinetypeTableRecord
  2
PHANTOM
 70
     0
  3
Phantom ______  __  __  ______  __  __  ______
 72
    65
 73
     6
 40
12.7
 49
6.35
 74
     0
 49
-1.27
 74
     0
 49
1.27
 74
     0
 49
-1.27
 74
     0
 49
1.27
 74
     0
 49
-1.27
 74
     0
  0
LTYPE
  5
60
330
5
100
AcDbSymbolTableRecord
100
AcDbLinetypeTableRecord
  2
CENTER
 70
     0
  3
Center ____ _ ____ _ ____ _ ____ _ ____ _ ____
 72
    65
 73
     4
 40
10.16
 49
6.35
 74
     0
 49
-1.27
 74
     0
 49
1.27
 74
     0
 49
-1.27
 74
     0
  0
LTYPE
  5
61
330
5
100
AcDbSymbolTableRecord
100
AcDbLinetypeTableRecord
  2
CENTERX2
 70
     0
  3
Center (2x) ________  __  ________  __  _____
 72
    65
 73
     4
 40
20.32
 49
12.7
 74
     0
 49
-2.54
 74
     0
 49
2.54
 74
     0
 49
-2.54
 74
     0
  0
LTYPE
  5
62
330
5
100
AcDbSymbolTableRecord
100
AcDbLinetypeTableRecord
  2
DOT2
 70
     0
  3
Dot (.5x) ........................................
 72
    65
 73
     2
 40
0.635
 49
0.0
 74
     0
 49
-0.635
 74
     0
  0
ENDTAB
  0
TABLE
  2
LAYER
  5
2
330
0
100
AcDbSymbolTable
 70
     2
  0
LAYER
  5
10
330
2
100
AcDbSymbolTableRecord
100
AcDbLayerTableRecord
  2
0
 70
     0
 62
     7
  6
Continuous
370
    -3
390
F
  0
LAYER
  5
63
330
2
100
AcDbSymbolTableRecord
100
AcDbLayerTableRecord
  2
FORMAT
 70
     0
 62
     7
  6
Continuous
370
    -3
390
F
  0
ENDTAB
  0
TABLE
  2
STYLE
  5
3
330
0
100
AcDbSymbolTable
 70
     2
  0
STYLE
  5
11
330
3
100
AcDbSymbolTableRecord
100
AcDbTextStyleTableRecord
  2
Standard
 70
     0
 40
0.0
 41
1.0
 50
0.0
 71
     0
 42
3.5277777778
  3
txt
  4
bigfont
  0
STYLE
  5
64
330
3
100
AcDbSymbolTableRecord
100
AcDbTextStyleTableRecord
  2
SLDTEXTSTYLE0
 70
     0
 40
0.0
 41
0.7
 50
0.0
 71
     0
 42
3.5277777778
  3
TXT
  4
bigfont
  0
ENDTAB
  0
TABLE
  2
VIEW
  5
6
330
0
100
AcDbSymbolTable
 70
     0
  0
ENDTAB
  0
TABLE
  2
UCS
  5
7
330
0
100
AcDbSymbolTable
 70
     0
  0
ENDTAB
  0
TABLE
  2
APPID
  5
9
330
0
100
AcDbSymbolTable
 70
     1
  0
APPID
  5
12
330
9
100
AcDbSymbolTableRecord
100
AcDbRegAppTableRecord
  2
ACAD
 70
     0
  0
ENDTAB
  0
TABLE
  2
DIMSTYLE
  5
A
330
0
100
AcDbSymbolTable
 70
     1
100
AcDbDimStyleTable
  0
DIMSTYLE
105
27
330
A
100
AcDbSymbolTableRecord
100
AcDbDimStyleTableRecord
  2
ISO-25
 70
     0
 41
2.5
 42
0.625
 43
3.75
 44
1.25
 73
     0
 74
     0
 77
     1
 78
     8
140
2.5
141
2.5
143
0.0393700787
147
0.625
171
     3
172
     1
178
     0
271
     2
272
     2
274
     3
278
    44
283
     0
284
     8
340
11
  0
ENDTAB
  0
TABLE
  2
BLOCK_RECORD
  5
1
330
0
100
AcDbSymbolTable
 70
     1
  0
BLOCK_RECORD
  5
1F
330
1
100
AcDbSymbolTableRecord
100
AcDbBlockTableRecord
  2
*Model_Space
340
22
  0
BLOCK_RECORD
  5
1B
330
1
100
AcDbSymbolTableRecord
100
AcDbBlockTableRecord
  2
*Paper_Space
340
1E
  0
BLOCK_RECORD
  5
23
330
1
100
AcDbSymbolTableRecord
100
AcDbBlockTableRecord
  2
*Paper_Space0
340
26
  0
ENDTAB
  0
ENDSEC
  0
SECTION
  2
BLOCKS
  0
BLOCK
  5
20
330
1F
100
AcDbEntity
  8
0
100
AcDbBlockBegin
  2
*Model_Space
 70
     0
 10
0.0
 20
0.0
 30
0.0
  3
*Model_Space
  1

  0
ENDBLK
  5
21
330
1F
100
AcDbEntity
  8
0
100
AcDbBlockEnd
  0
BLOCK
  5
1C
330
1B
100
AcDbEntity
 67
     1
  8
0
100
AcDbBlockBegin
  2
*Paper_Space
 70
     0
 10
0.0
 20
0.0
 30
0.0
  3
*Paper_Space
  1

  0
ENDBLK
  5
1D
330
1B
100
AcDbEntity
 67
     1
  8
0
100
AcDbBlockEnd
  0
BLOCK
  5
24
330
23
100
AcDbEntity
  8
0
100
AcDbBlockBegin
  2
*Paper_Space0
 70
     0
 10
0.0
 20
0.0
 30
0.0
  3
*Paper_Space0
  1

  0
ENDBLK
  5
25
330
23
100
AcDbEntity
  8
0
100
AcDbBlockEnd
  0
ENDSEC
  0
SECTION
  2
ENTITIES
  0
MTEXT
  5
65
330
1F
100
AcDbEntity
  8
0
  6
Continuous
 62
     7
370
     0
100
AcDbMText
 10
145.8770968431
 20
112.389918394
 30
0.0
 40
2.6458333333
 41
0.0
 71
     1
 72
     1
  1
HOA-D58BK/H/G
  7
SLDTEXTSTYLE0
 73
     1
 44
1.0
  0
SPLINE
  5
66
330
1F
100
AcDbEntity
  8
0
  6
Continuous
 62
     7
370
    25
100
AcDbSpline
210
0.0
220
0.0
230
1.0
 70
     8
 71
     3
 72
    46
 73
    42
 74
     0
 42
0.00000001
 43
0.00000001
 40
0.0
 40
0.0
 40
0.0
 40
0.0
 40
0.0060899875784413
 40
0.0302869275471498
 40
0.054060368181135
 40
0.0778177213820483
 40
0.101955059783233
 40
0.1268327381506072
 40
0.1526013224132502
 40
0.1791684169753392
 40
0.2062729154772051
 40
0.2336326094072817
 40
0.2610373718584395
 40
0.2883755223690216
 40
0.3156215104662998
 40
0.3427748811294892
 40
0.3698449275682608
 40
0.3968435386295839
 40
0.4237822463682258
 40
0.4506712006624972
 40
0.477518963783749
 40
0.5043326222616109
 40
0.5311179981595974
 40
0.5578798704658129
 40
0.5846221737982545
 40
0.6113481656308688
 40
0.6380605628303947
 40
0.6647616515982957
 40
0.6914533755836835
 40
0.7181374065886673
 40
0.7448152016288688
 40
0.7714880494281204
 40
0.7981571088256899
 40
0.8248234410852253
 40
0.8514880377152774
 40
0.8781518451286009
 40
0.9048157542264882
 40
0.9314804136000685
 40
0.9581467589113134
 40
0.9848157612526629
 40
0.9999999999999999
 40
0.9999999999999999
 40
0.9999999999999999
 40
0.9999999999999999
 10
152.8161838260906
 20
179.8090497816922
 30
0.0
 10
152.8329425057624
 20
179.8693340916689
 30
0.0
 10
152.9162873255129
 20
180.1691420149162
 30
0.0
 10
152.9406733095267
 20
180.7215123826706
 30
0.0
 10
152.8841737813912
 20
181.4483426800703
 30
0.0
 10
152.696364986945
 20
182.1615574959221
 30
0.0
 10
152.3927801964166
 20
182.860780320889
 30
0.0
 10
151.9685754505775
 20
183.5499755410549
 30
0.0
 10
151.4204825348869
 20
184.2312507631476
 30
0.0
 10
150.7451929320804
 20
184.9036094566802
 30
0.0
 10
149.9435013123858
 20
185.5635012993822
 30
0.0
 10
149.0199086234287
 20
186.206749880552
 30
0.0
 10
147.9807189887784
 20
186.8301493347251
 30
0.0
 10
146.8318237512829
 20
187.4320236712165
 30
0.0
 10
145.5778665166561
 20
188.0117719782143
 30
0.0
 10
144.2224362543592
 20
188.5692405846563
 30
0.0
 10
142.7688696950154
 20
189.1042159359216
 30
0.0
 10
141.220509582429
 20
189.6163429035867
 30
0.0
 10
139.5808474036834
 20
190.1051251046875
 30
0.0
 10
137.8535920168722
 20
190.5699542132116
 30
0.0
 10
136.042696652838
 20
191.0101447301015
 30
0.0
 10
134.1523637607716
 20
191.4249656143153
 30
0.0
 10
132.1870384025295
 20
191.8136665237948
 30
0.0
 10
130.1513958550371
 20
192.1754987797547
 30
0.0
 10
128.0503263609606
 20
192.5097318777191
 30
0.0
 10
125.8889185325646
 20
192.8156664531476
 30
0.0
 10
123.6724421648255
 20
193.0926444892065
 30
0.0
 10
121.4063308244428
 20
193.3400573927235
 30
0.0
 10
119.0961643862197
 20
193.5573524118913
 30
0.0
 10
116.7476515745079
 20
193.744037761429
 30
0.0
 10
114.3666125725472
 20
193.8996866791846
 30
0.0
 10
111.9589615448845
 20
194.0239407497787
 30
0.0
 10
109.5306896454549
 20
194.1165121014127
 30
0.0
 10
107.0878463425017
 20
194.177186570514
 30
0.0
 10
104.6365271203672
 20
194.2058204688768
 30
0.0
 10
102.1828384723388
 20
194.2023587585535
 30
0.0
 10
99.73295786015035
 20
194.1667712692919
 30
0.0
 10
97.29284736856451
 20
194.0992935361124
 30
0.0
 10
94.86920848127511
 20
193.9995289911278
 30
0.0
 10
92.81093020918627
 20
193.8884252862963
 30
0.0
 10
91.56805596496088
 20
193.8052049277568
 30
0.0
 10
91.11714466714179
 20
193.7750128145576
 30
0.0
  0
SPLINE
  5
67
330
1F
100
AcDbEntity
  8
0
  6
Continuous
 62
     7
370
    25
100
AcDbSpline
210
0.0
220
0.0
230
1.0
 70
     8
 71
     3
 72
    35
 73
    31
 74
     0
 42
0.00000001
 43
0.00000001
 40
0.0
 40
0.0
 40
0.0
 40
0.0
 40
0.0195055741178386
 40
0.0565852513040664
 40
0.0936746336865582
 40
0.1307745090779882
 40
0.1678870866358352
 40
0.205014918597387
 40
0.2421609886286913
 40
0.2793288217240872
 40
0.3165226213015448
 40
0.353747440148433
 40
0.3910093921363121
 40
0.4283159100104745
 40
0.4656760482509276
 40
0.5031008127160336
 40
0.540603456651355
 40
0.5781995852724175
 40
0.6159066927235294
 40
0.6537422781387764
 40
0.6917186883085666
 40
0.7298309286710215
 40
0.7680308860566537
 40
0.8061067994694685
 40
0.8437149176306076
 40
0.8803917382377264
 40
0.9157740687779783
 40
0.9498699107326974
 40
0.9830984977066516
 40
1.0
 40
1.0
 40
1.0
 40
1.0
 10
91.11714466714179
 20
193.7750128145576
 30
0.0
 10
90.70224783009057
 20
193.7453133752881
 30
0.0
 10
89.49864102272495
 20
193.6591559402647
 30
0.0
 10
87.5321643976993
 20
193.4929138195886
 30
0.0
 10
85.23565579433776
 20
193.2666478516337
 30
0.0
 10
82.98549141361048
 20
193.0100508475921
 30
0.0
 10
80.78673608089603
 20
192.7242451208748
 30
0.0
 10
78.64493043404511
 20
192.4097266183404
 30
0.0
 10
76.56527514593154
 20
192.0672248097668
 30
0.0
 10
74.55283393322192
 20
191.6974636077426
 30
0.0
 10
72.6124569416746
 20
191.3012138233284
 30
0.0
 10
70.74877901617751
 20
190.8792641883585
 30
0.0
 10
68.96619798498399
 20
190.4324098079042
 30
0.0
 10
67.2688588579407
 20
189.961429939118
 30
0.0
 10
65.6606380106698
 20
189.4670604304943
 30
0.0
 10
64.14513106766518
 20
188.9499564264038
 30
0.0
 10
62.72564773240435
 20
188.4106427631614
 30
0.0
 10
61.40522108711719
 20
187.8494486742713
 30
0.0
 10
60.18664521064099
 20
187.2664252001474
 30
0.0
 10
59.07256778859848
 20
186.6612506847279
 30
0.0
 10
58.06567994945742
 20
186.0331499102556
 30
0.0
 10
57.16907687752538
 20
185.3809043352811
 30
0.0
 10
56.3873074239841
 20
184.70356230232
 30
0.0
 10
55.72659426347183
 20
184.0012735833476
 30
0.0
 10
55.19415848461568
 20
183.2767142057852
 30
0.0
 10
54.79721187411307
 20
182.5359387395718
 30
0.0
 10
54.53657377741553
 20
181.7878053080252
 30
0.0
 10
54.41871980408887
 20
181.0433487141401
 30
0.0
 10
54.40964541125261
 20
180.4246901603518
 30
0.0
 10
54.48432878329705
 20
180.0636657427273
 30
0.0
 10
54.5095084947704
 20
179.9419453326579
 30
0.0
  0
LINE
  5
68
330
1F
100
AcDbEntity
  8
0
  6
Continuous
 62
     7
370
    25
100
AcDbLine
 10
61.1589632012
 20
143.4730068612
 30
0.0
 11
62.0309091575
 21
138.7017883507
 31
0.0
  0
LINE
  5
69
330
1F
100
AcDbEntity
  8
0
  6
Continuous
 62
     7
370
    25
100
AcDbLine
 10
54.4936944468
 20
179.9448242145
 30
0.0
 11
58.9486329678
 21
155.5677570555
 31
0.0
  0
LINE
  5
6A
330
1F
100
AcDbEntity
  8
0
  6
Continuous
 62
     7
370
    25
100
AcDbLine
 10
145.3183658425
 20
138.7017883507
 30
0.0
 11
152.8555805532
 21
179.9448242145
 31
0.0
  0
LINE
  5
6B
330
1F
100
AcDbEntity
  8
0
  6
Continuous
 62
     7
370
    25
100
AcDbLine
 10
64.9833237738
 20
150.282536667
 30
0.0
 11
61.8672818656
 21
146.0603381858
 31
0.0
  0
SPLINE
  5
6C
330
1F
100
AcDbEntity
  8
0
  6
Continuous
 62
     7
370
    25
100
AcDbSpline
210
0.0
220
0.0
230
1.0
 70
     8
 71
     3
 72
    21
 73
    17
 74
     0
 42
0.00000001
 43
0.00000001
 40
0.0
 40
0.0
 40
0.0
 40
0.0
 40
0.0617557126699456
 40
0.1481472672665877
 40
0.2307158299158199
 40
0.3104654959644089
 40
0.387904628447645
 40
0.4635853424021541
 40
0.5380770810114645
 40
0.6119584531480174
 40
0.6858134731233879
 40
0.7601457601194824
 40
0.8354249853541581
 40
0.9122394047183476
 40
0.9882801069318549
 40
1.0
 40
1.0
 40
1.0
 40
1.0
 10
133.6523054511404
 20
121.4736286736113
 30
0.0
 10
134.0089242368267
 20
121.7001879223226
 30
0.0
 10
134.8644256353405
 20
122.2436863635104
 30
0.0
 10
136.1464806216462
 20
123.1794954349381
 30
0.0
 10
137.471301047477
 20
124.2786144113703
 30
0.0
 10
138.6832087404874
 20
125.4316014957171
 30
0.0
 10
139.7909165660535
 20
126.6391582084854
 30
0.0
 10
140.7988522659311
 20
127.9026829849507
 30
0.0
 10
141.7112446706444
 20
129.223916066817
 30
0.0
 10
142.5315125525412
 20
130.6055291883839
 30
0.0
 10
143.2619964845518
 20
132.0503426340766
 30
0.0
 10
143.9038863210619
 20
133.5609620704398
 30
0.0
 10
144.4580302333841
 20
135.1403773846365
 30
0.0
 10
144.9181886603186
 20
136.772017241201
 30
0.0
 10
145.1828336281475
 20
137.9711552287718
 30
0.0
 10
145.3023986605453
 20
138.6157117521726
 30
0.0
 10
145.3183658425123
 20
138.7017883507461
 30
0.0
  0
SPLINE
  5
6D
330
1F
100
AcDbEntity
  8
0
  6
Continuous
 62
     7
370
    25
100
AcDbSpline
210
0.0
220
0.0
230
1.0
 70
     8
 71
     3
 72
    20
 73
    16
 74
     0
 42
0.00000001
 43
0.00000001
 40
0.0
 40
0.0
 40
0.0
 40
0.0
 40
0.0484561954257487
 40
0.1287565898088241
 40
0.2069954314053296
 40
0.2837120128479632
 40
0.3595679174006148
 40
0.4352307417332019
 40
0.5113328138120286
 40
0.5883879066707356
 40
0.6671010708007242
 40
0.7482057614192923
 40
0.8324742560289373
 40
0.9207305965901553
 40
1.0
 40
1.0
 40
1.0
 40
1.0
 10
62.03090915748778
 20
138.7017883507461
 30
0.0
 10
62.09960740739474
 20
138.34651952519
 30
0.0
 10
62.28215067778847
 20
137.4025080929661
 30
0.0
 10
62.66085905080745
 20
135.9079912712554
 30
0.0
 10
63.18962516060346
 20
134.2466619320943
 30
0.0
 10
63.81135169956165
 20
132.6641470716375
 30
0.0
 10
64.52446733097021
 20
131.155042042519
 30
0.0
 10
65.33104398562553
 20
129.7144066200125
 30
0.0
 10
66.2331400777025
 20
128.3388030539296
 30
0.0
 10
67.23397766985592
 20
127.0251347505912
 30
0.0
 10
68.33827007429899
 20
125.7705659473866
 30
0.0
 10
69.55285373516843
 20
124.5712384440371
 30
0.0
 10
70.8879499667838
 20
123.4265557912983
 30
0.0
 10
72.27435104643351
 20
122.3839197001664
 30
0.0
 10
73.24003139118564
 20
121.7660097328425
 30
0.0
 10
73.69696954885971
 20
121.4736286736113
 30
0.0
  0
LINE
  5
6E
330
1F
100
AcDbEntity
  8
0
  6
Continuous
 62
     7
370
    25
100
AcDbLine
 10
152.8555805532
 20
179.9448242145
 30
0.0
 11
152.8339370067
 21
179.8362146883
 31
0.0
  0
ELLIPSE
  5
6F
330
1F
100
AcDbEntity
  8
0
  6
Continuous
 62
     7
370
    25
100
AcDbEllipse
 10
105.6417515057
 20
242.5400572781
 30
0.0
 11
10.12437776593289
 21
97.75558629114067
 31
0.0
210
0.0
220
0.0
230
1.0
 40
0.5837024969
 41
3.18199189639429
 42
3.19925853649801
  0
LWPOLYLINE
  5
70
330
1F
100
AcDbEntity
  8
0
  6
Continuous
 62
     7
370
    25
100
AcDbPolyline
 90
       26
 70
   128
 43
0.0
 10
97.830195669
 20
144.6255541049
 10
95.3502578847
 20
144.728444712
 10
92.8965116784
 20
144.8671625573
 10
90.4766774435
 20
145.0412711831
 10
88.0983688737
 20
145.2502227793
 10
85.7690690077
 20
145.4933599069
 10
83.4961066846
 20
145.7699175665
 10
81.2866334847
 20
146.0790256053
 10
79.1476012283
 20
146.4197114553
 10
77.0857401021
 20
146.7909031925
 10
75.107537484
 20
147.1914329105
 10
73.2192175314
 20
147.6200403946
 10
71.4267215975
 20
148.0753770871
 10
69.7356895375
 20
148.5560103304
 10
68.1514419641
 20
149.0604278743
 10
66.6789635061
 20
149.5870426347
 10
65.3228871256
 20
150.1341976867
 10
64.0874795405
 20
150.7001714782
 10
62.9766278003
 20
151.2831832461
 10
61.9938270553
 20
151.8813986198
 10
61.1421695604
 20
152.4929353923
 10
60.4243349452
 20
153.1158694428
 10
59.8425817829
 20
153.7482407902
 10
59.3987404841
 20
154.3880597603
 10
59.0942075379
 20
155.033313246
 10
58.9486329678
 20
155.5677570555
  0
LWPOLYLINE
  5
71
330
1F
100
AcDbEntity
  8
0
  6
Continuous
 62
     7
370
    25
100
AcDbPolyline
 90
       30
 70
   128
 43
0.0
 10
98.1190242064
 20
133.0715605074
 10
95.7044272892
 20
133.1721787617
 10
93.3161454587
 20
133.3085255079
 10
90.9620640583
 20
133.4801505725
 10
88.6499555124
 20
133.6864873046
 10
86.3874536644
 20
133.9268544461
 10
84.1820285723
 20
134.2004583815
 10
82.040961845
 20
134.5063957582
 10
79.9713226004
 20
134.8436564686
 10
77.9799441259
 20
135.2111269857
 10
76.0734013167
 20
135.6075940393
 10
74.2579889678
 20
136.031748622
 10
72.5397009907
 20
136.4821903107
 10
70.9242106229
 20
136.9574318911
 10
69.4168516975
 20
137.4559042673
 10
68.0226010318
 20
137.9759616429
 10
66.7460619959
 20
138.5158869546
 10
65.5914493137
 20
139.0738975416
 10
64.5625751472
 20
139.6481510313
 10
63.6628365102
 20
140.2367514222
 10
62.895204052
 20
140.837755344
 10
62.2622122496
 20
141.4491784737
 10
61.7659510398
 20
142.0690020876
 10
61.4080589184
 20
142.6951797262
 10
61.1897175307
 20
143.3256439512
 10
61.1116477704
 20
143.958313171
 10
61.1741073987
 20
144.5910985143
 10
61.376890194
 20
145.2219107259
 10
61.7193266323
 20
145.8486670657
 10
61.8672818656
 20
146.0603381858
  0
LINE
  5
72
330
1F
100
AcDbEntity
  8
0
  6
Continuous
 62
     7
370
    25
100
AcDbLine
 10
98.8228049578
 20
144.6063670391
 30
0.0
 11
99.1116940419
 21
133.0531323685
 31
0.0
  0
ARC
  5
73
330
1F
100
AcDbEntity
  8
0
  6
Continuous
 62
     7
370
    25
100
AcDbCircle
 10
102.73289319
 20
285.6398035315
 30
0.0
 40
141.1952818166313
100
AcDbArc
 50
261.5825636617
 51
268.0111034403
  0
LWPOLYLINE
  5
74
330
1F
100
AcDbEntity
  8
0
  6
Continuous
 62
     7
370
    25
100
AcDbPolyline
 90
       37
 70
   128
 43
0.0
 10
133.6842711454
 20
121.4934564199
 10
132.8230015998
 20
121.0023399514
 10
131.820463123
 20
120.5168944035
 10
130.6973998998
 20
120.0494587775
 10
129.4586210595
 20
119.6020347045
 10
128.1094312431
 20
119.176538123
 10
126.6556078886
 20
118.7747910749
 10
125.1033764908
 20
118.3985139025
 10
123.4593839428
 20
118.0493178826
 10
121.7306700731
 20
117.728698326
 10
119.9246375
 20
117.438028175
 10
118.0490199321
 20
117.1785521238
 10
116.1118490519
 20
116.9513812886
 10
114.1214201224
 20
116.7574884498
 10
112.0862564658
 20
116.5977038864
 10
110.0150729655
 20
116.4727118203
 10
107.9167387472
 20
116.3830474869
 10
105.8002392
 20
116.3290948424
 10
103.6746375
 20
116.3110849206
 10
101.5490358
 20
116.3290948424
 10
99.4325362528
 20
116.3830474869
 10
97.3342020345
 20
116.4727118203
 10
95.2630185342
 20
116.5977038864
 10
93.2278548776
 20
116.7574884498
 10
91.2374259481
 20
116.9513812886
 10
89.3002550679
 20
117.1785521238
 10
87.4246375
 20
117.438028175
 10
85.6186049269
 20
117.728698326
 10
83.8898910572
 20
118.0493178826
 10
82.2458985092
 20
118.3985139025
 10
80.6936671114
 20
118.7747910749
 10
79.2398437569
 20
119.176538123
 10
77.8906539405
 20
119.6020347045
 10
76.6518751002
 20
120.0494587775
 10
75.528811877
 20
120.5168944035
 10
74.5262734002
 20
121.0023399514
 10
73.6743262295
 20
121.48765918
  0
LINE
  5
75
330
1F
100
AcDbEntity
  8
0
  6
Continuous
 62
     7
370
    25
100
AcDbLine
 10
98.8216405303
 20
144.5917714405
 30
0.0
 11
98.8228049578
 21
144.6063670391
 31
0.0
  0
LINE
  5
76
330
1F
100
AcDbEntity
  8
0
  6
Continuous
 62
     7
370
    25
100
AcDbLine
 10
98.8216405303
 20
144.5917714405
 30
0.0
 11
97.830195669
 21
144.6255541049
 31
0.0
  0
LINE
  5
77
330
1F
100
AcDbEntity
  8
0
  6
Continuous
 62
     7
370
    25
100
AcDbLine
 10
99.1104690678
 20
133.037777843
 30
0.0
 11
98.8216405303
 21
144.5917714405
 31
0.0
  0
LINE
  5
78
330
1F
100
AcDbEntity
  8
0
  6
Continuous
 62
     7
370
    25
100
AcDbLine
 10
99.1104690678
 20
133.037777843
 30
0.0
 11
98.1190242064
 21
133.0715605074
 31
0.0
  0
LINE
  5
79
330
1F
100
AcDbEntity
  8
0
  6
Continuous
 62
     7
370
    25
100
AcDbLine
 10
99.1116940419
 20
133.0531323685
 30
0.0
 11
99.1104690678
 21
133.037777843
 31
0.0
  0
LWPOLYLINE
  5
7A
330
1F
100
AcDbEntity
  8
0
  6
Continuous
 62
     7
370
    25
100
AcDbPolyline
 90
       35
 70
   128
 43
0.0
 10
116.4178331511
 20
168.2379160119
 10
113.8901710214
 20
168.0810069962
 10
111.3340363676
 20
167.958842654
 10
108.7565535953
 20
167.8717634792
 10
106.1649066115
 20
167.8200121772
 10
103.5663188009
 20
167.803732988
 10
100.968032894
 20
167.8229712848
 10
98.3772907796
 20
167.8776734469
 10
95.8013133206
 20
167.9676870095
 10
93.2472802283
 20
168.0927610889
 10
90.7223100508
 20
168.2525470809
 10
88.2334403331
 20
168.4465996335
 10
85.7876080014
 20
168.6743778874
 10
83.391630029
 20
168.9352469837
 10
81.0521844363
 20
169.2284798334
 10
78.7757916779
 20
169.5532591441
 10
76.5687964685
 20
169.9086796975
 10
74.4373500997
 20
170.2937508727
 10
72.3873932948
 20
170.7073994075
 10
70.424639651
 20
171.148472389
 10
68.5545597149
 20
171.6157404678
 10
66.7823657346
 20
172.107901284
 10
65.1129971326
 20
172.6235830971
 10
63.5511067386
 20
173.1613486093
 10
62.1010478213
 20
173.7196989718
 10
60.7668619549
 20
174.2970779619
 10
59.5522677548
 20
174.8918763209
 10
58.4606505128
 20
175.502436239
 10
57.495052762
 20
176.1270559763
 10
56.6581657965
 20
176.7639946054
 10
55.9523221703
 20
177.4114768642
 10
55.3794891963
 20
178.0676981036
 10
54.9412634627
 20
178.7308293171
 10
54.6388663832
 20
179.3990222392
 10
54.4943906246
 20
179.9410267879
  0
LWPOLYLINE
  5
7B
330
1F
100
AcDbEntity
  8
0
  6
Continuous
 62
     7
370
    25
100
AcDbPolyline
 90
       25
 70
   128
 43
0.0
 10
152.8339370067
 20
179.8362146883
 10
152.6904198395
 20
179.343191539
 10
152.3766662739
 20
178.6753494539
 10
151.9271714191
 20
178.0127237098
 10
151.3431880978
 20
177.3571611634
 10
150.6263439763
 20
176.7104889851
 10
149.7786370278
 20
176.0745095662
 10
148.8024299634
 20
175.4509954955
 10
147.7004436475
 20
174.8416846185
 10
146.4757495136
 20
174.248275194
 10
145.1317610038
 20
173.6724211603
 10
143.6722240551
 20
173.115727526
 10
142.1012066589
 20
172.5797458961
 10
140.4230875224
 20
172.0659701476
 10
138.6425438646
 20
171.5758322655
 10
136.7645383799
 20
171.1106983521
 10
134.7943054067
 20
170.671864819
 10
132.7373363374
 20
170.2605547739
 10
130.5993643139
 20
169.8779146118
 10
128.3863482476
 20
169.5250108194
 10
126.1044562113
 20
169.2028270029
 10
123.7600482473
 20
168.9122611464
 10
121.359658641
 20
168.6541231089
 10
118.9099777089
 20
168.4291323676
 10
116.4178331511
 20
168.2379160119
  0
ENDSEC
  0
SECTION
  2
OBJECTS
  0
DICTIONARY
  5
C
330
0
100
AcDbDictionary
281
     1
  3
ACAD_GROUP
350
D
  3
ACAD_LAYOUT
350
1A
  3
ACAD_MLINESTYLE
350
17
  3
ACAD_PLOTSETTINGS
350
19
  3
ACAD_PLOTSTYLENAME
350
E
  3
ACAD_SCALELIST
350
47
  3
DWGPROPS
350
7C
  0
DICTIONARY
  5
D
102
{ACAD_REACTORS
330
C
102
}
330
C
100
AcDbDictionary
281
     1
  0
DICTIONARY
  5
1A
102
{ACAD_REACTORS
330
C
102
}
330
C
100
AcDbDictionary
281
     1
  3
Layout1
350
1E
  3
Layout2
350
26
  3
Model
350
22
  0
DICTIONARY
  5
17
102
{ACAD_REACTORS
330
C
102
}
330
C
100
AcDbDictionary
281
     1
  3
Standard
350
18
  0
DICTIONARY
  5
19
102
{ACAD_REACTORS
330
C
102
}
330
C
100
AcDbDictionary
281
     1
  0
ACDBDICTIONARYWDFLT
  5
E
102
{ACAD_REACTORS
330
C
102
}
330
C
100
AcDbDictionary
281
     1
  3
Normal
350
F
100
AcDbDictionaryWithDefault
340
F
  0
DICTIONARY
  5
47
102
{ACAD_REACTORS
330
C
102
}
330
C
100
AcDbDictionary
281
     1
  3
A0
350
48
  3
A1
350
49
  3
A2
350
4A
  3
A3
350
4B
  3
A4
350
4C
  3
A5
350
4D
  3
A6
350
4E
  3
A7
350
4F
  3
A8
350
50
  3
A9
350
51
  3
B0
350
52
  3
B1
350
53
  3
B2
350
54
  3
B3
350
55
  3
B4
350
56
  3
B5
350
57
  3
B6
350
58
  0
XRECORD
  5
7C
102
{ACAD_REACTORS
330
C
102
}
330
C
100
AcDbXrecord
280
     1
  1
DWGPROPS COOKIE
  2

  3

  4

  6

  7

  8
9128
  9

300
=
301
=
302
=
303
=
304
=
305
=
306
=
307
=
308
=
309
=
 40
0.0
 41
2460334.341073229
 42
2460334.341073391
  1

 90
        0
  0
LAYOUT
  5
1E
102
{ACAD_REACTORS
330
1A
102
}
330
1A
100
AcDbPlotSettings
  1

  2
none_device
  4

  6

 40
0.0
 41
0.0
 42
0.0
 43
0.0
 44
0.0
 45
0.0
 46
0.0
 47
0.0
 48
0.0
 49
0.0
140
0.0
141
0.0
142
1.0
143
1.0
 70
   688
 72
     1
 73
     0
 74
     5
  7

 75
    16
147
1.0
148
0.0
149
0.0
100
AcDbLayout
  1
Layout1
 70
     1
 71
     1
 10
0.0
 20
0.0
 11
420.0
 21
297.0
 12
0.0
 22
0.0
 32
0.0
 14
1.0000000000E+20
 24
1.0000000000E+20
 34
1.0000000000E+20
 15
-1.0000000000E+20
 25
-1.0000000000E+20
 35
-1.0000000000E+20
146
0.0
 13
0.0
 23
0.0
 33
0.0
 16
1.0
 26
0.0
 36
0.0
 17
0.0
 27
1.0
 37
0.0
 76
     0
330
1B
  0
LAYOUT
  5
26
102
{ACAD_REACTORS
330
1A
102
}
330
1A
100
AcDbPlotSettings
  1

  2
none_device
  4

  6

 40
0.0
 41
0.0
 42
0.0
 43
0.0
 44
0.0
 45
0.0
 46
0.0
 47
0.0
 48
0.0
 49
0.0
140
0.0
141
0.0
142
1.0
143
1.0
 70
   688
 72
     1
 73
     0
 74
     5
  7

 75
    16
147
1.0
148
0.0
149
0.0
100
AcDbLayout
  1
Layout2
 70
     1
 71
     2
 10
0.0
 20
0.0
 11
0.0
 21
0.0
 12
0.0
 22
0.0
 32
0.0
 14
0.0
 24
0.0
 34
0.0
 15
0.0
 25
0.0
 35
0.0
146
0.0
 13
0.0
 23
0.0
 33
0.0
 16
1.0
 26
0.0
 36
0.0
 17
0.0
 27
1.0
 37
0.0
 76
     0
330
23
  0
LAYOUT
  5
22
102
{ACAD_REACTORS
330
1A
102
}
330
1A
100
AcDbPlotSettings
  1

  2
none_device
  4
Letter_(8.50_x_11.00_Inches)
  6

 40
6.35
 41
6.35
 42
6.35000508
 43
6.35000508
 44
215.9
 45
279.4
 46
0.0
 47
0.0
 48
0.0
 49
0.0
140
0.0
141
0.0
142
1.0
143
1.0
 70
  1712
 72
     1
 73
     0
 74
     0
  7

 75
     0
147
1.0
148
0.0
149
0.0
100
AcDbLayout
  1
Model
 70
     1
 71
     0
 10
0.0
 20
0.0
 11
210.0
 21
297.0
 12
0.0
 22
0.0
 32
0.0
 14
0.0
 24
0.0
 34
0.0
 15
210.0
 25
297.0
 35
0.0
146
0.0
 13
0.0
 23
0.0
 33
0.0
 16
1.0
 26
0.0
 36
0.0
 17
0.0
 27
1.0
 37
0.0
 76
     0
330
1F
331
29
  0
MLINESTYLE
  5
18
102
{ACAD_REACTORS
330
17
102
}
330
17
100
AcDbMlineStyle
  2
Standard
 70
     0
  3

 62
   256
 51
90.0
 52
90.0
 71
     2
 49
0.5
 62
   256
  6
BYLAYER
 49
-0.5
 62
   256
  6
BYLAYER
  0
ACDBPLACEHOLDER
  5
F
102
{ACAD_REACTORS
330
E
102
}
330
E
  0
SCALE
  5
48
102
{ACAD_REACTORS
330
47
102
}
330
47
100
AcDbScale
 70
     0
300
1:1
140
1.0
141
1.0
290
     1
  0
SCALE
  5
49
102
{ACAD_REACTORS
330
47
102
}
330
47
100
AcDbScale
 70
     0
300
1:2
140
1.0
141
2.0
290
     0
  0
SCALE
  5
4A
102
{ACAD_REACTORS
330
47
102
}
330
47
100
AcDbScale
 70
     0
300
1:4
140
1.0
141
4.0
290
     0
  0
SCALE
  5
4B
102
{ACAD_REACTORS
330
47
102
}
330
47
100
AcDbScale
 70
     0
300
1:5
140
1.0
141
5.0
290
     0
  0
SCALE
  5
4C
102
{ACAD_REACTORS
330
47
102
}
330
47
100
AcDbScale
 70
     0
300
1:8
140
1.0
141
8.0
290
     0
  0
SCALE
  5
4D
102
{ACAD_REACTORS
330
47
102
}
330
47
100
AcDbScale
 70
     0
300
1:10
140
1.0
141
10.0
290
     0
  0
SCALE
  5
4E
102
{ACAD_REACTORS
330
47
102
}
330
47
100
AcDbScale
 70
     0
300
1:16
140
1.0
141
16.0
290
     0
  0
SCALE
  5
4F
102
{ACAD_REACTORS
330
47
102
}
330
47
100
AcDbScale
 70
     0
300
1:20
140
1.0
141
20.0
290
     0
  0
SCALE
  5
50
102
{ACAD_REACTORS
330
47
102
}
330
47
100
AcDbScale
 70
     0
300
1:30
140
1.0
141
30.0
290
     0
  0
SCALE
  5
51
102
{ACAD_REACTORS
330
47
102
}
330
47
100
AcDbScale
 70
     0
300
1:40
140
1.0
141
40.0
290
     0
  0
SCALE
  5
52
102
{ACAD_REACTORS
330
47
102
}
330
47
100
AcDbScale
 70
     0
300
1:50
140
1.0
141
50.0
290
     0
  0
SCALE
  5
53
102
{ACAD_REACTORS
330
47
102
}
330
47
100
AcDbScale
 70
     0
300
1:100
140
1.0
141
100.0
290
     0
  0
SCALE
  5
54
102
{ACAD_REACTORS
330
47
102
}
330
47
100
AcDbScale
 70
     0
300
2:1
140
2.0
141
1.0
290
     0
  0
SCALE
  5
55
102
{ACAD_REACTORS
330
47
102
}
330
47
100
AcDbScale
 70
     0
300
4:1
140
4.0
141
1.0
290
     0
  0
SCALE
  5
56
102
{ACAD_REACTORS
330
47
102
}
330
47
100
AcDbScale
 70
     0
300
8:1
140
8.0
141
1.0
290
     0
  0
SCALE
  5
57
102
{ACAD_REACTORS
330
47
102
}
330
47
100
AcDbScale
 70
     0
300
10:1
140
10.0
141
1.0
290
     0
  0
SCALE
  5
58
102
{ACAD_REACTORS
330
47
102
}
330
47
100
AcDbScale
 70
     0
300
100:1
140
100.0
141
1.0
290
     0
  0
ENDSEC
  0
EOF
