  0
SECTION
  2
HEADER
  9
$ACADVER
  1
AC1015
  9
$ACADMAINTVER
 70
     6
  9
$DWGCODEPAGE
  3
DOS932
  9
$INSBASE
 10
0.0
 20
0.0
 30
0.0
  9
$EXTMIN
 10
0.0
 20
0.0
 30
0.0
  9
$EXTMAX
 10
210.0
 20
297.0
 30
0.0
  9
$LIMMIN
 10
0.0
 20
0.0
  9
$LIMMAX
 10
210.0
 20
297.0
  9
$ORTHOMODE
 70
     0
  9
$REGENMODE
 70
     1
  9
$FILLMODE
 70
     1
  9
$QTEXTMODE
 70
     0
  9
$MIRRTEXT
 70
     1
  9
$LTSCALE
 40
1.0
  9
$ATTMODE
 70
     1
  9
$TEXTSIZE
 40
3.5277777778
  9
$TRACEWID
 40
1.0
  9
$TEXTSTYLE
  7
Standard
  9
$CLAYER
  8
0
  9
$CELTYPE
  6
ByLayer
  9
$CECOLOR
 62
   256
  9
$CELTSCALE
 40
1.0
  9
$DISPSILH
 70
     0
  9
$DIMSCALE
 40
1.0
  9
$DIMASZ
 40
1.5
  9
$DIMEXO
 40
1.0
  9
$DIMDLI
 40
3.75
  9
$DIMRND
 40
0.0
  9
$DIMDLE
 40
0.0
  9
$DIMEXE
 40
1.0
  9
$DIMTP
 40
0.0
  9
$DIMTM
 40
0.0
  9
$DIMTXT
 40
3.5277777778
  9
$DIMCEN
 40
2.5
  9
$DIMTSZ
 40
0.0
  9
$DIMTOL
 70
     0
  9
$DIMLIM
 70
     0
  9
$DIMTIH
 70
     1
  9
$DIMTOH
 70
     1
  9
$DIMSE1
 70
     0
  9
$DIMSE2
 70
     0
  9
$DIMTAD
 70
     1
  9
$DIMZIN
 70
     0
  9
$DIMBLK
  1

  9
$DIMASO
 70
     1
  9
$DIMSHO
 70
     1
  9
$DIMPOST
  1

  9
$DIMAPOST
  1

  9
$DIMALT
 70
     0
  9
$DIMALTD
 70
     3
  9
$DIMALTF
 40
0.0393700787
  9
$DIMLFAC
 40
1.0
  9
$DIMTOFL
 70
     1
  9
$DIMTVP
 40
0.0
  9
$DIMTIX
 70
     0
  9
$DIMSOXD
 70
     0
  9
$DIMSAH
 70
     0
  9
$DIMBLK1
  1

  9
$DIMBLK2
  1

  9
$DIMSTYLE
  2
ISO-25
  9
$DIMCLRD
 70
     0
  9
$DIMCLRE
 70
     0
  9
$DIMCLRT
 70
     0
  9
$DIMTFAC
 40
1.0
  9
$DIMGAP
 40
1.5
  9
$DIMJUST
 70
     0
  9
$DIMSD1
 70
     0
  9
$DIMSD2
 70
     0
  9
$DIMTOLJ
 70
     0
  9
$DIMTZIN
 70
     0
  9
$DIMALTZ
 70
     0
  9
$DIMALTTZ
 70
     0
  9
$DIMUPT
 70
     0
  9
$DIMDEC
 70
     1
  9
$DIMTDEC
 70
     1
  9
$DIMALTU
 70
     2
  9
$DIMALTTD
 70
     3
  9
$DIMTXSTY
  7
Standard
  9
$DIMAUNIT
 70
     0
  9
$DIMADEC
 70
     2
  9
$DIMALTRND
 40
0.0
  9
$DIMAZIN
 70
     0
  9
$DIMDSEP
 70
    44
  9
$DIMATFIT
 70
     3
  9
$DIMFRAC
 70
     0
  9
$DIMLDRBLK
  1

  9
$DIMLUNIT
 70
     2
  9
$DIMLWD
 70
    -2
  9
$DIMLWE
 70
    -2
  9
$DIMTMOVE
 70
     0
  9
$LUNITS
 70
     2
  9
$LUPREC
 70
     2
  9
$SKETCHINC
 40
1.0
  9
$FILLETRAD
 40
0.0
  9
$AUNITS
 70
     0
  9
$AUPREC
 70
     2
  9
$MENU
  1
.
  9
$ELEVATION
 40
0.0
  9
$PELEVATION
 40
0.0
  9
$THICKNESS
 40
0.0
  9
$LIMCHECK
 70
     0
  9
$CHAMFERA
 40
0.0
  9
$CHAMFERB
 40
0.0
  9
$CHAMFERC
 40
0.0
  9
$CHAMFERD
 40
0.0
  9
$SKPOLY
 70
     0
  9
$TDCREATE
 40
2460334.715412466
  9
$TDUCREATE
 40
2460334.340412466
  9
$TDUPDATE
 40
2460334.715412593
  9
$TDUUPDATE
 40
2460334.340412593
  9
$TDINDWG
 40
0.0000000116
  9
$TDUSRTIMER
 40
0.0000000116
  9
$USRTIMER
 70
     1
  9
$ANGBASE
 50
0.0
  9
$ANGDIR
 70
     0
  9
$PDMODE
 70
     0
  9
$PDSIZE
 40
-1.0
  9
$PLINEWID
 40
0.0
  9
$SPLFRAME
 70
     0
  9
$SPLINETYPE
 70
     6
  9
$SPLINESEGS
 70
     8
  9
$HANDSEED
  5
7E
  9
$SURFTAB1
 70
     6
  9
$SURFTAB2
 70
     6
  9
$SURFTYPE
 70
     6
  9
$SURFU
 70
     6
  9
$SURFV
 70
     6
  9
$UCSBASE
  2

  9
$UCSNAME
  2

  9
$UCSORG
 10
0.0
 20
0.0
 30
0.0
  9
$UCSXDIR
 10
1.0
 20
0.0
 30
0.0
  9
$UCSYDIR
 10
0.0
 20
1.0
 30
0.0
  9
$UCSORTHOREF
  2

  9
$UCSORTHOVIEW
 70
     0
  9
$UCSORGTOP
 10
0.0
 20
0.0
 30
0.0
  9
$UCSORGBOTTOM
 10
0.0
 20
0.0
 30
0.0
  9
$UCSORGLEFT
 10
0.0
 20
0.0
 30
0.0
  9
$UCSORGRIGHT
 10
0.0
 20
0.0
 30
0.0
  9
$UCSORGFRONT
 10
0.0
 20
0.0
 30
0.0
  9
$UCSORGBACK
 10
0.0
 20
0.0
 30
0.0
  9
$PUCSBASE
  2

  9
$PUCSNAME
  2

  9
$PUCSORG
 10
0.0
 20
0.0
 30
0.0
  9
$PUCSXDIR
 10
1.0
 20
0.0
 30
0.0
  9
$PUCSYDIR
 10
0.0
 20
1.0
 30
0.0
  9
$PUCSORTHOREF
  2

  9
$PUCSORTHOVIEW
 70
     0
  9
$PUCSORGTOP
 10
0.0
 20
0.0
 30
0.0
  9
$PUCSORGBOTTOM
 10
0.0
 20
0.0
 30
0.0
  9
$PUCSORGLEFT
 10
0.0
 20
0.0
 30
0.0
  9
$PUCSORGRIGHT
 10
0.0
 20
0.0
 30
0.0
  9
$PUCSORGFRONT
 10
0.0
 20
0.0
 30
0.0
  9
$PUCSORGBACK
 10
0.0
 20
0.0
 30
0.0
  9
$USERI1
 70
     0
  9
$USERI2
 70
     0
  9
$USERI3
 70
     0
  9
$USERI4
 70
     0
  9
$USERI5
 70
     0
  9
$USERR1
 40
0.0
  9
$USERR2
 40
0.0
  9
$USERR3
 40
0.0
  9
$USERR4
 40
0.0
  9
$USERR5
 40
0.0
  9
$WORLDVIEW
 70
     1
  9
$SHADEDGE
 70
     3
  9
$SHADEDIF
 70
    70
  9
$TILEMODE
 70
     1
  9
$MAXACTVP
 70
    64
  9
$PINSBASE
 10
0.0
 20
0.0
 30
0.0
  9
$PLIMCHECK
 70
     0
  9
$PEXTMIN
 10
1.0000000000E+20
 20
1.0000000000E+20
 30
1.0000000000E+20
  9
$PEXTMAX
 10
-1.0000000000E+20
 20
-1.0000000000E+20
 30
-1.0000000000E+20
  9
$PLIMMIN
 10
0.0
 20
0.0
  9
$PLIMMAX
 10
420.0
 20
297.0
  9
$UNITMODE
 70
     0
  9
$VISRETAIN
 70
     1
  9
$PLINEGEN
 70
     0
  9
$PSLTSCALE
 70
     1
  9
$TREEDEPTH
 70
  3020
  9
$CMLSTYLE
  2
Standard
  9
$CMLJUST
 70
     0
  9
$CMLSCALE
 40
20.0
  9
$PROXYGRAPHICS
 70
     1
  9
$MEASUREMENT
 70
     1
  9
$CELWEIGHT
370
    -1
  9
$ENDCAPS
280
     0
  9
$JOINSTYLE
280
     0
  9
$LWDISPLAY
290
     1
  9
$INSUNITS
 70
     4
  9
$HYPERLINKBASE
  1

  9
$STYLESHEET
  1

  9
$XEDIT
290
     1
  9
$CEPSNTYPE
380
     0
  9
$PSTYLEMODE
290
     1
  9
$FINGERPRINTGUID
  2
{d9edd5a5-27c7-44a0-a9fd-a1589ba5402b}
  9
$VERSIONGUID
  2
{FAEB1C32-E019-11D5-929B-00C0DF256EC4}
  9
$EXTNAMES
290
     1
  9
$PSVPSCALE
 40
0.0
  9
$OLESTARTUP
290
     0
  0
ENDSEC
  0
SECTION
  2
CLASSES
  0
CLASS
  1
ACDBDICTIONARYWDFLT
  2
AcDbDictionaryWithDefault
  3
ObjectDBX Classes
 90
        0
280
     0
281
     0
  0
CLASS
  1
VISUALSTYLE
  2
AcDbVisualStyle
  3
ObjectDBX Classes
 90
     4095
280
     0
281
     0
  0
CLASS
  1
MATERIAL
  2
AcDbMaterial
  3
ObjectDBX Classes
 90
     1153
280
     0
281
     0
  0
CLASS
  1
SCALE
  2
AcDbScale
  3
ObjectDBX Classes
 90
     1153
280
     0
281
     0
  0
CLASS
  1
TABLESTYLE
  2
AcDbTableStyle
  3
ObjectDBX Classes
 90
     4095
280
     0
281
     0
  0
CLASS
  1
MLEADERSTYLE
  2
AcDbMLeaderStyle
  3
ACDB_MLEADERSTYLE_CLASS
 90
     4095
280
     0
281
     0
  0
CLASS
  1
SUN
  2
AcDbSun
  3
SCENEOE
 90
     1153
280
     0
281
     0
  0
CLASS
  1
ACDBPLACEHOLDER
  2
AcDbPlaceHolder
  3
ObjectDBX Classes
 90
        0
280
     0
281
     0
  0
CLASS
  1
LAYOUT
  2
AcDbLayout
  3
ObjectDBX Classes
 90
        0
280
     0
281
     0
  0
ENDSEC
  0
SECTION
  2
TABLES
  0
TABLE
  2
VPORT
  5
8
330
0
100
AcDbSymbolTable
 70
     1
  0
VPORT
  5
29
330
8
100
AcDbSymbolTableRecord
100
AcDbViewportTableRecord
  2
*Active
 70
     0
 10
0.0
 20
0.0
 11
1.0
 21
1.0
 12
105.0
 22
148.5
 13
0.0
 23
0.0
 14
10.0
 24
10.0
 15
10.0
 25
10.0
 16
0.0
 26
0.0
 36
1.0
 17
0.0
 27
0.0
 37
0.0
 40
297.0
 41
0.7070707071
 42
50.0
 43
0.0
 44
0.0
 50
0.0
 51
0.0
 71
     0
 72
  2000
 73
     1
 74
     3
 75
     0
 76
     0
 77
     0
 78
     0
281
     0
 65
     1
110
0.0
120
0.0
130
0.0
111
1.0
121
0.0
131
0.0
112
0.0
122
1.0
132
0.0
 79
     0
146
0.0
  0
ENDTAB
  0
TABLE
  2
LTYPE
  5
5
330
0
100
AcDbSymbolTable
 70
     6
  0
LTYPE
  5
14
330
5
100
AcDbSymbolTableRecord
100
AcDbLinetypeTableRecord
  2
ByBlock
 70
     0
  3

 72
    65
 73
     0
 40
0.0
  0
LTYPE
  5
15
330
5
100
AcDbSymbolTableRecord
100
AcDbLinetypeTableRecord
  2
ByLayer
 70
     0
  3

 72
    65
 73
     0
 40
0.0
  0
LTYPE
  5
16
330
5
100
AcDbSymbolTableRecord
100
AcDbLinetypeTableRecord
  2
Continuous
 70
     0
  3
Solid line
 72
    65
 73
     0
 40
0.0
  0
LTYPE
  5
5E
330
5
100
AcDbSymbolTableRecord
100
AcDbLinetypeTableRecord
  2
HIDDEN
 70
     0
  3
Hidden __ __ __ __ __ __ __ __ __ __ __ __ __ __
 72
    65
 73
     2
 40
1.905
 49
1.27
 74
     0
 49
-0.635
 74
     0
  0
LTYPE
  5
5F
330
5
100
AcDbSymbolTableRecord
100
AcDbLinetypeTableRecord
  2
PHANTOM
 70
     0
  3
Phantom ______  __  __  ______  __  __  ______
 72
    65
 73
     6
 40
12.7
 49
6.35
 74
     0
 49
-1.27
 74
     0
 49
1.27
 74
     0
 49
-1.27
 74
     0
 49
1.27
 74
     0
 49
-1.27
 74
     0
  0
LTYPE
  5
60
330
5
100
AcDbSymbolTableRecord
100
AcDbLinetypeTableRecord
  2
CENTER
 70
     0
  3
Center ____ _ ____ _ ____ _ ____ _ ____ _ ____
 72
    65
 73
     4
 40
10.16
 49
6.35
 74
     0
 49
-1.27
 74
     0
 49
1.27
 74
     0
 49
-1.27
 74
     0
  0
LTYPE
  5
61
330
5
100
AcDbSymbolTableRecord
100
AcDbLinetypeTableRecord
  2
CENTERX2
 70
     0
  3
Center (2x) ________  __  ________  __  _____
 72
    65
 73
     4
 40
20.32
 49
12.7
 74
     0
 49
-2.54
 74
     0
 49
2.54
 74
     0
 49
-2.54
 74
     0
  0
LTYPE
  5
62
330
5
100
AcDbSymbolTableRecord
100
AcDbLinetypeTableRecord
  2
DOT2
 70
     0
  3
Dot (.5x) ........................................
 72
    65
 73
     2
 40
0.635
 49
0.0
 74
     0
 49
-0.635
 74
     0
  0
ENDTAB
  0
TABLE
  2
LAYER
  5
2
330
0
100
AcDbSymbolTable
 70
     2
  0
LAYER
  5
10
330
2
100
AcDbSymbolTableRecord
100
AcDbLayerTableRecord
  2
0
 70
     0
 62
     7
  6
Continuous
370
    -3
390
F
  0
LAYER
  5
63
330
2
100
AcDbSymbolTableRecord
100
AcDbLayerTableRecord
  2
FORMAT
 70
     0
 62
     7
  6
Continuous
370
    -3
390
F
  0
ENDTAB
  0
TABLE
  2
STYLE
  5
3
330
0
100
AcDbSymbolTable
 70
     2
  0
STYLE
  5
11
330
3
100
AcDbSymbolTableRecord
100
AcDbTextStyleTableRecord
  2
Standard
 70
     0
 40
0.0
 41
1.0
 50
0.0
 71
     0
 42
3.5277777778
  3
txt
  4
bigfont
  0
STYLE
  5
64
330
3
100
AcDbSymbolTableRecord
100
AcDbTextStyleTableRecord
  2
SLDTEXTSTYLE0
 70
     0
 40
0.0
 41
0.7
 50
0.0
 71
     0
 42
3.5277777778
  3
TXT
  4
bigfont
  0
ENDTAB
  0
TABLE
  2
VIEW
  5
6
330
0
100
AcDbSymbolTable
 70
     0
  0
ENDTAB
  0
TABLE
  2
UCS
  5
7
330
0
100
AcDbSymbolTable
 70
     0
  0
ENDTAB
  0
TABLE
  2
APPID
  5
9
330
0
100
AcDbSymbolTable
 70
     1
  0
APPID
  5
12
330
9
100
AcDbSymbolTableRecord
100
AcDbRegAppTableRecord
  2
ACAD
 70
     0
  0
ENDTAB
  0
TABLE
  2
DIMSTYLE
  5
A
330
0
100
AcDbSymbolTable
 70
     1
100
AcDbDimStyleTable
  0
DIMSTYLE
105
27
330
A
100
AcDbSymbolTableRecord
100
AcDbDimStyleTableRecord
  2
ISO-25
 70
     0
 41
2.5
 42
0.625
 43
3.75
 44
1.25
 73
     0
 74
     0
 77
     1
 78
     8
140
2.5
141
2.5
143
0.0393700787
147
0.625
171
     3
172
     1
178
     0
271
     2
272
     2
274
     3
278
    44
283
     0
284
     8
340
11
  0
ENDTAB
  0
TABLE
  2
BLOCK_RECORD
  5
1
330
0
100
AcDbSymbolTable
 70
     1
  0
BLOCK_RECORD
  5
1F
330
1
100
AcDbSymbolTableRecord
100
AcDbBlockTableRecord
  2
*Model_Space
340
22
  0
BLOCK_RECORD
  5
1B
330
1
100
AcDbSymbolTableRecord
100
AcDbBlockTableRecord
  2
*Paper_Space
340
1E
  0
BLOCK_RECORD
  5
23
330
1
100
AcDbSymbolTableRecord
100
AcDbBlockTableRecord
  2
*Paper_Space0
340
26
  0
ENDTAB
  0
ENDSEC
  0
SECTION
  2
BLOCKS
  0
BLOCK
  5
20
330
1F
100
AcDbEntity
  8
0
100
AcDbBlockBegin
  2
*Model_Space
 70
     0
 10
0.0
 20
0.0
 30
0.0
  3
*Model_Space
  1

  0
ENDBLK
  5
21
330
1F
100
AcDbEntity
  8
0
100
AcDbBlockEnd
  0
BLOCK
  5
1C
330
1B
100
AcDbEntity
 67
     1
  8
0
100
AcDbBlockBegin
  2
*Paper_Space
 70
     0
 10
0.0
 20
0.0
 30
0.0
  3
*Paper_Space
  1

  0
ENDBLK
  5
1D
330
1B
100
AcDbEntity
 67
     1
  8
0
100
AcDbBlockEnd
  0
BLOCK
  5
24
330
23
100
AcDbEntity
  8
0
100
AcDbBlockBegin
  2
*Paper_Space0
 70
     0
 10
0.0
 20
0.0
 30
0.0
  3
*Paper_Space0
  1

  0
ENDBLK
  5
25
330
23
100
AcDbEntity
  8
0
100
AcDbBlockEnd
  0
ENDSEC
  0
SECTION
  2
ENTITIES
  0
MTEXT
  5
65
330
1F
100
AcDbEntity
  8
0
  6
Continuous
 62
     7
370
     0
100
AcDbMText
 10
133.387110022
 20
124.0973600979
 30
0.0
 40
2.6458333333
 41
0.0
 71
     1
 72
     1
  1
HOA-D59BK/H/G
  7
SLDTEXTSTYLE0
 73
     1
 44
1.0
  0
LINE
  5
66
330
1F
100
AcDbEntity
  8
0
  6
Continuous
 62
     7
370
    25
100
AcDbLine
 10
131.534404052
 20
136.7042412807
 30
0.0
 11
131.6599375
 21
136.7042412807
 31
0.0
  0
SPLINE
  5
67
330
1F
100
AcDbEntity
  8
0
  6
Continuous
 62
     7
370
    25
100
AcDbSpline
210
0.0
220
0.0
230
1.0
 70
     8
 71
     3
 72
    43
 73
    39
 74
     0
 42
0.00000001
 43
0.00000001
 40
0.0
 40
0.0
 40
0.0
 40
0.0
 40
0.0130338960016743
 40
0.0380989094492207
 40
0.0628768243466124
 40
0.0877209458542847
 40
0.1130486582125259
 40
0.1392236263383456
 40
0.1664554307038486
 40
0.1947388443723435
 40
0.2238549219665433
 40
0.2534741289640391
 40
0.2832966178447325
 40
0.3131016094865415
 40
0.342801281794598
 40
0.3723748294908829
 40
0.4018255654957599
 40
0.4311661791947675
 40
0.4604117408251391
 40
0.4895767312825403
 40
0.5186739750089732
 40
0.54771441383293
 40
0.5767072219691894
 40
0.6056600364207988
 40
0.6345792055807147
 40
0.6634700177260487
 40
0.6923368973631636
 40
0.7211835685506136
 40
0.7500131886100159
 40
0.7788284568609036
 40
0.8076317029573596
 40
0.8364249588729152
 40
0.8652100179345927
 40
0.8939884836962468
 40
0.9227618109185635
 40
0.9515313404988193
 40
0.9802983298619928
 40
1.0
 40
1.0
 40
1.0
 40
1.0
 10
138.5494198064764
 20
172.5365836691757
 30
0.0
 10
138.5681990678466
 20
172.6250255512811
 30
0.0
 10
138.623092046767
 20
172.8835468144108
 30
0.0
 10
138.6273171512628
 20
173.3204649896456
 30
0.0
 10
138.5682534442402
 20
173.8340861899127
 30
0.0
 10
138.4291835625503
 20
174.337706568939
 30
0.0
 10
138.2167779262953
 20
174.8314459844076
 30
0.0
 10
137.9284938889352
 20
175.3178957685544
 30
0.0
 10
137.5617283460079
 20
175.7987628574013
 30
0.0
 10
137.1135476021736
 20
176.2739888436646
 30
0.0
 10
136.5832459665836
 20
176.741608839475
 30
0.0
 10
135.9728874673153
 20
177.1987109201641
 30
0.0
 10
135.2866746705322
 20
177.6425326624665
 30
0.0
 10
134.5292029944098
 20
178.071367186082
 30
0.0
 10
133.7043572999574
 20
178.4845458652232
 30
0.0
 10
132.8148564053058
 20
178.8821027242815
 30
0.0
 10
131.8628194081905
 20
179.2642224520964
 30
0.0
 10
130.8501683304007
 20
179.6310136283943
 30
0.0
 10
129.7788007934364
 20
179.982464021104
 30
0.0
 10
128.6506853963584
 20
180.3184447574144
 30
0.0
 10
127.4679088873955
 20
180.6387317144509
 30
0.0
 10
126.2326961376698
 20
180.9430299912941
 30
0.0
 10
124.9474154712131
 20
181.230996162896
 30
0.0
 10
123.6145763206999
 20
181.5022568704009
 30
0.0
 10
122.2368229621124
 20
181.7564237939353
 30
0.0
 10
120.8169263176936
 20
181.9931055282298
 30
0.0
 10
119.3577748674555
 20
182.2119169665426
 30
0.0
 10
117.8623652040108
 20
182.4124866978674
 30
0.0
 10
116.3337924915549
 20
182.5944629562216
 30
0.0
 10
114.7752409651349
 20
182.7575180670199
 30
0.0
 10
113.1899744684155
 20
182.9013531118371
 30
0.0
 10
111.5813272314535
 20
183.025697545169
 30
0.0
 10
109.9526941771902
 20
183.1303242752715
 30
0.0
 10
108.3075233793445
 20
183.2150043414435
 30
0.0
 10
106.6493008292236
 20
183.2796847116323
 30
0.0
 10
104.9815641702535
 20
183.3238317357898
 30
0.0
 10
103.4835965792051
 20
183.3462548195363
 30
0.0
 10
102.5424836119479
 20
183.3485755520369
 30
0.0
 10
102.1599375
 20
183.3495188895807
 30
0.0
  0
SPLINE
  5
68
330
1F
100
AcDbEntity
  8
0
  6
Continuous
 62
     7
370
    25
100
AcDbSpline
210
0.0
220
0.0
230
1.0
 70
     8
 71
     3
 72
    43
 73
    39
 74
     0
 42
0.00000001
 43
0.00000001
 40
0.0
 40
0.0
 40
0.0
 40
0.0
 40
0.0151396974281936
 40
0.0439059138330494
 40
0.0726748814829071
 40
0.1014458765368294
 40
0.1302201109291714
 40
0.1589988584252766
 40
0.1877834816306721
 40
0.2165754626556786
 40
0.2453764383809073
 40
0.2741882418350498
 40
0.3030129515275936
 40
0.3318529510033595
 40
0.3607110014117463
 40
0.3895903305044495
 40
0.4184947421492958
 40
0.4474287510490693
 40
0.4763977475766135
 40
0.505408196788846
 40
0.5344678722544138
 40
0.5635861160923901
 40
0.5927740947118184
 40
0.6220449706581098
 40
0.6514138042740323
 40
0.6808967719520148
 40
0.7105088182146516
 40
0.7402579382778501
 40
0.7701327014302625
 40
0.8000730399299815
 40
0.8298714217122232
 40
0.8592188905684225
 40
0.8877250819693472
 40
0.9150942460009076
 40
0.9413033644334067
 40
0.9666129922829476
 40
0.991449047937593
 40
0.9999999999999999
 40
0.9999999999999999
 40
0.9999999999999999
 40
0.9999999999999999
 10
102.1599375
 20
183.3495188895807
 30
0.0
 10
101.8660024435732
 20
183.3489520408137
 30
0.0
 10
101.0135754171284
 20
183.3473081497625
 30
0.0
 10
99.60368171288937
 20
183.3290432345472
 30
0.0
 10
97.93495263727635
 20
183.2880822722239
 30
0.0
 10
96.27522229505115
 20
183.2266250009021
 30
0.0
 10
94.6280800797751
 20
183.1451444219274
 30
0.0
 10
92.99702043754593
 20
183.0437074635789
 30
0.0
 10
91.38550517078559
 20
182.9225377024837
 30
0.0
 10
89.79694519054092
 20
182.7818632814582
 30
0.0
 10
88.23469397080919
 20
182.6219557123035
 30
0.0
 10
86.7020378047744
 20
182.4431170077656
 30
0.0
 10
85.20218683216696
 20
182.2456800492431
 30
0.0
 10
83.7382657434261
 20
182.0300046531716
 30
0.0
 10
82.31330442082088
 20
181.796473846347
 30
0.0
 10
80.93022841543038
 20
181.5454888805409
 30
0.0
 10
79.59184926744433
 20
181.2774630235395
 30
0.0
 10
78.30085467961854
 20
180.9928136266462
 30
0.0
 10
77.05979862269456
 20
180.6919519295078
 30
0.0
 10
75.8710915750059
 20
180.3752698244552
 30
0.0
 10
74.73699134307988
 20
180.0431225365928
 30
0.0
 10
73.65959537689027
 20
179.6958058347061
 30
0.0
 10
72.64083637490896
 20
179.3335260290918
 30
0.0
 10
71.68248463120469
 20
178.9563607997663
 30
0.0
 10
70.78616362078397
 20
178.5642093140793
 30
0.0
 10
69.95339086349402
 20
178.1567324082032
 30
0.0
 10
69.18566515261213
 20
177.7332907769807
 30
0.0
 10
68.4846349937005
 20
177.2929076728621
 30
0.0
 10
67.85242332220164
 20
176.834346542108
 30
0.0
 10
67.29244007255225
 20
176.3567321103447
 30
0.0
 10
66.80935399095233
 20
175.8601750132579
 30
0.0
 10
66.40874792944282
 20
175.3467563824358
 30
0.0
 10
66.09526247879403
 20
174.8207227475097
 30
0.0
 10
65.8718794211886
 20
174.2883358178641
 30
0.0
 10
65.73580007542104
 20
173.7558588308869
 30
0.0
 10
65.69036227014303
 20
173.2296329509962
 30
0.0
 10
65.70312995626101
 20
172.8217820377401
 30
0.0
 10
65.75506662431805
 20
172.5960030073817
 30
0.0
 10
65.76836844407381
 20
172.5381773501184
 30
0.0
  0
LINE
  5
69
330
1F
100
AcDbEntity
  8
0
  6
Continuous
 62
     7
370
    25
100
AcDbLine
 10
65.7559235737
 20
172.5584303977
 30
0.0
 11
69.2377744349
 21
153.5060210589
 31
0.0
  0
LINE
  5
6A
330
1F
100
AcDbEntity
  8
0
  6
Continuous
 62
     7
370
    25
100
AcDbLine
 10
133.3207998853
 20
143.8683246561
 30
0.0
 11
138.5639514263
 21
172.5584303977
 31
0.0
  0
LINE
  5
6B
330
1F
100
AcDbEntity
  8
0
  6
Continuous
 62
     7
370
    25
100
AcDbLine
 10
74.1966042851
 20
149.393825195
 30
0.0
 11
71.5182206014
 21
145.7646482281
 31
0.0
  0
SPLINE
  5
6C
330
1F
100
AcDbEntity
  8
0
  6
Continuous
 62
     7
370
    25
100
AcDbSpline
210
0.0
220
0.0
230
1.0
 70
     8
 71
     3
 72
    34
 73
    30
 74
     0
 42
0.00000001
 43
0.00000001
 40
0.0
 40
0.0
 40
0.0
 40
0.0
 40
0.0129614318820379
 40
0.0236286338121325
 40
0.0350309507508651
 40
0.0475258030665595
 40
0.06258171792705
 40
0.0820943448245651
 40
0.1077863051147723
 40
0.1412120642895875
 40
0.1835389376589882
 40
0.2351650569750971
 40
0.2944259844679268
 40
0.3408058136899477
 40
0.3797027477287893
 40
0.4136171235325532
 40
0.4472270699667671
 40
0.4782537597688448
 40
0.5048992145306964
 40
0.5330558750704227
 40
0.5614086889113202
 40
0.595183613149831
 40
0.6358739893679869
 40
0.6856883533924631
 40
0.7471827910214722
 40
0.8232267418364462
 40
0.915993797794056
 40
0.9714598121386006
 40
1.0
 40
1.0
 40
1.0
 40
1.0
 10
125.0511833663394
 20
128.6088160332613
 30
0.0
 10
125.0994079657302
 20
128.6371478640272
 30
0.0
 10
125.1873212001718
 20
128.6887966679933
 30
0.0
 10
125.366425111488
 20
128.79307892668
 30
0.0
 10
125.5702702144125
 20
128.9120768841673
 30
0.0
 10
125.8004752714218
 20
129.0480415707081
 30
0.0
 10
126.059063636245
 20
129.2039332410823
 30
0.0
 10
126.3620023290818
 20
129.3922159632495
 30
0.0
 10
126.7226628803249
 20
129.6264825190286
 30
0.0
 10
127.1483579194134
 20
129.9206631236368
 30
0.0
 10
127.6387932514152
 20
130.2896097972697
 30
0.0
 10
128.1817474634451
 20
130.747203964179
 30
0.0
 10
128.6982263479181
 20
131.2513992408866
 30
0.0
 10
129.148754043329
 20
131.7666603568594
 30
0.0
 10
129.5092865672234
 20
132.2415076420126
 30
0.0
 10
129.8249025506445
 20
132.7148117456992
 30
0.0
 10
130.1115858953223
 20
133.2024831343163
 30
0.0
 10
130.3698909874359
 20
133.6994322509543
 30
0.0
 10
130.6029977834624
 20
134.1985701272918
 30
0.0
 10
130.8206331403901
 20
134.710731003401
 30
0.0
 10
131.0442066643036
 20
135.282330564514
 30
0.0
 10
131.2833070216087
 20
135.94310395768
 30
0.0
 10
131.5525099102607
 20
136.7480484437388
 30
0.0
 10
131.8575379747521
 20
137.7367935194531
 30
0.0
 10
132.2039727320172
 20
138.9591656908393
 30
0.0
 10
132.5936273223455
 20
140.4666367853995
 30
0.0
 10
132.9352958445064
 20
141.9425179132047
 30
0.0
 10
133.1797792280402
 20
143.1149234113965
 30
0.0
 10
133.2850390221483
 20
143.6772726548492
 30
0.0
 10
133.3207998852657
 20
143.8683246561349
 30
0.0
  0
SPLINE
  5
6D
330
1F
100
AcDbEntity
  8
0
  6
Continuous
 62
     7
370
    25
100
AcDbSpline
210
0.0
220
0.0
230
1.0
 70
     8
 71
     3
 72
    34
 73
    30
 74
     0
 42
0.00000001
 43
0.00000001
 40
0.0
 40
0.0
 40
0.0
 40
0.0
 40
0.0504810406689071
 40
0.1083893452118811
 40
0.195779375737574
 40
0.2738102033608724
 40
0.334677281929077
 40
0.3834452955414199
 40
0.4228714739509862
 40
0.4553803822248916
 40
0.4829954610298242
 40
0.5091868208323806
 40
0.5370323440639239
 40
0.568741856488412
 40
0.6020428483561945
 40
0.6386212024682557
 40
0.6803795024231836
 40
0.729449977712191
 40
0.7875271765568052
 40
0.8387524159684169
 40
0.8783016790666014
 40
0.9083518044487363
 40
0.9307633264711553
 40
0.9474761041864633
 40
0.9603602975079342
 40
0.972197996370383
 40
0.98296953414001
 40
0.9946765990945
 40
1.0
 40
1.0
 40
1.0
 40
1.0
 10
70.99907511473434
 20
143.8683246561349
 30
0.0
 10
71.06325333948179
 20
143.5308112726439
 30
0.0
 10
71.20105231638607
 20
142.8061262393703
 30
0.0
 10
71.48179845950463
 20
141.5119562951177
 30
0.0
 10
71.83108364842478
 20
140.0444395005186
 30
0.0
 10
72.22357192313123
 20
138.564782901079
 30
0.0
 10
72.58070710358439
 20
137.3415406222203
 30
0.0
 10
72.88955676480371
 20
136.3733341854386
 30
0.0
 10
73.16022681871807
 20
135.5938491317182
 30
0.0
 10
73.39995586268381
 20
134.9584602292208
 30
0.0
 10
73.62102192811756
 20
134.4190341683128
 30
0.0
 10
73.83919147451927
 20
133.9308476953428
 30
0.0
 10
74.07731649945988
 20
133.4478320861429
 30
0.0
 10
74.3440695331159
 20
132.9642107346467
 30
0.0
 10
74.64245557201045
 20
132.4860077001031
 30
0.0
 10
74.97650027979604
 20
132.015020465459
 30
0.0
 10
75.36680058111638
 20
131.5342187881159
 30
0.0
 10
75.84050989035148
 20
131.0287844618516
 30
0.0
 10
76.3760865050192
 20
130.5382448899986
 30
0.0
 10
76.923295365888
 20
130.1020325393415
 30
0.0
 10
77.40954124711918
 20
129.7532277021456
 30
0.0
 10
77.81551322080747
 20
129.4830954454555
 30
0.0
 10
78.15086343001921
 20
129.2714301634212
 30
0.0
 10
78.42783333256843
 20
129.1028139574943
 30
0.0
 10
78.6668611941942
 20
128.9607008827913
 30
0.0
 10
78.88000426134447
 20
128.8358698611753
 30
0.0
 10
79.06717981897263
 20
128.72687220389
 30
0.0
 10
79.1888491284275
 20
128.6558164179243
 30
0.0
 10
79.24967775704083
 20
128.6200088122512
 30
0.0
 10
79.26869163366067
 20
128.6088160332613
 30
0.0
  0
LINE
  5
6E
330
1F
100
AcDbEntity
  8
0
  6
Continuous
 62
     7
370
    25
100
AcDbLine
 10
131.6599375
 20
136.7042412807
 30
0.0
 11
131.6599375
 21
137.339323963
 31
0.0
  0
LINE
  5
6F
330
1F
100
AcDbEntity
  8
0
  6
Continuous
 62
     7
370
    25
100
AcDbLine
 10
65.7588715579
 20
172.5425817251
 30
0.0
 11
65.7559235737
 21
172.5584303977
 31
0.0
  0
LINE
  5
70
330
1F
100
AcDbEntity
  8
0
  6
Continuous
 62
     7
370
    25
100
AcDbLine
 10
138.5639514263
 20
172.5584303977
 30
0.0
 11
138.5607618816
 21
172.5413071851
 31
0.0
  0
ELLIPSE
  5
71
330
1F
100
AcDbEntity
  8
0
  6
Continuous
 62
     7
370
    25
100
AcDbEllipse
 10
106.4051533847
 20
217.3310790823
 30
0.0
 11
20.49520037617729
 21
70.58774078459351
 31
0.0
210
0.0
220
0.0
230
1.0
 40
0.5329997351
 41
3.235980431462616
 42
3.259438801413168
  0
LWPOLYLINE
  5
72
330
1F
100
AcDbEntity
  8
0
  6
Continuous
 62
     7
370
    25
100
AcDbPolyline
 90
       23
 70
   128
 43
0.0
 10
89.5470857658
 20
146.0279841106
 10
87.9707352123
 20
146.2096327593
 10
86.433276276
 20
146.4123849879
 10
84.938923025
 20
146.6356850665
 10
83.4917713777
 20
146.8789209452
 10
82.095787876
 20
147.1414259312
 10
80.7547988139
 20
147.4224805168
 10
79.472479749
 20
147.7213143508
 10
78.2523454289
 20
148.0371083504
 10
77.0977401568
 20
148.3689969463
 10
76.0118286256
 20
148.7160704549
 10
74.9975872432
 20
149.0773775717
 10
74.0577959749
 20
149.4519279792
 10
73.1950307232
 20
149.8386950607
 10
72.4116562676
 20
150.2366187145
 10
71.7098197831
 20
150.6446082595
 10
71.0914449547
 20
151.0615454247
 10
70.5582267048
 20
151.4862874144
 10
70.1116265476
 20
151.9176700403
 10
69.7528685831
 20
152.3545109125
 10
69.4829361418
 20
152.7956126807
 10
69.30256909
 20
153.2397663155
 10
69.2377744349
 20
153.5060210589
  0
LINE
  5
73
330
1F
100
AcDbEntity
  8
0
  6
Continuous
 62
     7
370
    25
100
AcDbLine
 10
90.4756035418
 20
145.948556323
 30
0.0
 11
91.1506399289
 21
136.7120361322
 31
0.0
  0
LINE
  5
74
330
1F
100
AcDbEntity
  8
0
  6
Continuous
 62
     7
370
    25
100
AcDbLine
 10
91.1506399289
 20
136.7120361322
 30
0.0
 11
91.1457394403
 21
136.691308964
 31
0.0
  0
LINE
  5
75
330
1F
100
AcDbEntity
  8
0
  6
Continuous
 62
     7
370
    25
100
AcDbLine
 10
91.1457394403
 20
136.691308964
 30
0.0
 11
90.4709652983
 21
145.9289383501
 31
0.0
  0
LINE
  5
76
330
1F
100
AcDbEntity
  8
0
  6
Continuous
 62
     7
370
    25
100
AcDbLine
 10
90.4709652983
 20
145.9289383501
 30
0.0
 11
90.4756035418
 21
145.948556323
 31
0.0
  0
LINE
  5
77
330
1F
100
AcDbEntity
  8
0
  6
Continuous
 62
     7
370
    25
100
AcDbLine
 10
90.4709652983
 20
145.9289383501
 30
0.0
 11
89.5470857658
 21
146.0279841106
 31
0.0
  0
LINE
  5
78
330
1F
100
AcDbEntity
  8
0
  6
Continuous
 62
     7
370
    25
100
AcDbLine
 10
91.1457394403
 20
136.691308964
 30
0.0
 11
90.2218599078
 21
136.7903547246
 31
0.0
  0
LWPOLYLINE
  5
79
330
1F
100
AcDbEntity
  8
0
  6
Continuous
 62
     7
370
    25
100
AcDbPolyline
 90
       27
 70
   128
 43
0.0
 10
90.2218599078
 20
136.7903547246
 10
88.6963454583
 20
136.9664269108
 10
87.2094298334
 20
137.163379817
 10
85.7653758771
 20
137.380648798
 10
84.3683235536
 20
137.6176109646
 10
83.0222780773
 20
137.8735869691
 10
81.7310984315
 20
138.1478429527
 10
80.4984863041
 20
138.43959265
 10
79.3279754756
 20
138.7479996426
 10
78.222921688
 20
139.0721797574
 10
77.1864930243
 20
139.411203601
 10
76.221660826
 20
139.7640992247
 10
75.3311911741
 20
140.1298549106
 10
74.5176369598
 20
140.5074220725
 10
73.7833305646
 20
140.8957182614
 10
73.1303771744
 20
141.2936302695
 10
72.5606487439
 20
141.7000173214
 10
72.0757786298
 20
142.1137143444
 10
71.677156908
 20
142.5335353089
 10
71.3659263887
 20
142.9582766285
 10
71.1429793399
 20
143.3867206108
 10
71.0089549294
 20
143.8176389479
 10
70.9642373923
 20
144.2497962385
 10
71.0089549294
 20
144.681953529
 10
71.1429793399
 20
145.1128718662
 10
71.3659263887
 20
145.5413158484
 10
71.5182206014
 20
145.7646482281
  0
LWPOLYLINE
  5
7A
330
1F
100
AcDbEntity
  8
0
  6
Continuous
 62
     7
370
    25
100
AcDbPolyline
 90
       42
 70
   128
 43
0.0
 10
125.0477494875
 20
128.6067925104
 10
125.0385779311
 20
128.6013970579
 10
124.4013647749
 20
128.2551890039
 10
123.6860277942
 20
127.9193591202
 10
122.8950796363
 20
127.5950870217
 10
122.0312985353
 20
127.2835117258
 10
121.097718554
 20
126.9857276523
 10
120.0976189261
 20
126.7027807784
 10
119.034512538
 20
126.4356649654
 10
117.9121335895
 20
126.1853184674
 10
116.7344244779
 20
125.9526206355
 10
115.5055219491
 20
125.7383888293
 10
114.2297425683
 20
125.543375546
 10
112.9115675569
 20
125.3682657767
 10
111.5556270529
 20
125.213674601
 10
110.1666838466
 20
125.0801450259
 10
108.7496166517
 20
124.968146079
 10
107.3094029685
 20
124.8780711607
 10
105.8511016001
 20
124.8102366623
 10
104.3798348831
 20
124.764880855
 10
102.9007706956
 20
124.7421630529
 10
101.4191043044
 20
124.7421630529
 10
99.9400401169
 20
124.764880855
 10
98.4687733999
 20
124.8102366623
 10
97.0104720315
 20
124.8780711607
 10
95.5702583483
 20
124.968146079
 10
94.1531911534
 20
125.0801450259
 10
92.7642479471
 20
125.213674601
 10
91.4083074431
 20
125.3682657767
 10
90.0901324317
 20
125.543375546
 10
88.8143530509
 20
125.7383888293
 10
87.5854505221
 20
125.9526206355
 10
86.4077414105
 20
126.1853184674
 10
85.285362462
 20
126.4356649654
 10
84.2222560739
 20
126.7027807784
 10
83.222156446
 20
126.9857276523
 10
82.2885764647
 20
127.2835117258
 10
81.4247953637
 20
127.5950870217
 10
80.6338472058
 20
127.9193591202
 10
79.9185102251
 20
128.2551890039
 10
79.2812970689
 20
128.6013970579
 10
79.274957941
 20
128.6051248228
  0
LWPOLYLINE
  5
7B
330
1F
100
AcDbEntity
  8
0
  6
Continuous
 62
     7
370
    25
100
AcDbPolyline
 90
       33
 70
   128
 43
0.0
 10
102.1599375
 20
163.5715027528
 10
100.3716801684
 20
163.5828647156
 10
98.5877309054
 20
163.6169232323
 10
96.8123874009
 20
163.6735962527
 10
95.049926613
 20
163.7527472467
 10
93.3045944641
 20
163.8541855325
 10
91.5805956122
 20
163.9776667365
 10
89.8820833216
 20
164.1228933816
 10
88.2131494571
 20
164.2895156041
 10
86.5778146266
 20
164.4771319965
 10
84.9800184949
 20
164.6852905745
 10
83.4236102929
 20
164.9134898657
 10
81.9123395442
 20
165.1611801182
 10
80.4498470325
 20
165.4277646244
 10
79.0396560303
 20
165.7126011589
 10
77.6851638112
 20
166.0150035255
 10
76.3896334658
 20
166.3342432104
 10
75.1561860399
 20
166.6695511373
 10
73.9877930166
 20
167.0201195201
 10
72.8872691569
 20
167.3851038087
 10
71.8572657192
 20
167.763624724
 10
70.9002640721
 20
168.1547703761
 10
70.0185697162
 20
168.5575984607
 10
69.2143067306
 20
168.9711385298
 10
68.4894126553
 20
169.394394329
 10
67.8456338234
 20
169.8263461982
 10
67.2845211547
 20
170.2659535273
 10
66.8074264187
 20
170.7121572639
 10
66.4154989784
 20
171.1638824641
 10
66.1096830214
 20
171.6200408823
 10
65.890715285
 20
172.0795335928
 10
65.7591232818
 20
172.5412536376
 10
65.7588715579
 20
172.5425817251
  0
LWPOLYLINE
  5
7C
330
1F
100
AcDbEntity
  8
0
  6
Continuous
 62
     7
370
    25
100
AcDbPolyline
 90
       33
 70
   128
 43
0.0
 10
138.5607618816
 20
172.5413071851
 10
138.5607517182
 20
172.5412536376
 10
138.429159715
 20
172.0795335928
 10
138.2101919786
 20
171.6200408823
 10
137.9043760216
 20
171.1638824641
 10
137.5124485813
 20
170.7121572639
 10
137.0353538453
 20
170.2659535273
 10
136.4742411766
 20
169.8263461982
 10
135.8304623447
 20
169.394394329
 10
135.1055682694
 20
168.9711385298
 10
134.3013052838
 20
168.5575984607
 10
133.4196109279
 20
168.1547703761
 10
132.4626092808
 20
167.763624724
 10
131.4326058431
 20
167.3851038087
 10
130.3320819834
 20
167.0201195201
 10
129.1636889601
 20
166.6695511373
 10
127.9302415342
 20
166.3342432104
 10
126.6347111888
 20
166.0150035255
 10
125.2802189697
 20
165.7126011589
 10
123.8700279675
 20
165.4277646244
 10
122.4075354558
 20
165.1611801182
 10
120.8962647071
 20
164.9134898657
 10
119.3398565051
 20
164.6852905745
 10
117.7420603734
 20
164.4771319965
 10
116.1067255429
 20
164.2895156041
 10
114.4377916784
 20
164.1228933816
 10
112.7392793878
 20
163.9776667365
 10
111.0152805359
 20
163.8541855325
 10
109.269948387
 20
163.7527472467
 10
107.5074875991
 20
163.6735962527
 10
105.7321440946
 20
163.6169232323
 10
103.9481948316
 20
163.5828647156
 10
102.1599375
 20
163.5715027528
  0
ENDSEC
  0
SECTION
  2
OBJECTS
  0
DICTIONARY
  5
C
330
0
100
AcDbDictionary
281
     1
  3
ACAD_GROUP
350
D
  3
ACAD_LAYOUT
350
1A
  3
ACAD_MLINESTYLE
350
17
  3
ACAD_PLOTSETTINGS
350
19
  3
ACAD_PLOTSTYLENAME
350
E
  3
ACAD_SCALELIST
350
47
  3
DWGPROPS
350
7D
  0
DICTIONARY
  5
D
102
{ACAD_REACTORS
330
C
102
}
330
C
100
AcDbDictionary
281
     1
  0
DICTIONARY
  5
1A
102
{ACAD_REACTORS
330
C
102
}
330
C
100
AcDbDictionary
281
     1
  3
Layout1
350
1E
  3
Layout2
350
26
  3
Model
350
22
  0
DICTIONARY
  5
17
102
{ACAD_REACTORS
330
C
102
}
330
C
100
AcDbDictionary
281
     1
  3
Standard
350
18
  0
DICTIONARY
  5
19
102
{ACAD_REACTORS
330
C
102
}
330
C
100
AcDbDictionary
281
     1
  0
ACDBDICTIONARYWDFLT
  5
E
102
{ACAD_REACTORS
330
C
102
}
330
C
100
AcDbDictionary
281
     1
  3
Normal
350
F
100
AcDbDictionaryWithDefault
340
F
  0
DICTIONARY
  5
47
102
{ACAD_REACTORS
330
C
102
}
330
C
100
AcDbDictionary
281
     1
  3
A0
350
48
  3
A1
350
49
  3
A2
350
4A
  3
A3
350
4B
  3
A4
350
4C
  3
A5
350
4D
  3
A6
350
4E
  3
A7
350
4F
  3
A8
350
50
  3
A9
350
51
  3
B0
350
52
  3
B1
350
53
  3
B2
350
54
  3
B3
350
55
  3
B4
350
56
  3
B5
350
57
  3
B6
350
58
  0
XRECORD
  5
7D
102
{ACAD_REACTORS
330
C
102
}
330
C
100
AcDbXrecord
280
     1
  1
DWGPROPS COOKIE
  2

  3

  4

  6

  7

  8
9128
  9

300
=
301
=
302
=
303
=
304
=
305
=
306
=
307
=
308
=
309
=
 40
0.0
 41
2460334.340412466
 42
2460334.340412593
  1

 90
        0
  0
LAYOUT
  5
1E
102
{ACAD_REACTORS
330
1A
102
}
330
1A
100
AcDbPlotSettings
  1

  2
none_device
  4

  6

 40
0.0
 41
0.0
 42
0.0
 43
0.0
 44
0.0
 45
0.0
 46
0.0
 47
0.0
 48
0.0
 49
0.0
140
0.0
141
0.0
142
1.0
143
1.0
 70
   688
 72
     1
 73
     0
 74
     5
  7

 75
    16
147
1.0
148
0.0
149
0.0
100
AcDbLayout
  1
Layout1
 70
     1
 71
     1
 10
0.0
 20
0.0
 11
420.0
 21
297.0
 12
0.0
 22
0.0
 32
0.0
 14
1.0000000000E+20
 24
1.0000000000E+20
 34
1.0000000000E+20
 15
-1.0000000000E+20
 25
-1.0000000000E+20
 35
-1.0000000000E+20
146
0.0
 13
0.0
 23
0.0
 33
0.0
 16
1.0
 26
0.0
 36
0.0
 17
0.0
 27
1.0
 37
0.0
 76
     0
330
1B
  0
LAYOUT
  5
26
102
{ACAD_REACTORS
330
1A
102
}
330
1A
100
AcDbPlotSettings
  1

  2
none_device
  4

  6

 40
0.0
 41
0.0
 42
0.0
 43
0.0
 44
0.0
 45
0.0
 46
0.0
 47
0.0
 48
0.0
 49
0.0
140
0.0
141
0.0
142
1.0
143
1.0
 70
   688
 72
     1
 73
     0
 74
     5
  7

 75
    16
147
1.0
148
0.0
149
0.0
100
AcDbLayout
  1
Layout2
 70
     1
 71
     2
 10
0.0
 20
0.0
 11
0.0
 21
0.0
 12
0.0
 22
0.0
 32
0.0
 14
0.0
 24
0.0
 34
0.0
 15
0.0
 25
0.0
 35
0.0
146
0.0
 13
0.0
 23
0.0
 33
0.0
 16
1.0
 26
0.0
 36
0.0
 17
0.0
 27
1.0
 37
0.0
 76
     0
330
23
  0
LAYOUT
  5
22
102
{ACAD_REACTORS
330
1A
102
}
330
1A
100
AcDbPlotSettings
  1

  2
none_device
  4
Letter_(8.50_x_11.00_Inches)
  6

 40
6.35
 41
6.35
 42
6.35000508
 43
6.35000508
 44
215.9
 45
279.4
 46
0.0
 47
0.0
 48
0.0
 49
0.0
140
0.0
141
0.0
142
1.0
143
1.0
 70
  1712
 72
     1
 73
     0
 74
     0
  7

 75
     0
147
1.0
148
0.0
149
0.0
100
AcDbLayout
  1
Model
 70
     1
 71
     0
 10
0.0
 20
0.0
 11
210.0
 21
297.0
 12
0.0
 22
0.0
 32
0.0
 14
0.0
 24
0.0
 34
0.0
 15
210.0
 25
297.0
 35
0.0
146
0.0
 13
0.0
 23
0.0
 33
0.0
 16
1.0
 26
0.0
 36
0.0
 17
0.0
 27
1.0
 37
0.0
 76
     0
330
1F
331
29
  0
MLINESTYLE
  5
18
102
{ACAD_REACTORS
330
17
102
}
330
17
100
AcDbMlineStyle
  2
Standard
 70
     0
  3

 62
   256
 51
90.0
 52
90.0
 71
     2
 49
0.5
 62
   256
  6
BYLAYER
 49
-0.5
 62
   256
  6
BYLAYER
  0
ACDBPLACEHOLDER
  5
F
102
{ACAD_REACTORS
330
E
102
}
330
E
  0
SCALE
  5
48
102
{ACAD_REACTORS
330
47
102
}
330
47
100
AcDbScale
 70
     0
300
1:1
140
1.0
141
1.0
290
     1
  0
SCALE
  5
49
102
{ACAD_REACTORS
330
47
102
}
330
47
100
AcDbScale
 70
     0
300
1:2
140
1.0
141
2.0
290
     0
  0
SCALE
  5
4A
102
{ACAD_REACTORS
330
47
102
}
330
47
100
AcDbScale
 70
     0
300
1:4
140
1.0
141
4.0
290
     0
  0
SCALE
  5
4B
102
{ACAD_REACTORS
330
47
102
}
330
47
100
AcDbScale
 70
     0
300
1:5
140
1.0
141
5.0
290
     0
  0
SCALE
  5
4C
102
{ACAD_REACTORS
330
47
102
}
330
47
100
AcDbScale
 70
     0
300
1:8
140
1.0
141
8.0
290
     0
  0
SCALE
  5
4D
102
{ACAD_REACTORS
330
47
102
}
330
47
100
AcDbScale
 70
     0
300
1:10
140
1.0
141
10.0
290
     0
  0
SCALE
  5
4E
102
{ACAD_REACTORS
330
47
102
}
330
47
100
AcDbScale
 70
     0
300
1:16
140
1.0
141
16.0
290
     0
  0
SCALE
  5
4F
102
{ACAD_REACTORS
330
47
102
}
330
47
100
AcDbScale
 70
     0
300
1:20
140
1.0
141
20.0
290
     0
  0
SCALE
  5
50
102
{ACAD_REACTORS
330
47
102
}
330
47
100
AcDbScale
 70
     0
300
1:30
140
1.0
141
30.0
290
     0
  0
SCALE
  5
51
102
{ACAD_REACTORS
330
47
102
}
330
47
100
AcDbScale
 70
     0
300
1:40
140
1.0
141
40.0
290
     0
  0
SCALE
  5
52
102
{ACAD_REACTORS
330
47
102
}
330
47
100
AcDbScale
 70
     0
300
1:50
140
1.0
141
50.0
290
     0
  0
SCALE
  5
53
102
{ACAD_REACTORS
330
47
102
}
330
47
100
AcDbScale
 70
     0
300
1:100
140
1.0
141
100.0
290
     0
  0
SCALE
  5
54
102
{ACAD_REACTORS
330
47
102
}
330
47
100
AcDbScale
 70
     0
300
2:1
140
2.0
141
1.0
290
     0
  0
SCALE
  5
55
102
{ACAD_REACTORS
330
47
102
}
330
47
100
AcDbScale
 70
     0
300
4:1
140
4.0
141
1.0
290
     0
  0
SCALE
  5
56
102
{ACAD_REACTORS
330
47
102
}
330
47
100
AcDbScale
 70
     0
300
8:1
140
8.0
141
1.0
290
     0
  0
SCALE
  5
57
102
{ACAD_REACTORS
330
47
102
}
330
47
100
AcDbScale
 70
     0
300
10:1
140
10.0
141
1.0
290
     0
  0
SCALE
  5
58
102
{ACAD_REACTORS
330
47
102
}
330
47
100
AcDbScale
 70
     0
300
100:1
140
100.0
141
1.0
290
     0
  0
ENDSEC
  0
EOF
