  0
SECTION
  2
HEADER
  9
$ACADVER
  1
AC1015
  9
$ACADMAINTVER
 70
     6
  9
$DWGCODEPAGE
  3
DOS932
  9
$INSBASE
 10
0.0
 20
0.0
 30
0.0
  9
$EXTMIN
 10
0.0
 20
0.0
 30
0.0
  9
$EXTMAX
 10
210.0
 20
297.0
 30
0.0
  9
$LIMMIN
 10
0.0
 20
0.0
  9
$LIMMAX
 10
210.0
 20
297.0
  9
$ORTHOMODE
 70
     0
  9
$REGENMODE
 70
     1
  9
$FILLMODE
 70
     1
  9
$QTEXTMODE
 70
     0
  9
$MIRRTEXT
 70
     1
  9
$LTSCALE
 40
1.0
  9
$ATTMODE
 70
     1
  9
$TEXTSIZE
 40
3.5277777778
  9
$TRACEWID
 40
1.0
  9
$TEXTSTYLE
  7
Standard
  9
$CLAYER
  8
0
  9
$CELTYPE
  6
ByLayer
  9
$CECOLOR
 62
   256
  9
$CELTSCALE
 40
1.0
  9
$DISPSILH
 70
     0
  9
$DIMSCALE
 40
1.0
  9
$DIMASZ
 40
1.5
  9
$DIMEXO
 40
1.0
  9
$DIMDLI
 40
3.75
  9
$DIMRND
 40
0.0
  9
$DIMDLE
 40
0.0
  9
$DIMEXE
 40
1.0
  9
$DIMTP
 40
0.0
  9
$DIMTM
 40
0.0
  9
$DIMTXT
 40
3.5277777778
  9
$DIMCEN
 40
2.5
  9
$DIMTSZ
 40
0.0
  9
$DIMTOL
 70
     0
  9
$DIMLIM
 70
     0
  9
$DIMTIH
 70
     1
  9
$DIMTOH
 70
     1
  9
$DIMSE1
 70
     0
  9
$DIMSE2
 70
     0
  9
$DIMTAD
 70
     1
  9
$DIMZIN
 70
     0
  9
$DIMBLK
  1

  9
$DIMASO
 70
     1
  9
$DIMSHO
 70
     1
  9
$DIMPOST
  1

  9
$DIMAPOST
  1

  9
$DIMALT
 70
     0
  9
$DIMALTD
 70
     3
  9
$DIMALTF
 40
0.0393700787
  9
$DIMLFAC
 40
1.0
  9
$DIMTOFL
 70
     1
  9
$DIMTVP
 40
0.0
  9
$DIMTIX
 70
     0
  9
$DIMSOXD
 70
     0
  9
$DIMSAH
 70
     0
  9
$DIMBLK1
  1

  9
$DIMBLK2
  1

  9
$DIMSTYLE
  2
ISO-25
  9
$DIMCLRD
 70
     0
  9
$DIMCLRE
 70
     0
  9
$DIMCLRT
 70
     0
  9
$DIMTFAC
 40
1.0
  9
$DIMGAP
 40
1.5
  9
$DIMJUST
 70
     0
  9
$DIMSD1
 70
     0
  9
$DIMSD2
 70
     0
  9
$DIMTOLJ
 70
     0
  9
$DIMTZIN
 70
     0
  9
$DIMALTZ
 70
     0
  9
$DIMALTTZ
 70
     0
  9
$DIMUPT
 70
     0
  9
$DIMDEC
 70
     1
  9
$DIMTDEC
 70
     1
  9
$DIMALTU
 70
     2
  9
$DIMALTTD
 70
     3
  9
$DIMTXSTY
  7
Standard
  9
$DIMAUNIT
 70
     0
  9
$DIMADEC
 70
     2
  9
$DIMALTRND
 40
0.0
  9
$DIMAZIN
 70
     0
  9
$DIMDSEP
 70
    44
  9
$DIMATFIT
 70
     3
  9
$DIMFRAC
 70
     0
  9
$DIMLDRBLK
  1

  9
$DIMLUNIT
 70
     2
  9
$DIMLWD
 70
    -2
  9
$DIMLWE
 70
    -2
  9
$DIMTMOVE
 70
     0
  9
$LUNITS
 70
     2
  9
$LUPREC
 70
     2
  9
$SKETCHINC
 40
1.0
  9
$FILLETRAD
 40
0.0
  9
$AUNITS
 70
     0
  9
$AUPREC
 70
     2
  9
$MENU
  1
.
  9
$ELEVATION
 40
0.0
  9
$PELEVATION
 40
0.0
  9
$THICKNESS
 40
0.0
  9
$LIMCHECK
 70
     0
  9
$CHAMFERA
 40
0.0
  9
$CHAMFERB
 40
0.0
  9
$CHAMFERC
 40
0.0
  9
$CHAMFERD
 40
0.0
  9
$SKPOLY
 70
     0
  9
$TDCREATE
 40
2460334.715751979
  9
$TDUCREATE
 40
2460334.340751979
  9
$TDUPDATE
 40
2460334.7157522
  9
$TDUUPDATE
 40
2460334.3407522
  9
$TDINDWG
 40
0.0000000116
  9
$TDUSRTIMER
 40
0.0000000116
  9
$USRTIMER
 70
     1
  9
$ANGBASE
 50
0.0
  9
$ANGDIR
 70
     0
  9
$PDMODE
 70
     0
  9
$PDSIZE
 40
-1.0
  9
$PLINEWID
 40
0.0
  9
$SPLFRAME
 70
     0
  9
$SPLINETYPE
 70
     6
  9
$SPLINESEGS
 70
     8
  9
$HANDSEED
  5
76
  9
$SURFTAB1
 70
     6
  9
$SURFTAB2
 70
     6
  9
$SURFTYPE
 70
     6
  9
$SURFU
 70
     6
  9
$SURFV
 70
     6
  9
$UCSBASE
  2

  9
$UCSNAME
  2

  9
$UCSORG
 10
0.0
 20
0.0
 30
0.0
  9
$UCSXDIR
 10
1.0
 20
0.0
 30
0.0
  9
$UCSYDIR
 10
0.0
 20
1.0
 30
0.0
  9
$UCSORTHOREF
  2

  9
$UCSORTHOVIEW
 70
     0
  9
$UCSORGTOP
 10
0.0
 20
0.0
 30
0.0
  9
$UCSORGBOTTOM
 10
0.0
 20
0.0
 30
0.0
  9
$UCSORGLEFT
 10
0.0
 20
0.0
 30
0.0
  9
$UCSORGRIGHT
 10
0.0
 20
0.0
 30
0.0
  9
$UCSORGFRONT
 10
0.0
 20
0.0
 30
0.0
  9
$UCSORGBACK
 10
0.0
 20
0.0
 30
0.0
  9
$PUCSBASE
  2

  9
$PUCSNAME
  2

  9
$PUCSORG
 10
0.0
 20
0.0
 30
0.0
  9
$PUCSXDIR
 10
1.0
 20
0.0
 30
0.0
  9
$PUCSYDIR
 10
0.0
 20
1.0
 30
0.0
  9
$PUCSORTHOREF
  2

  9
$PUCSORTHOVIEW
 70
     0
  9
$PUCSORGTOP
 10
0.0
 20
0.0
 30
0.0
  9
$PUCSORGBOTTOM
 10
0.0
 20
0.0
 30
0.0
  9
$PUCSORGLEFT
 10
0.0
 20
0.0
 30
0.0
  9
$PUCSORGRIGHT
 10
0.0
 20
0.0
 30
0.0
  9
$PUCSORGFRONT
 10
0.0
 20
0.0
 30
0.0
  9
$PUCSORGBACK
 10
0.0
 20
0.0
 30
0.0
  9
$USERI1
 70
     0
  9
$USERI2
 70
     0
  9
$USERI3
 70
     0
  9
$USERI4
 70
     0
  9
$USERI5
 70
     0
  9
$USERR1
 40
0.0
  9
$USERR2
 40
0.0
  9
$USERR3
 40
0.0
  9
$USERR4
 40
0.0
  9
$USERR5
 40
0.0
  9
$WORLDVIEW
 70
     1
  9
$SHADEDGE
 70
     3
  9
$SHADEDIF
 70
    70
  9
$TILEMODE
 70
     1
  9
$MAXACTVP
 70
    64
  9
$PINSBASE
 10
0.0
 20
0.0
 30
0.0
  9
$PLIMCHECK
 70
     0
  9
$PEXTMIN
 10
1.0000000000E+20
 20
1.0000000000E+20
 30
1.0000000000E+20
  9
$PEXTMAX
 10
-1.0000000000E+20
 20
-1.0000000000E+20
 30
-1.0000000000E+20
  9
$PLIMMIN
 10
0.0
 20
0.0
  9
$PLIMMAX
 10
420.0
 20
297.0
  9
$UNITMODE
 70
     0
  9
$VISRETAIN
 70
     1
  9
$PLINEGEN
 70
     0
  9
$PSLTSCALE
 70
     1
  9
$TREEDEPTH
 70
  3020
  9
$CMLSTYLE
  2
Standard
  9
$CMLJUST
 70
     0
  9
$CMLSCALE
 40
20.0
  9
$PROXYGRAPHICS
 70
     1
  9
$MEASUREMENT
 70
     1
  9
$CELWEIGHT
370
    -1
  9
$ENDCAPS
280
     0
  9
$JOINSTYLE
280
     0
  9
$LWDISPLAY
290
     1
  9
$INSUNITS
 70
     4
  9
$HYPERLINKBASE
  1

  9
$STYLESHEET
  1

  9
$XEDIT
290
     1
  9
$CEPSNTYPE
380
     0
  9
$PSTYLEMODE
290
     1
  9
$FINGERPRINTGUID
  2
{303cc74e-25c2-4788-8f8a-45361218eb0e}
  9
$VERSIONGUID
  2
{FAEB1C32-E019-11D5-929B-00C0DF256EC4}
  9
$EXTNAMES
290
     1
  9
$PSVPSCALE
 40
0.0
  9
$OLESTARTUP
290
     0
  0
ENDSEC
  0
SECTION
  2
CLASSES
  0
CLASS
  1
ACDBDICTIONARYWDFLT
  2
AcDbDictionaryWithDefault
  3
ObjectDBX Classes
 90
        0
280
     0
281
     0
  0
CLASS
  1
VISUALSTYLE
  2
AcDbVisualStyle
  3
ObjectDBX Classes
 90
     4095
280
     0
281
     0
  0
CLASS
  1
MATERIAL
  2
AcDbMaterial
  3
ObjectDBX Classes
 90
     1153
280
     0
281
     0
  0
CLASS
  1
SCALE
  2
AcDbScale
  3
ObjectDBX Classes
 90
     1153
280
     0
281
     0
  0
CLASS
  1
TABLESTYLE
  2
AcDbTableStyle
  3
ObjectDBX Classes
 90
     4095
280
     0
281
     0
  0
CLASS
  1
MLEADERSTYLE
  2
AcDbMLeaderStyle
  3
ACDB_MLEADERSTYLE_CLASS
 90
     4095
280
     0
281
     0
  0
CLASS
  1
SUN
  2
AcDbSun
  3
SCENEOE
 90
     1153
280
     0
281
     0
  0
CLASS
  1
ACDBPLACEHOLDER
  2
AcDbPlaceHolder
  3
ObjectDBX Classes
 90
        0
280
     0
281
     0
  0
CLASS
  1
LAYOUT
  2
AcDbLayout
  3
ObjectDBX Classes
 90
        0
280
     0
281
     0
  0
ENDSEC
  0
SECTION
  2
TABLES
  0
TABLE
  2
VPORT
  5
8
330
0
100
AcDbSymbolTable
 70
     1
  0
VPORT
  5
29
330
8
100
AcDbSymbolTableRecord
100
AcDbViewportTableRecord
  2
*Active
 70
     0
 10
0.0
 20
0.0
 11
1.0
 21
1.0
 12
105.0
 22
148.5
 13
0.0
 23
0.0
 14
10.0
 24
10.0
 15
10.0
 25
10.0
 16
0.0
 26
0.0
 36
1.0
 17
0.0
 27
0.0
 37
0.0
 40
297.0
 41
0.7070707071
 42
50.0
 43
0.0
 44
0.0
 50
0.0
 51
0.0
 71
     0
 72
  2000
 73
     1
 74
     3
 75
     0
 76
     0
 77
     0
 78
     0
281
     0
 65
     1
110
0.0
120
0.0
130
0.0
111
1.0
121
0.0
131
0.0
112
0.0
122
1.0
132
0.0
 79
     0
146
0.0
  0
ENDTAB
  0
TABLE
  2
LTYPE
  5
5
330
0
100
AcDbSymbolTable
 70
     6
  0
LTYPE
  5
14
330
5
100
AcDbSymbolTableRecord
100
AcDbLinetypeTableRecord
  2
ByBlock
 70
     0
  3

 72
    65
 73
     0
 40
0.0
  0
LTYPE
  5
15
330
5
100
AcDbSymbolTableRecord
100
AcDbLinetypeTableRecord
  2
ByLayer
 70
     0
  3

 72
    65
 73
     0
 40
0.0
  0
LTYPE
  5
16
330
5
100
AcDbSymbolTableRecord
100
AcDbLinetypeTableRecord
  2
Continuous
 70
     0
  3
Solid line
 72
    65
 73
     0
 40
0.0
  0
LTYPE
  5
5E
330
5
100
AcDbSymbolTableRecord
100
AcDbLinetypeTableRecord
  2
HIDDEN
 70
     0
  3
Hidden __ __ __ __ __ __ __ __ __ __ __ __ __ __
 72
    65
 73
     2
 40
1.905
 49
1.27
 74
     0
 49
-0.635
 74
     0
  0
LTYPE
  5
5F
330
5
100
AcDbSymbolTableRecord
100
AcDbLinetypeTableRecord
  2
PHANTOM
 70
     0
  3
Phantom ______  __  __  ______  __  __  ______
 72
    65
 73
     6
 40
12.7
 49
6.35
 74
     0
 49
-1.27
 74
     0
 49
1.27
 74
     0
 49
-1.27
 74
     0
 49
1.27
 74
     0
 49
-1.27
 74
     0
  0
LTYPE
  5
60
330
5
100
AcDbSymbolTableRecord
100
AcDbLinetypeTableRecord
  2
CENTER
 70
     0
  3
Center ____ _ ____ _ ____ _ ____ _ ____ _ ____
 72
    65
 73
     4
 40
10.16
 49
6.35
 74
     0
 49
-1.27
 74
     0
 49
1.27
 74
     0
 49
-1.27
 74
     0
  0
LTYPE
  5
61
330
5
100
AcDbSymbolTableRecord
100
AcDbLinetypeTableRecord
  2
CENTERX2
 70
     0
  3
Center (2x) ________  __  ________  __  _____
 72
    65
 73
     4
 40
20.32
 49
12.7
 74
     0
 49
-2.54
 74
     0
 49
2.54
 74
     0
 49
-2.54
 74
     0
  0
LTYPE
  5
62
330
5
100
AcDbSymbolTableRecord
100
AcDbLinetypeTableRecord
  2
DOT2
 70
     0
  3
Dot (.5x) ........................................
 72
    65
 73
     2
 40
0.635
 49
0.0
 74
     0
 49
-0.635
 74
     0
  0
ENDTAB
  0
TABLE
  2
LAYER
  5
2
330
0
100
AcDbSymbolTable
 70
     2
  0
LAYER
  5
10
330
2
100
AcDbSymbolTableRecord
100
AcDbLayerTableRecord
  2
0
 70
     0
 62
     7
  6
Continuous
370
    -3
390
F
  0
LAYER
  5
63
330
2
100
AcDbSymbolTableRecord
100
AcDbLayerTableRecord
  2
FORMAT
 70
     0
 62
     7
  6
Continuous
370
    -3
390
F
  0
ENDTAB
  0
TABLE
  2
STYLE
  5
3
330
0
100
AcDbSymbolTable
 70
     2
  0
STYLE
  5
11
330
3
100
AcDbSymbolTableRecord
100
AcDbTextStyleTableRecord
  2
Standard
 70
     0
 40
0.0
 41
1.0
 50
0.0
 71
     0
 42
3.5277777778
  3
txt
  4
bigfont
  0
STYLE
  5
64
330
3
100
AcDbSymbolTableRecord
100
AcDbTextStyleTableRecord
  2
SLDTEXTSTYLE0
 70
     0
 40
0.0
 41
0.7
 50
0.0
 71
     0
 42
3.5277777778
  3
TXT
  4
bigfont
  0
ENDTAB
  0
TABLE
  2
VIEW
  5
6
330
0
100
AcDbSymbolTable
 70
     0
  0
ENDTAB
  0
TABLE
  2
UCS
  5
7
330
0
100
AcDbSymbolTable
 70
     0
  0
ENDTAB
  0
TABLE
  2
APPID
  5
9
330
0
100
AcDbSymbolTable
 70
     1
  0
APPID
  5
12
330
9
100
AcDbSymbolTableRecord
100
AcDbRegAppTableRecord
  2
ACAD
 70
     0
  0
ENDTAB
  0
TABLE
  2
DIMSTYLE
  5
A
330
0
100
AcDbSymbolTable
 70
     1
100
AcDbDimStyleTable
  0
DIMSTYLE
105
27
330
A
100
AcDbSymbolTableRecord
100
AcDbDimStyleTableRecord
  2
ISO-25
 70
     0
 41
2.5
 42
0.625
 43
3.75
 44
1.25
 73
     0
 74
     0
 77
     1
 78
     8
140
2.5
141
2.5
143
0.0393700787
147
0.625
171
     3
172
     1
178
     0
271
     2
272
     2
274
     3
278
    44
283
     0
284
     8
340
11
  0
ENDTAB
  0
TABLE
  2
BLOCK_RECORD
  5
1
330
0
100
AcDbSymbolTable
 70
     1
  0
BLOCK_RECORD
  5
1F
330
1
100
AcDbSymbolTableRecord
100
AcDbBlockTableRecord
  2
*Model_Space
340
22
  0
BLOCK_RECORD
  5
1B
330
1
100
AcDbSymbolTableRecord
100
AcDbBlockTableRecord
  2
*Paper_Space
340
1E
  0
BLOCK_RECORD
  5
23
330
1
100
AcDbSymbolTableRecord
100
AcDbBlockTableRecord
  2
*Paper_Space0
340
26
  0
ENDTAB
  0
ENDSEC
  0
SECTION
  2
BLOCKS
  0
BLOCK
  5
20
330
1F
100
AcDbEntity
  8
0
100
AcDbBlockBegin
  2
*Model_Space
 70
     0
 10
0.0
 20
0.0
 30
0.0
  3
*Model_Space
  1

  0
ENDBLK
  5
21
330
1F
100
AcDbEntity
  8
0
100
AcDbBlockEnd
  0
BLOCK
  5
1C
330
1B
100
AcDbEntity
 67
     1
  8
0
100
AcDbBlockBegin
  2
*Paper_Space
 70
     0
 10
0.0
 20
0.0
 30
0.0
  3
*Paper_Space
  1

  0
ENDBLK
  5
1D
330
1B
100
AcDbEntity
 67
     1
  8
0
100
AcDbBlockEnd
  0
BLOCK
  5
24
330
23
100
AcDbEntity
  8
0
100
AcDbBlockBegin
  2
*Paper_Space0
 70
     0
 10
0.0
 20
0.0
 30
0.0
  3
*Paper_Space0
  1

  0
ENDBLK
  5
25
330
23
100
AcDbEntity
  8
0
100
AcDbBlockEnd
  0
ENDSEC
  0
SECTION
  2
ENTITIES
  0
MTEXT
  5
65
330
1F
100
AcDbEntity
  8
0
  6
Continuous
 62
     7
370
     0
100
AcDbMText
 10
138.8914125
 20
108.2433305433
 30
0.0
 40
2.6458333333
 41
0.0
 71
     1
 72
     1
  1
HOA-D60BK/H/G
  7
SLDTEXTSTYLE0
 73
     1
 44
1.0
  0
SPLINE
  5
66
330
1F
100
AcDbEntity
  8
0
  6
Continuous
 62
     7
370
    25
100
AcDbSpline
210
0.0
220
0.0
230
1.0
 70
     8
 71
     3
 72
    43
 73
    39
 74
     0
 42
0.00000001
 43
0.00000001
 40
0.0
 40
0.0
 40
0.0
 40
0.0
 40
0.0036763071694794
 40
0.0296465948868343
 40
0.0552118412659942
 40
0.0807507282051303
 40
0.1066244879137104
 40
0.1331857090984379
 40
0.1606207542794097
 40
0.1889071888087004
 40
0.2178447418009369
 40
0.2471632628163737
 40
0.2766326777242313
 40
0.3060896826133775
 40
0.3354692913425818
 40
0.3647555945506297
 40
0.39395044073059
 40
0.4230628042854138
 40
0.4521036355556419
 40
0.4810836051482758
 40
0.510012251064208
 40
0.5388977648148078
 40
0.5677470473109736
 40
0.5965658627951393
 40
0.6253590143059212
 40
0.6541305090235837
 40
0.6828837024671588
 40
0.7116214196218668
 40
0.740346054784684
 40
0.7690596531496786
 40
0.7977639773032175
 40
0.8264605615143441
 40
0.8551507562877453
 40
0.8838357652259119
 40
0.9125166758752724
 40
0.9411944859224367
 40
0.9698701258616125
 40
1.0
 40
1.0
 40
1.0
 40
1.0
 10
153.9817511875704
 20
177.6557564566175
 30
0.0
 10
153.9897742034909
 20
177.6870853929603
 30
0.0
 10
154.0544736673276
 20
177.9397292121993
 30
0.0
 10
154.073305685903
 20
178.4236801121498
 30
0.0
 10
154.0307303817005
 20
179.0939549852166
 30
0.0
 10
153.874242456485
 20
179.7537836631706
 30
0.0
 10
153.6190901148907
 20
180.4021653795863
 30
0.0
 10
153.2610321487499
 20
181.0420368330693
 30
0.0
 10
152.7979045960894
 20
181.6752593988015
 30
0.0
 10
152.2265696646308
 20
182.3015656149168
 30
0.0
 10
151.5466439569123
 20
182.9184957794022
 30
0.0
 10
150.7606434109703
 20
183.5226805116622
 30
0.0
 10
149.8731992794951
 20
184.1110446810403
 30
0.0
 10
148.8892842227175
 20
184.6816448346827
 30
0.0
 10
147.8132095542105
 20
185.2335730723017
 30
0.0
 10
146.6482254789024
 20
185.7666023540334
 30
0.0
 10
145.3970582885894
 20
186.2806518757523
 30
0.0
 10
144.0622901997811
 20
186.775569326928
 30
0.0
 10
142.6465217314293
 20
187.2510891203502
 30
0.0
 10
141.1524637129959
 20
187.7068368612881
 30
0.0
 10
139.582983913177
 20
188.1423506118743
 30
0.0
 10
137.941127084433
 20
188.557105470568
 30
0.0
 10
136.2301201358691
 20
188.9505362119164
 30
0.0
 10
134.4533691861101
 20
189.3220564384392
 30
0.0
 10
132.6144522646788
 20
189.671074191856
 30
0.0
 10
130.7171097292073
 20
189.9970044771763
 30
0.0
 10
128.7652335193943
 20
190.2992792737334
 30
0.0
 10
126.7628558466663
 20
190.5773555018337
 30
0.0
 10
124.714137633753
 20
190.8307215472719
 30
0.0
 10
122.6233568593425
 20
191.0589020259877
 30
0.0
 10
120.4948968933339
 20
191.261463487994
 30
0.0
 10
118.3332348134883
 20
191.4380121544083
 30
0.0
 10
116.1429298631179
 20
191.588217792722
 30
0.0
 10
113.9286114884666
 20
191.7117371562145
 30
0.0
 10
111.694969043847
 20
191.8085097306602
 30
0.0
 10
109.4467353534331
 20
191.8776622585019
 30
0.0
 10
107.1504890073171
 20
191.9223461946276
 30
0.0
 10
105.6033579566156
 20
191.9279939818613
 30
0.0
 10
104.8106625
 20
191.9308877091109
 30
0.0
  0
SPLINE
  5
67
330
1F
100
AcDbEntity
  8
0
  6
Continuous
 62
     7
370
    25
100
AcDbSpline
210
0.0
220
0.0
230
1.0
 70
     8
 71
     3
 72
    43
 73
    39
 74
     0
 42
0.00000001
 43
0.00000001
 40
0.0
 40
0.0
 40
0.0
 40
0.0
 40
0.0150931732328172
 40
0.0437727071639831
 40
0.0724547333360705
 40
0.1011382297826738
 40
0.1298240750500382
 40
0.1585131919363437
 40
0.1872065666509246
 40
0.2159052706266117
 40
0.2446104855455251
 40
0.2733235326250112
 40
0.3020459074342737
 40
0.3307793217980405
 40
0.3595257546958524
 40
0.3882875144801293
 40
0.4170673151844203
 40
0.4458683700952164
 40
0.4746945059236019
 40
0.5035503004095663
 40
0.5324412441076759
 40
0.5613739215178789
 40
0.5903561936430465
 40
0.6193973352027142
 40
0.6485080181081135
 40
0.6776999040274473
 40
0.7069843461365207
 40
0.7363691859017132
 40
0.7658517115150405
 40
0.7954045536431203
 40
0.8249164176536529
 40
0.8541858352639905
 40
0.8829251548725507
 40
0.9108399051064299
 40
0.9377928612151692
 40
0.9639083559270629
 40
0.9895292164758359
 40
1.0
 40
1.0
 40
1.0
 40
1.0
 10
104.8106625
 20
191.9308877091109
 30
0.0
 10
104.4137091641047
 20
191.9301264887031
 30
0.0
 10
103.2624786135848
 20
191.927918823192
 30
0.0
 10
101.3583510077053
 20
191.9033892279834
 30
0.0
 10
99.10458864861972
 20
191.8483780244316
 30
0.0
 10
96.86293095481476
 20
191.7658413415598
 30
0.0
 10
94.6382149479873
 20
191.6564171517268
 30
0.0
 10
92.4351519961378
 20
191.5201994771689
 30
0.0
 10
90.25841173453608
 20
191.3574943081099
 30
0.0
 10
88.112598179413
 20
191.1686156832099
 30
0.0
 10
86.00224157666932
 20
190.9539382076308
 30
0.0
 10
83.93178602873508
 20
190.7138803172201
 30
0.0
 10
81.90557823531645
 20
190.448905478436
 30
0.0
 10
79.9278558994655
 20
190.159517826602
 30
0.0
 10
78.00273616694014
 20
189.8462583643048
 30
0.0
 10
76.13420398267779
 20
189.5096998392102
 30
0.0
 10
74.3261003900534
 20
189.1504404783101
 30
0.0
 10
72.5821107907923
 20
188.7690960840035
 30
0.0
 10
70.90575324987799
 20
188.3662900131685
 30
0.0
 10
69.3003670396661
 20
187.9426403335887
 30
0.0
 10
67.7691018318134
 20
187.4987432184524
 30
0.0
 10
66.31490834507365
 20
187.0351513315767
 30
0.0
 10
64.94053199339025
 20
186.5523456205817
 30
0.0
 10
63.64851243232113
 20
186.050698685653
 30
0.0
 10
62.44119432420835
 20
185.5304280673071
 30
0.0
 10
61.32075899882367
 20
184.9915392905125
 30
0.0
 10
60.28929364346676
 20
184.4337633700327
 30
0.0
 10
59.34892601947287
 20
183.8565064313365
 30
0.0
 10
58.50205990562429
 20
183.258857758221
 30
0.0
 10
57.75204125129832
 20
182.6399986943262
 30
0.0
 10
57.10342289418049
 20
181.9997919646448
 30
0.0
 10
56.56191145451328
 20
181.3397153366488
 30
0.0
 10
56.13296898680125
 20
180.6635294743547
 30
0.0
 10
55.82113255740915
 20
179.9775661411617
 30
0.0
 10
55.6245857643336
 20
179.2892034364567
 30
0.0
 10
55.54860711392978
 20
178.606467909986
 30
0.0
 10
55.55642641819066
 20
178.0620184992727
 30
0.0
 10
55.6243696738595
 20
177.7527337679061
 30
0.0
 10
55.64408113728293
 20
177.66300514643
 30
0.0
  0
LINE
  5
68
330
1F
100
AcDbEntity
  8
0
  6
Continuous
 62
     7
370
    25
100
AcDbLine
 10
55.6297194468
 20
177.6727742145
 30
0.0
 11
60.0846579678
 21
153.2957070555
 31
0.0
  0
LINE
  5
69
330
1F
100
AcDbEntity
  8
0
  6
Continuous
 62
     7
370
    25
100
AcDbLine
 10
149.5366670322
 20
153.2957070555
 30
0.0
 11
153.9916055532
 21
177.6727742145
 31
0.0
  0
LINE
  5
6A
330
1F
100
AcDbEntity
  8
0
  6
Continuous
 62
     7
370
    25
100
AcDbLine
 10
146.6180181344
 20
143.7882881858
 30
0.0
 11
143.5019762262
 21
148.010486667
 31
0.0
  0
LINE
  5
6B
330
1F
100
AcDbEntity
  8
0
  6
Continuous
 62
     7
370
    25
100
AcDbLine
 10
66.1193487738
 20
148.010486667
 30
0.0
 11
63.0033068656
 21
143.7882881858
 31
0.0
  0
LINE
  5
6C
330
1F
100
AcDbEntity
  8
0
  6
Continuous
 62
     7
370
    25
100
AcDbLine
 10
62.2949882012
 20
141.2009568612
 30
0.0
 11
63.1669341575
 21
136.4297383507
 31
0.0
  0
LINE
  5
6D
330
1F
100
AcDbEntity
  8
0
  6
Continuous
 62
     7
370
    25
100
AcDbLine
 10
146.4543908425
 20
136.4297383507
 30
0.0
 11
147.3263367988
 21
141.2009568612
 31
0.0
  0
SPLINE
  5
6E
330
1F
100
AcDbEntity
  8
0
  6
Continuous
 62
     7
370
    25
100
AcDbSpline
210
0.0
220
0.0
230
1.0
 70
     8
 71
     3
 72
    23
 73
    19
 74
     0
 42
0.00000001
 43
0.00000001
 40
0.0
 40
0.0
 40
0.0
 40
0.0
 40
0.0618344595861915
 40
0.1387614262931534
 40
0.2112325428661425
 40
0.2800093756850504
 40
0.3455227376102125
 40
0.4083284440425003
 40
0.4690279815690429
 40
0.5282379886790028
 40
0.5865785558172617
 40
0.6446711982196238
 40
0.7031058049957267
 40
0.7623348189918706
 40
0.8229987383433054
 40
0.8857531949912695
 40
0.9512815769661006
 40
1.0
 40
1.0
 40
1.0
 40
1.0
 10
134.083523075306
 20
118.796355958886
 30
0.0
 10
134.4547560472263
 20
119.0015289433427
 30
0.0
 10
135.2878322480283
 20
119.46195337578
 30
0.0
 10
136.5153848321383
 20
120.2447599941506
 30
0.0
 10
137.7442821719304
 20
121.1317148427444
 30
0.0
 10
138.8660767290668
 20
122.0548227434511
 30
0.0
 10
139.8913399671232
 20
123.0137421190333
 30
0.0
 10
140.8277309340436
 20
124.0095739768444
 30
0.0
 10
141.6830485909874
 20
125.0444542381854
 30
0.0
 10
142.4643036405022
 20
126.1217873710238
 30
0.0
 10
143.1775755540403
 20
127.2459732028851
 30
0.0
 10
143.827797719889
 20
128.4221630929039
 30
0.0
 10
144.4183840483338
 20
129.655170065327
 30
0.0
 10
144.9520256768435
 20
130.9505554479346
 30
0.0
 10
145.4312911512506
 20
132.3149330955593
 30
0.0
 10
145.8569696052573
 20
133.7576394555935
 30
0.0
 10
146.1959986163839
 20
135.1306633779247
 30
0.0
 10
146.3744582852331
 20
136.0269722770931
 30
0.0
 10
146.4505590885844
 20
136.4091865203307
 30
0.0
  0
SPLINE
  5
6F
330
1F
100
AcDbEntity
  8
0
  6
Continuous
 62
     7
370
    25
100
AcDbSpline
210
0.0
220
0.0
230
1.0
 70
     8
 71
     3
 72
    23
 73
    19
 74
     0
 42
0.00000001
 43
0.00000001
 40
0.0
 40
0.0
 40
0.0
 40
0.0
 40
0.0463131122681936
 40
0.1167211147797587
 40
0.1837403506663388
 40
0.2479759454809101
 40
0.3102752577296412
 40
0.3714412992379375
 40
0.4322493935114197
 40
0.4934323759541996
 40
0.5555360859765295
 40
0.6193327069886615
 40
0.6856211284936851
 40
0.7552392307619014
 40
0.8290747058490279
 40
0.9080621410024775
 40
0.9854891803905381
 40
1.0
 40
1.0
 40
1.0
 40
1.0
 10
63.17076591141549
 20
136.4091865203307
 30
0.0
 10
63.24297756589377
 20
136.0458276574659
 30
0.0
 10
63.42496975769441
 20
135.1300686108038
 30
0.0
 10
63.77685064843143
 20
133.7046093630723
 30
0.0
 10
64.2364646810471
 20
132.1667911538573
 30
0.0
 10
64.75436564066642
 20
130.7258976941323
 30
0.0
 10
65.32993592881095
 20
129.3709951405012
 30
0.0
 10
65.96604531860162
 20
128.0909112500867
 30
0.0
 10
66.66633203599486
 20
126.8761564330276
 30
0.0
 10
67.43496770484738
 20
125.7199621956704
 30
0.0
 10
68.2772276974844
 20
124.6163987303581
 30
0.0
 10
69.19994752716522
 20
123.5600549312352
 30
0.0
 10
70.21287303549076
 20
122.5451775143111
 30
0.0
 10
71.3280920144915
 20
121.5670721936165
 30
0.0
 10
72.560212397058
 20
120.621955060671
 30
0.0
 10
73.88293801836991
 20
119.7375660131218
 30
0.0
 10
74.89571593398186
 20
119.1435246360187
 30
0.0
 10
75.45027435641494
 20
118.8436811311084
 30
0.0
 10
75.53780192469398
 20
118.796355958886
 30
0.0
  0
LWPOLYLINE
  5
70
330
1F
100
AcDbEntity
  8
0
  6
Continuous
 62
     7
370
    25
100
AcDbPolyline
 90
       62
 70
   128
 43
0.0
 10
149.5366670322
 20
153.2957070555
 10
149.49541959
 20
153.103755107
 10
149.2912424486
 20
152.5141903682
 10
148.9710205529
 20
151.9280929766
 10
148.5355893252
 20
151.3469919933
 10
147.9860847559
 20
150.7724034446
 10
147.3239404396
 20
150.2058263662
 10
146.5508838352
 20
149.6487388932
 10
145.6689317592
 20
149.102594403
 10
144.6803851239
 20
148.5688177244
 10
143.5878229345
 20
148.0488014198
 10
142.394095561
 20
147.5439021523
 10
141.1023173019
 20
147.0554371464
 10
139.7158582592
 20
146.5846807516
 10
138.2383355461
 20
146.1328611176
 10
136.6736038508
 20
145.7011569901
 10
135.0257453795
 20
145.2906946361
 10
133.299059207
 20
144.9025449048
 10
131.4980500602
 20
144.5377204346
 10
129.6274165663
 20
144.197173011
 10
127.6920389947
 20
143.8817910832
 10
125.6969665243
 20
143.5923974468
 10
123.6474040715
 20
143.3297470965
 10
121.5486987107
 20
143.0945252573
 10
119.4063257245
 20
142.8873455961
 10
117.2258743195
 20
142.7087486208
 10
115.0130330444
 20
142.5592002708
 10
112.7735749495
 20
142.4390907004
 10
110.5133425251
 20
142.3487332619
 10
108.2382324597
 20
142.2883636875
 10
105.9541802557
 20
142.2581394745
 10
103.6671447443
 20
142.2581394745
 10
101.3830925403
 20
142.2883636875
 10
99.1079824749
 20
142.3487332619
 10
96.8477500505
 20
142.4390907004
 10
94.6082919556
 20
142.5592002708
 10
92.3954506805
 20
142.7087486208
 10
90.2149992755
 20
142.8873455961
 10
88.0726262893
 20
143.0945252573
 10
85.9739209285
 20
143.3297470965
 10
83.9243584757
 20
143.5923974468
 10
81.9292860053
 20
143.8817910832
 10
79.9939084337
 20
144.197173011
 10
78.1232749398
 20
144.5377204346
 10
76.322265793
 20
144.9025449048
 10
74.5955796205
 20
145.2906946361
 10
72.9477211492
 20
145.7011569901
 10
71.3829894539
 20
146.1328611176
 10
69.9054667408
 20
146.5846807516
 10
68.5190076981
 20
147.0554371464
 10
67.227229439
 20
147.5439021523
 10
66.0335020655
 20
148.0488014198
 10
64.9409398761
 20
148.5688177244
 10
63.9523932408
 20
149.102594403
 10
63.0704411648
 20
149.6487388932
 10
62.2973845604
 20
150.2058263662
 10
61.6352402441
 20
150.7724034446
 10
61.0857356748
 20
151.3469919933
 10
60.6503044471
 20
151.9280929766
 10
60.3300825514
 20
152.5141903682
 10
60.12590541
 20
153.103755107
 10
60.0846579678
 20
153.2957070555
  0
LWPOLYLINE
  5
71
330
1F
100
AcDbEntity
  8
0
  6
Continuous
 62
     7
370
    25
100
AcDbPolyline
 90
       69
 70
   128
 43
0.0
 10
146.6180181344
 20
143.7882881858
 10
146.849845453
 20
143.4447425887
 10
147.140703457
 20
142.8729373269
 10
147.3155377611
 20
142.2979758749
 10
147.3738691565
 20
141.7214341621
 10
147.3155377611
 20
141.1448924494
 10
147.140703457
 20
140.5699309974
 10
146.849845453
 20
139.9981257355
 10
146.4437609706
 20
139.4310439423
 10
145.9235630592
 20
138.8702399494
 10
145.2906775451
 20
138.3172508817
 10
144.5468391235
 20
137.7735924437
 10
143.6940866038
 20
137.2407547655
 10
142.7347573214
 20
136.7201983181
 10
141.6714807311
 20
136.2133499104
 10
140.5071712002
 20
135.7215987789
 10
139.2450200202
 20
135.2462927791
 10
137.8884866598
 20
134.7887346917
 10
136.4412892825
 20
134.3501786517
 10
134.9073945559
 20
133.9318267107
 10
133.2910067787
 20
133.5348255423
 10
131.5965563574
 20
133.160263299
 10
129.828687663
 20
132.80916663
 10
127.9922463006
 20
132.4824978668
 10
126.0922658283
 20
132.1811523859
 10
124.1339539605
 20
131.9059561541
 10
122.122678294
 20
131.6576634653
 10
120.0639515956
 20
131.4369548724
 10
117.963416692
 20
131.2444353224
 10
115.8268310033
 20
131.080632498
 10
113.6600507626
 20
130.9459953713
 10
111.4690149637
 20
130.8408929733
 10
109.2597290836
 20
130.7656133825
 10
107.0382486211
 20
130.7203629348
 10
104.8106625
 20
130.7052656588
 10
102.5830763789
 20
130.7203629348
 10
100.3615959164
 20
130.7656133825
 10
98.1523100363
 20
130.8408929733
 10
95.9612742374
 20
130.9459953713
 10
93.7944939967
 20
131.080632498
 10
91.657908308
 20
131.2444353224
 10
89.5573734044
 20
131.4369548724
 10
87.498646706
 20
131.6576634653
 10
85.4873710395
 20
131.9059561541
 10
83.5290591717
 20
132.1811523859
 10
81.6290786994
 20
132.4824978668
 10
79.792637337
 20
132.80916663
 10
78.0247686426
 20
133.160263299
 10
76.3303182213
 20
133.5348255423
 10
74.7139304441
 20
133.9318267107
 10
73.1800357175
 20
134.3501786517
 10
71.7328383402
 20
134.7887346917
 10
70.3763049798
 20
135.2462927791
 10
69.1141537998
 20
135.7215987789
 10
67.9498442689
 20
136.2133499104
 10
66.8865676786
 20
136.7201983181
 10
65.9272383962
 20
137.2407547655
 10
65.0744858765
 20
137.7735924437
 10
64.3306474549
 20
138.3172508817
 10
63.6977619408
 20
138.8702399494
 10
63.1775640294
 20
139.4310439423
 10
62.771479547
 20
139.9981257355
 10
62.480621543
 20
140.5699309974
 10
62.3057872389
 20
141.1448924494
 10
62.2474558435
 20
141.7214341621
 10
62.3057872389
 20
142.2979758749
 10
62.480621543
 20
142.8729373269
 10
62.771479547
 20
143.4447425887
 10
63.0033068656
 20
143.7882881858
  0
LWPOLYLINE
  5
72
330
1F
100
AcDbEntity
  8
0
  6
Continuous
 62
     7
370
    25
100
AcDbPolyline
 90
       39
 70
   128
 43
0.0
 10
134.1113470347
 20
118.8113241498
 10
133.5879833337
 20
118.5415796386
 10
132.6235538498
 20
118.0990053169
 10
131.5576381415
 20
117.672309689
 10
130.3941256198
 20
117.2630497208
 10
129.1372618156
 20
116.8727187577
 10
127.7916328886
 20
116.5027410749
 10
126.3621488928
 20
116.1544666809
 10
124.8540258604
 20
115.8291663913
 10
123.2727667688
 20
115.5280271915
 10
121.6241414608
 20
115.2521479057
 10
119.9141655914
 20
115.0025351876
 10
118.1490786772
 20
114.7800998469
 10
116.3353213289
 20
114.5856535261
 10
114.4795117503
 20
114.4199057386
 10
112.5884215893
 20
114.2834612802
 10
110.668951229
 20
114.1768180219
 10
108.7281046083
 20
114.1003650935
 10
106.7729636662
 20
114.0543814633
 10
104.8106625
 20
114.0390349206
 10
102.8483613338
 20
114.0543814633
 10
100.8932203917
 20
114.1003650935
 10
98.952373771
 20
114.1768180219
 10
97.0329034107
 20
114.2834612802
 10
95.1418132497
 20
114.4199057386
 10
93.2860036711
 20
114.5856535261
 10
91.4722463228
 20
114.7800998469
 10
89.7071594086
 20
115.0025351876
 10
87.9971835392
 20
115.2521479057
 10
86.3485582312
 20
115.5280271915
 10
84.7672991396
 20
115.8291663913
 10
83.2591761072
 20
116.1544666809
 10
81.8296921114
 20
116.5027410749
 10
80.4840631844
 20
116.8727187577
 10
79.2271993802
 20
117.2630497208
 10
78.0636868585
 20
117.672309689
 10
76.9977711502
 20
118.0990053169
 10
76.0333416663
 20
118.5415796386
 10
75.5136896309
 20
118.8093230407
  0
LWPOLYLINE
  5
73
330
1F
100
AcDbEntity
  8
0
  6
Continuous
 62
     7
370
    25
100
AcDbPolyline
 90
       33
 70
   128
 43
0.0
 10
104.8106625
 20
165.5316521496
 10
102.4134830395
 20
165.5467648757
 10
100.0219894238
 20
165.5920672083
 10
97.6418540117
 20
165.6674516952
 10
95.2787222212
 20
165.7727395328
 10
92.9381991399
 20
165.90768099
 10
90.6258362301
 20
166.0719560005
 10
88.347118161
 20
166.2651749221
 10
86.1074498002
 20
166.486879461
 10
83.9121433935
 20
166.7365437584
 10
81.7664059653
 20
167.0135756383
 10
79.6753269675
 20
167.3173180115
 10
77.6438662087
 20
167.6470504348
 10
75.6768420892
 20
168.0019908192
 10
73.778920173
 20
168.3812972855
 10
71.9546021212
 20
168.7840701605
 10
70.2082150146
 20
169.2093541116
 10
68.5439010905
 20
169.6561404121
 10
66.9656079176
 20
170.1233693343
 10
65.4770790331
 20
170.6099326628
 10
64.0818450628
 20
171.1146763233
 10
62.7832153478
 20
171.6364031194
 10
61.5842700941
 20
172.1738755728
 10
60.4878530675
 20
172.7258188584
 10
59.496564848
 20
173.2909238275
 10
58.6127566618
 20
173.8678501136
 10
57.8385248042
 20
174.4552293114
 10
57.1757056676
 20
175.0516682222
 10
56.6258713859
 20
175.6557521589
 10
56.1903261051
 20
176.2660483011
 10
55.8701028907
 20
176.8811090938
 10
55.6659612765
 20
177.4994756807
 10
55.6313584353
 20
177.663871767
  0
LWPOLYLINE
  5
74
330
1F
100
AcDbEntity
  8
0
  6
Continuous
 62
     7
370
    25
100
AcDbPolyline
 90
       33
 70
   128
 43
0.0
 10
153.9889993154
 20
177.6586784724
 10
153.9553637235
 20
177.4994756807
 10
153.7512221093
 20
176.8811090938
 10
153.4309988949
 20
176.2660483011
 10
152.9954536141
 20
175.6557521589
 10
152.4456193324
 20
175.0516682222
 10
151.7828001958
 20
174.4552293114
 10
151.0085683382
 20
173.8678501136
 10
150.124760152
 20
173.2909238275
 10
149.1334719325
 20
172.7258188584
 10
148.0370549059
 20
172.1738755728
 10
146.8381096522
 20
171.6364031194
 10
145.5394799372
 20
171.1146763233
 10
144.1442459669
 20
170.6099326628
 10
142.6557170824
 20
170.1233693343
 10
141.0774239095
 20
169.6561404121
 10
139.4131099854
 20
169.2093541116
 10
137.6667228788
 20
168.7840701605
 10
135.842404827
 20
168.3812972855
 10
133.9444829108
 20
168.0019908192
 10
131.9774587913
 20
167.6470504348
 10
129.9459980325
 20
167.3173180115
 10
127.8549190347
 20
167.0135756383
 10
125.7091816065
 20
166.7365437584
 10
123.5138751998
 20
166.486879461
 10
121.274206839
 20
166.2651749221
 10
118.9954887699
 20
166.0719560005
 10
116.6831258601
 20
165.90768099
 10
114.3426027788
 20
165.7727395328
 10
111.9794709883
 20
165.6674516952
 10
109.5993355762
 20
165.5920672083
 10
107.2078419605
 20
165.5467648757
 10
104.8106625
 20
165.5316521496
  0
ENDSEC
  0
SECTION
  2
OBJECTS
  0
DICTIONARY
  5
C
330
0
100
AcDbDictionary
281
     1
  3
ACAD_GROUP
350
D
  3
ACAD_LAYOUT
350
1A
  3
ACAD_MLINESTYLE
350
17
  3
ACAD_PLOTSETTINGS
350
19
  3
ACAD_PLOTSTYLENAME
350
E
  3
ACAD_SCALELIST
350
47
  3
DWGPROPS
350
75
  0
DICTIONARY
  5
D
102
{ACAD_REACTORS
330
C
102
}
330
C
100
AcDbDictionary
281
     1
  0
DICTIONARY
  5
1A
102
{ACAD_REACTORS
330
C
102
}
330
C
100
AcDbDictionary
281
     1
  3
Layout1
350
1E
  3
Layout2
350
26
  3
Model
350
22
  0
DICTIONARY
  5
17
102
{ACAD_REACTORS
330
C
102
}
330
C
100
AcDbDictionary
281
     1
  3
Standard
350
18
  0
DICTIONARY
  5
19
102
{ACAD_REACTORS
330
C
102
}
330
C
100
AcDbDictionary
281
     1
  0
ACDBDICTIONARYWDFLT
  5
E
102
{ACAD_REACTORS
330
C
102
}
330
C
100
AcDbDictionary
281
     1
  3
Normal
350
F
100
AcDbDictionaryWithDefault
340
F
  0
DICTIONARY
  5
47
102
{ACAD_REACTORS
330
C
102
}
330
C
100
AcDbDictionary
281
     1
  3
A0
350
48
  3
A1
350
49
  3
A2
350
4A
  3
A3
350
4B
  3
A4
350
4C
  3
A5
350
4D
  3
A6
350
4E
  3
A7
350
4F
  3
A8
350
50
  3
A9
350
51
  3
B0
350
52
  3
B1
350
53
  3
B2
350
54
  3
B3
350
55
  3
B4
350
56
  3
B5
350
57
  3
B6
350
58
  0
XRECORD
  5
75
102
{ACAD_REACTORS
330
C
102
}
330
C
100
AcDbXrecord
280
     1
  1
DWGPROPS COOKIE
  2

  3

  4

  6

  7

  8
9128
  9

300
=
301
=
302
=
303
=
304
=
305
=
306
=
307
=
308
=
309
=
 40
0.0
 41
2460334.340751979
 42
2460334.3407522
  1

 90
        0
  0
LAYOUT
  5
1E
102
{ACAD_REACTORS
330
1A
102
}
330
1A
100
AcDbPlotSettings
  1

  2
none_device
  4

  6

 40
0.0
 41
0.0
 42
0.0
 43
0.0
 44
0.0
 45
0.0
 46
0.0
 47
0.0
 48
0.0
 49
0.0
140
0.0
141
0.0
142
1.0
143
1.0
 70
   688
 72
     1
 73
     0
 74
     5
  7

 75
    16
147
1.0
148
0.0
149
0.0
100
AcDbLayout
  1
Layout1
 70
     1
 71
     1
 10
0.0
 20
0.0
 11
420.0
 21
297.0
 12
0.0
 22
0.0
 32
0.0
 14
1.0000000000E+20
 24
1.0000000000E+20
 34
1.0000000000E+20
 15
-1.0000000000E+20
 25
-1.0000000000E+20
 35
-1.0000000000E+20
146
0.0
 13
0.0
 23
0.0
 33
0.0
 16
1.0
 26
0.0
 36
0.0
 17
0.0
 27
1.0
 37
0.0
 76
     0
330
1B
  0
LAYOUT
  5
26
102
{ACAD_REACTORS
330
1A
102
}
330
1A
100
AcDbPlotSettings
  1

  2
none_device
  4

  6

 40
0.0
 41
0.0
 42
0.0
 43
0.0
 44
0.0
 45
0.0
 46
0.0
 47
0.0
 48
0.0
 49
0.0
140
0.0
141
0.0
142
1.0
143
1.0
 70
   688
 72
     1
 73
     0
 74
     5
  7

 75
    16
147
1.0
148
0.0
149
0.0
100
AcDbLayout
  1
Layout2
 70
     1
 71
     2
 10
0.0
 20
0.0
 11
0.0
 21
0.0
 12
0.0
 22
0.0
 32
0.0
 14
0.0
 24
0.0
 34
0.0
 15
0.0
 25
0.0
 35
0.0
146
0.0
 13
0.0
 23
0.0
 33
0.0
 16
1.0
 26
0.0
 36
0.0
 17
0.0
 27
1.0
 37
0.0
 76
     0
330
23
  0
LAYOUT
  5
22
102
{ACAD_REACTORS
330
1A
102
}
330
1A
100
AcDbPlotSettings
  1

  2
none_device
  4
Letter_(8.50_x_11.00_Inches)
  6

 40
6.35
 41
6.35
 42
6.35000508
 43
6.35000508
 44
215.9
 45
279.4
 46
0.0
 47
0.0
 48
0.0
 49
0.0
140
0.0
141
0.0
142
1.0
143
1.0
 70
  1712
 72
     1
 73
     0
 74
     0
  7

 75
     0
147
1.0
148
0.0
149
0.0
100
AcDbLayout
  1
Model
 70
     1
 71
     0
 10
0.0
 20
0.0
 11
210.0
 21
297.0
 12
0.0
 22
0.0
 32
0.0
 14
0.0
 24
0.0
 34
0.0
 15
210.0
 25
297.0
 35
0.0
146
0.0
 13
0.0
 23
0.0
 33
0.0
 16
1.0
 26
0.0
 36
0.0
 17
0.0
 27
1.0
 37
0.0
 76
     0
330
1F
331
29
  0
MLINESTYLE
  5
18
102
{ACAD_REACTORS
330
17
102
}
330
17
100
AcDbMlineStyle
  2
Standard
 70
     0
  3

 62
   256
 51
90.0
 52
90.0
 71
     2
 49
0.5
 62
   256
  6
BYLAYER
 49
-0.5
 62
   256
  6
BYLAYER
  0
ACDBPLACEHOLDER
  5
F
102
{ACAD_REACTORS
330
E
102
}
330
E
  0
SCALE
  5
48
102
{ACAD_REACTORS
330
47
102
}
330
47
100
AcDbScale
 70
     0
300
1:1
140
1.0
141
1.0
290
     1
  0
SCALE
  5
49
102
{ACAD_REACTORS
330
47
102
}
330
47
100
AcDbScale
 70
     0
300
1:2
140
1.0
141
2.0
290
     0
  0
SCALE
  5
4A
102
{ACAD_REACTORS
330
47
102
}
330
47
100
AcDbScale
 70
     0
300
1:4
140
1.0
141
4.0
290
     0
  0
SCALE
  5
4B
102
{ACAD_REACTORS
330
47
102
}
330
47
100
AcDbScale
 70
     0
300
1:5
140
1.0
141
5.0
290
     0
  0
SCALE
  5
4C
102
{ACAD_REACTORS
330
47
102
}
330
47
100
AcDbScale
 70
     0
300
1:8
140
1.0
141
8.0
290
     0
  0
SCALE
  5
4D
102
{ACAD_REACTORS
330
47
102
}
330
47
100
AcDbScale
 70
     0
300
1:10
140
1.0
141
10.0
290
     0
  0
SCALE
  5
4E
102
{ACAD_REACTORS
330
47
102
}
330
47
100
AcDbScale
 70
     0
300
1:16
140
1.0
141
16.0
290
     0
  0
SCALE
  5
4F
102
{ACAD_REACTORS
330
47
102
}
330
47
100
AcDbScale
 70
     0
300
1:20
140
1.0
141
20.0
290
     0
  0
SCALE
  5
50
102
{ACAD_REACTORS
330
47
102
}
330
47
100
AcDbScale
 70
     0
300
1:30
140
1.0
141
30.0
290
     0
  0
SCALE
  5
51
102
{ACAD_REACTORS
330
47
102
}
330
47
100
AcDbScale
 70
     0
300
1:40
140
1.0
141
40.0
290
     0
  0
SCALE
  5
52
102
{ACAD_REACTORS
330
47
102
}
330
47
100
AcDbScale
 70
     0
300
1:50
140
1.0
141
50.0
290
     0
  0
SCALE
  5
53
102
{ACAD_REACTORS
330
47
102
}
330
47
100
AcDbScale
 70
     0
300
1:100
140
1.0
141
100.0
290
     0
  0
SCALE
  5
54
102
{ACAD_REACTORS
330
47
102
}
330
47
100
AcDbScale
 70
     0
300
2:1
140
2.0
141
1.0
290
     0
  0
SCALE
  5
55
102
{ACAD_REACTORS
330
47
102
}
330
47
100
AcDbScale
 70
     0
300
4:1
140
4.0
141
1.0
290
     0
  0
SCALE
  5
56
102
{ACAD_REACTORS
330
47
102
}
330
47
100
AcDbScale
 70
     0
300
8:1
140
8.0
141
1.0
290
     0
  0
SCALE
  5
57
102
{ACAD_REACTORS
330
47
102
}
330
47
100
AcDbScale
 70
     0
300
10:1
140
10.0
141
1.0
290
     0
  0
SCALE
  5
58
102
{ACAD_REACTORS
330
47
102
}
330
47
100
AcDbScale
 70
     0
300
100:1
140
100.0
141
1.0
290
     0
  0
ENDSEC
  0
EOF
