  0
SECTION
  2
HEADER
  9
$ACADVER
  1
AC1015
  9
$ACADMAINTVER
 70
     6
  9
$DWGCODEPAGE
  3
DOS932
  9
$INSBASE
 10
0.0
 20
0.0
 30
0.0
  9
$EXTMIN
 10
0.0
 20
0.0
 30
0.0
  9
$EXTMAX
 10
210.0
 20
297.0
 30
0.0
  9
$LIMMIN
 10
0.0
 20
0.0
  9
$LIMMAX
 10
210.0
 20
297.0
  9
$ORTHOMODE
 70
     0
  9
$REGENMODE
 70
     1
  9
$FILLMODE
 70
     1
  9
$QTEXTMODE
 70
     0
  9
$MIRRTEXT
 70
     1
  9
$LTSCALE
 40
1.0
  9
$ATTMODE
 70
     1
  9
$TEXTSIZE
 40
3.5277777778
  9
$TRACEWID
 40
1.0
  9
$TEXTSTYLE
  7
Standard
  9
$CLAYER
  8
0
  9
$CELTYPE
  6
ByLayer
  9
$CECOLOR
 62
   256
  9
$CELTSCALE
 40
1.0
  9
$DISPSILH
 70
     0
  9
$DIMSCALE
 40
1.0
  9
$DIMASZ
 40
1.5
  9
$DIMEXO
 40
1.0
  9
$DIMDLI
 40
3.75
  9
$DIMRND
 40
0.0
  9
$DIMDLE
 40
0.0
  9
$DIMEXE
 40
1.0
  9
$DIMTP
 40
0.0
  9
$DIMTM
 40
0.0
  9
$DIMTXT
 40
3.5277777778
  9
$DIMCEN
 40
2.5
  9
$DIMTSZ
 40
0.0
  9
$DIMTOL
 70
     0
  9
$DIMLIM
 70
     0
  9
$DIMTIH
 70
     1
  9
$DIMTOH
 70
     1
  9
$DIMSE1
 70
     0
  9
$DIMSE2
 70
     0
  9
$DIMTAD
 70
     1
  9
$DIMZIN
 70
     0
  9
$DIMBLK
  1

  9
$DIMASO
 70
     1
  9
$DIMSHO
 70
     1
  9
$DIMPOST
  1

  9
$DIMAPOST
  1

  9
$DIMALT
 70
     0
  9
$DIMALTD
 70
     3
  9
$DIMALTF
 40
0.0393700787
  9
$DIMLFAC
 40
1.0
  9
$DIMTOFL
 70
     1
  9
$DIMTVP
 40
0.0
  9
$DIMTIX
 70
     0
  9
$DIMSOXD
 70
     0
  9
$DIMSAH
 70
     0
  9
$DIMBLK1
  1

  9
$DIMBLK2
  1

  9
$DIMSTYLE
  2
ISO-25
  9
$DIMCLRD
 70
     0
  9
$DIMCLRE
 70
     0
  9
$DIMCLRT
 70
     0
  9
$DIMTFAC
 40
1.0
  9
$DIMGAP
 40
1.5
  9
$DIMJUST
 70
     0
  9
$DIMSD1
 70
     0
  9
$DIMSD2
 70
     0
  9
$DIMTOLJ
 70
     0
  9
$DIMTZIN
 70
     0
  9
$DIMALTZ
 70
     0
  9
$DIMALTTZ
 70
     0
  9
$DIMUPT
 70
     0
  9
$DIMDEC
 70
     1
  9
$DIMTDEC
 70
     1
  9
$DIMALTU
 70
     2
  9
$DIMALTTD
 70
     3
  9
$DIMTXSTY
  7
Standard
  9
$DIMAUNIT
 70
     0
  9
$DIMADEC
 70
     2
  9
$DIMALTRND
 40
0.0
  9
$DIMAZIN
 70
     0
  9
$DIMDSEP
 70
    44
  9
$DIMATFIT
 70
     3
  9
$DIMFRAC
 70
     0
  9
$DIMLDRBLK
  1

  9
$DIMLUNIT
 70
     2
  9
$DIMLWD
 70
    -2
  9
$DIMLWE
 70
    -2
  9
$DIMTMOVE
 70
     0
  9
$LUNITS
 70
     2
  9
$LUPREC
 70
     2
  9
$SKETCHINC
 40
1.0
  9
$FILLETRAD
 40
0.0
  9
$AUNITS
 70
     0
  9
$AUPREC
 70
     2
  9
$MENU
  1
.
  9
$ELEVATION
 40
0.0
  9
$PELEVATION
 40
0.0
  9
$THICKNESS
 40
0.0
  9
$LIMCHECK
 70
     0
  9
$CHAMFERA
 40
0.0
  9
$CHAMFERB
 40
0.0
  9
$CHAMFERC
 40
0.0
  9
$CHAMFERD
 40
0.0
  9
$SKPOLY
 70
     0
  9
$TDCREATE
 40
2460334.714542338
  9
$TDUCREATE
 40
2460334.339542338
  9
$TDUPDATE
 40
2460334.71454257
  9
$TDUUPDATE
 40
2460334.33954257
  9
$TDINDWG
 40
0.0000000116
  9
$TDUSRTIMER
 40
0.0000000116
  9
$USRTIMER
 70
     1
  9
$ANGBASE
 50
0.0
  9
$ANGDIR
 70
     0
  9
$PDMODE
 70
     0
  9
$PDSIZE
 40
-1.0
  9
$PLINEWID
 40
0.0
  9
$SPLFRAME
 70
     0
  9
$SPLINETYPE
 70
     6
  9
$SPLINESEGS
 70
     8
  9
$HANDSEED
  5
74
  9
$SURFTAB1
 70
     6
  9
$SURFTAB2
 70
     6
  9
$SURFTYPE
 70
     6
  9
$SURFU
 70
     6
  9
$SURFV
 70
     6
  9
$UCSBASE
  2

  9
$UCSNAME
  2

  9
$UCSORG
 10
0.0
 20
0.0
 30
0.0
  9
$UCSXDIR
 10
1.0
 20
0.0
 30
0.0
  9
$UCSYDIR
 10
0.0
 20
1.0
 30
0.0
  9
$UCSORTHOREF
  2

  9
$UCSORTHOVIEW
 70
     0
  9
$UCSORGTOP
 10
0.0
 20
0.0
 30
0.0
  9
$UCSORGBOTTOM
 10
0.0
 20
0.0
 30
0.0
  9
$UCSORGLEFT
 10
0.0
 20
0.0
 30
0.0
  9
$UCSORGRIGHT
 10
0.0
 20
0.0
 30
0.0
  9
$UCSORGFRONT
 10
0.0
 20
0.0
 30
0.0
  9
$UCSORGBACK
 10
0.0
 20
0.0
 30
0.0
  9
$PUCSBASE
  2

  9
$PUCSNAME
  2

  9
$PUCSORG
 10
0.0
 20
0.0
 30
0.0
  9
$PUCSXDIR
 10
1.0
 20
0.0
 30
0.0
  9
$PUCSYDIR
 10
0.0
 20
1.0
 30
0.0
  9
$PUCSORTHOREF
  2

  9
$PUCSORTHOVIEW
 70
     0
  9
$PUCSORGTOP
 10
0.0
 20
0.0
 30
0.0
  9
$PUCSORGBOTTOM
 10
0.0
 20
0.0
 30
0.0
  9
$PUCSORGLEFT
 10
0.0
 20
0.0
 30
0.0
  9
$PUCSORGRIGHT
 10
0.0
 20
0.0
 30
0.0
  9
$PUCSORGFRONT
 10
0.0
 20
0.0
 30
0.0
  9
$PUCSORGBACK
 10
0.0
 20
0.0
 30
0.0
  9
$USERI1
 70
     0
  9
$USERI2
 70
     0
  9
$USERI3
 70
     0
  9
$USERI4
 70
     0
  9
$USERI5
 70
     0
  9
$USERR1
 40
0.0
  9
$USERR2
 40
0.0
  9
$USERR3
 40
0.0
  9
$USERR4
 40
0.0
  9
$USERR5
 40
0.0
  9
$WORLDVIEW
 70
     1
  9
$SHADEDGE
 70
     3
  9
$SHADEDIF
 70
    70
  9
$TILEMODE
 70
     1
  9
$MAXACTVP
 70
    64
  9
$PINSBASE
 10
0.0
 20
0.0
 30
0.0
  9
$PLIMCHECK
 70
     0
  9
$PEXTMIN
 10
1.0000000000E+20
 20
1.0000000000E+20
 30
1.0000000000E+20
  9
$PEXTMAX
 10
-1.0000000000E+20
 20
-1.0000000000E+20
 30
-1.0000000000E+20
  9
$PLIMMIN
 10
0.0
 20
0.0
  9
$PLIMMAX
 10
420.0
 20
297.0
  9
$UNITMODE
 70
     0
  9
$VISRETAIN
 70
     1
  9
$PLINEGEN
 70
     0
  9
$PSLTSCALE
 70
     1
  9
$TREEDEPTH
 70
  3020
  9
$CMLSTYLE
  2
Standard
  9
$CMLJUST
 70
     0
  9
$CMLSCALE
 40
20.0
  9
$PROXYGRAPHICS
 70
     1
  9
$MEASUREMENT
 70
     1
  9
$CELWEIGHT
370
    -1
  9
$ENDCAPS
280
     0
  9
$JOINSTYLE
280
     0
  9
$LWDISPLAY
290
     1
  9
$INSUNITS
 70
     4
  9
$HYPERLINKBASE
  1

  9
$STYLESHEET
  1

  9
$XEDIT
290
     1
  9
$CEPSNTYPE
380
     0
  9
$PSTYLEMODE
290
     1
  9
$FINGERPRINTGUID
  2
{5d234d31-2a2b-4628-95d3-c460272612d1}
  9
$VERSIONGUID
  2
{FAEB1C32-E019-11D5-929B-00C0DF256EC4}
  9
$EXTNAMES
290
     1
  9
$PSVPSCALE
 40
0.0
  9
$OLESTARTUP
290
     0
  0
ENDSEC
  0
SECTION
  2
CLASSES
  0
CLASS
  1
ACDBDICTIONARYWDFLT
  2
AcDbDictionaryWithDefault
  3
ObjectDBX Classes
 90
        0
280
     0
281
     0
  0
CLASS
  1
VISUALSTYLE
  2
AcDbVisualStyle
  3
ObjectDBX Classes
 90
     4095
280
     0
281
     0
  0
CLASS
  1
MATERIAL
  2
AcDbMaterial
  3
ObjectDBX Classes
 90
     1153
280
     0
281
     0
  0
CLASS
  1
SCALE
  2
AcDbScale
  3
ObjectDBX Classes
 90
     1153
280
     0
281
     0
  0
CLASS
  1
TABLESTYLE
  2
AcDbTableStyle
  3
ObjectDBX Classes
 90
     4095
280
     0
281
     0
  0
CLASS
  1
MLEADERSTYLE
  2
AcDbMLeaderStyle
  3
ACDB_MLEADERSTYLE_CLASS
 90
     4095
280
     0
281
     0
  0
CLASS
  1
SUN
  2
AcDbSun
  3
SCENEOE
 90
     1153
280
     0
281
     0
  0
CLASS
  1
ACDBPLACEHOLDER
  2
AcDbPlaceHolder
  3
ObjectDBX Classes
 90
        0
280
     0
281
     0
  0
CLASS
  1
LAYOUT
  2
AcDbLayout
  3
ObjectDBX Classes
 90
        0
280
     0
281
     0
  0
ENDSEC
  0
SECTION
  2
TABLES
  0
TABLE
  2
VPORT
  5
8
330
0
100
AcDbSymbolTable
 70
     1
  0
VPORT
  5
29
330
8
100
AcDbSymbolTableRecord
100
AcDbViewportTableRecord
  2
*Active
 70
     0
 10
0.0
 20
0.0
 11
1.0
 21
1.0
 12
105.0
 22
148.5
 13
0.0
 23
0.0
 14
10.0
 24
10.0
 15
10.0
 25
10.0
 16
0.0
 26
0.0
 36
1.0
 17
0.0
 27
0.0
 37
0.0
 40
297.0
 41
0.7070707071
 42
50.0
 43
0.0
 44
0.0
 50
0.0
 51
0.0
 71
     0
 72
  2000
 73
     1
 74
     3
 75
     0
 76
     0
 77
     0
 78
     0
281
     0
 65
     1
110
0.0
120
0.0
130
0.0
111
1.0
121
0.0
131
0.0
112
0.0
122
1.0
132
0.0
 79
     0
146
0.0
  0
ENDTAB
  0
TABLE
  2
LTYPE
  5
5
330
0
100
AcDbSymbolTable
 70
     6
  0
LTYPE
  5
14
330
5
100
AcDbSymbolTableRecord
100
AcDbLinetypeTableRecord
  2
ByBlock
 70
     0
  3

 72
    65
 73
     0
 40
0.0
  0
LTYPE
  5
15
330
5
100
AcDbSymbolTableRecord
100
AcDbLinetypeTableRecord
  2
ByLayer
 70
     0
  3

 72
    65
 73
     0
 40
0.0
  0
LTYPE
  5
16
330
5
100
AcDbSymbolTableRecord
100
AcDbLinetypeTableRecord
  2
Continuous
 70
     0
  3
Solid line
 72
    65
 73
     0
 40
0.0
  0
LTYPE
  5
5E
330
5
100
AcDbSymbolTableRecord
100
AcDbLinetypeTableRecord
  2
HIDDEN
 70
     0
  3
Hidden __ __ __ __ __ __ __ __ __ __ __ __ __ __
 72
    65
 73
     2
 40
1.905
 49
1.27
 74
     0
 49
-0.635
 74
     0
  0
LTYPE
  5
5F
330
5
100
AcDbSymbolTableRecord
100
AcDbLinetypeTableRecord
  2
PHANTOM
 70
     0
  3
Phantom ______  __  __  ______  __  __  ______
 72
    65
 73
     6
 40
12.7
 49
6.35
 74
     0
 49
-1.27
 74
     0
 49
1.27
 74
     0
 49
-1.27
 74
     0
 49
1.27
 74
     0
 49
-1.27
 74
     0
  0
LTYPE
  5
60
330
5
100
AcDbSymbolTableRecord
100
AcDbLinetypeTableRecord
  2
CENTER
 70
     0
  3
Center ____ _ ____ _ ____ _ ____ _ ____ _ ____
 72
    65
 73
     4
 40
10.16
 49
6.35
 74
     0
 49
-1.27
 74
     0
 49
1.27
 74
     0
 49
-1.27
 74
     0
  0
LTYPE
  5
61
330
5
100
AcDbSymbolTableRecord
100
AcDbLinetypeTableRecord
  2
CENTERX2
 70
     0
  3
Center (2x) ________  __  ________  __  _____
 72
    65
 73
     4
 40
20.32
 49
12.7
 74
     0
 49
-2.54
 74
     0
 49
2.54
 74
     0
 49
-2.54
 74
     0
  0
LTYPE
  5
62
330
5
100
AcDbSymbolTableRecord
100
AcDbLinetypeTableRecord
  2
DOT2
 70
     0
  3
Dot (.5x) ........................................
 72
    65
 73
     2
 40
0.635
 49
0.0
 74
     0
 49
-0.635
 74
     0
  0
ENDTAB
  0
TABLE
  2
LAYER
  5
2
330
0
100
AcDbSymbolTable
 70
     2
  0
LAYER
  5
10
330
2
100
AcDbSymbolTableRecord
100
AcDbLayerTableRecord
  2
0
 70
     0
 62
     7
  6
Continuous
370
    -3
390
F
  0
LAYER
  5
63
330
2
100
AcDbSymbolTableRecord
100
AcDbLayerTableRecord
  2
FORMAT
 70
     0
 62
     7
  6
Continuous
370
    -3
390
F
  0
ENDTAB
  0
TABLE
  2
STYLE
  5
3
330
0
100
AcDbSymbolTable
 70
     2
  0
STYLE
  5
11
330
3
100
AcDbSymbolTableRecord
100
AcDbTextStyleTableRecord
  2
Standard
 70
     0
 40
0.0
 41
1.0
 50
0.0
 71
     0
 42
3.5277777778
  3
txt
  4
bigfont
  0
STYLE
  5
64
330
3
100
AcDbSymbolTableRecord
100
AcDbTextStyleTableRecord
  2
SLDTEXTSTYLE0
 70
     0
 40
0.0
 41
0.7
 50
0.0
 71
     0
 42
3.5277777778
  3
TXT
  4
bigfont
  0
ENDTAB
  0
TABLE
  2
VIEW
  5
6
330
0
100
AcDbSymbolTable
 70
     0
  0
ENDTAB
  0
TABLE
  2
UCS
  5
7
330
0
100
AcDbSymbolTable
 70
     0
  0
ENDTAB
  0
TABLE
  2
APPID
  5
9
330
0
100
AcDbSymbolTable
 70
     1
  0
APPID
  5
12
330
9
100
AcDbSymbolTableRecord
100
AcDbRegAppTableRecord
  2
ACAD
 70
     0
  0
ENDTAB
  0
TABLE
  2
DIMSTYLE
  5
A
330
0
100
AcDbSymbolTable
 70
     1
100
AcDbDimStyleTable
  0
DIMSTYLE
105
27
330
A
100
AcDbSymbolTableRecord
100
AcDbDimStyleTableRecord
  2
ISO-25
 70
     0
 41
2.5
 42
0.625
 43
3.75
 44
1.25
 73
     0
 74
     0
 77
     1
 78
     8
140
2.5
141
2.5
143
0.0393700787
147
0.625
171
     3
172
     1
178
     0
271
     2
272
     2
274
     3
278
    44
283
     0
284
     8
340
11
  0
ENDTAB
  0
TABLE
  2
BLOCK_RECORD
  5
1
330
0
100
AcDbSymbolTable
 70
     1
  0
BLOCK_RECORD
  5
1F
330
1
100
AcDbSymbolTableRecord
100
AcDbBlockTableRecord
  2
*Model_Space
340
22
  0
BLOCK_RECORD
  5
1B
330
1
100
AcDbSymbolTableRecord
100
AcDbBlockTableRecord
  2
*Paper_Space
340
1E
  0
BLOCK_RECORD
  5
23
330
1
100
AcDbSymbolTableRecord
100
AcDbBlockTableRecord
  2
*Paper_Space0
340
26
  0
ENDTAB
  0
ENDSEC
  0
SECTION
  2
BLOCKS
  0
BLOCK
  5
20
330
1F
100
AcDbEntity
  8
0
100
AcDbBlockBegin
  2
*Model_Space
 70
     0
 10
0.0
 20
0.0
 30
0.0
  3
*Model_Space
  1

  0
ENDBLK
  5
21
330
1F
100
AcDbEntity
  8
0
100
AcDbBlockEnd
  0
BLOCK
  5
1C
330
1B
100
AcDbEntity
 67
     1
  8
0
100
AcDbBlockBegin
  2
*Paper_Space
 70
     0
 10
0.0
 20
0.0
 30
0.0
  3
*Paper_Space
  1

  0
ENDBLK
  5
1D
330
1B
100
AcDbEntity
 67
     1
  8
0
100
AcDbBlockEnd
  0
BLOCK
  5
24
330
23
100
AcDbEntity
  8
0
100
AcDbBlockBegin
  2
*Paper_Space0
 70
     0
 10
0.0
 20
0.0
 30
0.0
  3
*Paper_Space0
  1

  0
ENDBLK
  5
25
330
23
100
AcDbEntity
  8
0
100
AcDbBlockEnd
  0
ENDSEC
  0
SECTION
  2
ENTITIES
  0
MTEXT
  5
65
330
1F
100
AcDbEntity
  8
0
  6
Continuous
 62
     7
370
     0
100
AcDbMText
 10
132.0297191999
 20
122.9891194954
 30
0.0
 40
2.6458333333
 41
0.0
 71
     1
 72
     1
  1
HOA-D61BK/H/G
  7
SLDTEXTSTYLE0
 73
     1
 44
1.0
  0
SPLINE
  5
66
330
1F
100
AcDbEntity
  8
0
  6
Continuous
 62
     7
370
    25
100
AcDbSpline
210
0.0
220
0.0
230
1.0
 70
     8
 71
     3
 72
    77
 73
    73
 74
     0
 42
0.00000001
 43
0.00000001
 40
0.0
 40
0.0
 40
0.0
 40
0.0
 40
0.003666952185258
 40
0.0164695319207317
 40
0.029061252458861
 40
0.041643052222957
 40
0.0544113677016975
 40
0.067566026658934
 40
0.0812380399237804
 40
0.095456181639004
 40
0.1101355775403066
 40
0.125116813021013
 40
0.1402378860437545
 40
0.1553754987963434
 40
0.1704662269181807
 40
0.1854941441006435
 40
0.2004585796646982
 40
0.2153651596270815
 40
0.2302214149259852
 40
0.2450348572897839
 40
0.259812246411283
 40
0.2745593931813319
 40
0.2892811865441485
 40
0.3039817013270514
 40
0.318664324685798
 40
0.3333318758144398
 40
0.3479867102132881
 40
0.3626308070027472
 40
0.3772658406345309
 40
0.3918932392749718
 40
0.4065142322273026
 40
0.42112988853045
 40
0.4357411485493982
 40
0.4503488500533805
 40
0.4649537499995618
 40
0.4795565430111874
 40
0.4941578773586022
 40
0.5087583691138432
 40
0.5233586150485696
 40
0.537959097978396
 40
0.5525603207232292
 40
0.5671628880598517
 40
0.581767429760942
 40
0.5963746138314008
 40
0.6109851611813966
 40
0.6255998623125061
 40
0.6402195967181683
 40
0.6548453558471553
 40
0.6694782706705299
 40
0.6841196451345264
 40
0.6987709970747541
 40
0.7134341085008866
 40
0.7281110874959268
 40
0.7428044442080526
 40
0.7575171833071012
 40
0.7722529143043337
 40
0.7870159781556522
 40
0.8018115811609429
 40
0.8166459101995011
 40
0.8315261659777883
 40
0.8464603706735329
 40
0.8614566377208931
 40
0.8765212503727517
 40
0.8916542606527402
 40
0.906840372526809
 40
0.9220136281650703
 40
0.9370418265551018
 40
0.9517392892018772
 40
0.9659189800357635
 40
0.9794955827956041
 40
0.9925371722137901
 40
1.0
 40
1.0
 40
1.0
 40
1.0
 10
144.5971849095554
 20
174.2967487461885
 30
0.0
 10
144.6092517595092
 20
174.3454462946398
 30
0.0
 10
144.6634480949002
 20
174.5641635803207
 30
0.0
 10
144.6795296166893
 20
174.9622119369157
 30
0.0
 10
144.6430566907943
 20
175.4782657898193
 30
0.0
 10
144.5239150823117
 20
175.9847725671492
 30
0.0
 10
144.331750149251
 20
176.4809194023212
 30
0.0
 10
144.0641377979256
 20
176.9691271673202
 30
0.0
 10
143.7189648566717
 20
177.4514199567554
 30
0.0
 10
143.2929920916598
 20
177.9282988743919
 30
0.0
 10
142.784822693746
 20
178.3982474832999
 30
0.0
 10
142.1957836253212
 20
178.8584869088899
 30
0.0
 10
141.5296394560978
 20
179.3061164937851
 30
0.0
 10
140.7910392008618
 20
179.7391040503571
 30
0.0
 10
139.984108053114
 20
180.1565385266171
 30
0.0
 10
139.1118815191853
 20
180.5583040259284
 30
0.0
 10
138.1765743622509
 20
180.9445861224039
 30
0.0
 10
137.1801409484477
 20
181.3155215886944
 30
0.0
 10
136.1244734246455
 20
181.6711317547605
 30
0.0
 10
135.0115149706702
 20
182.0113175622027
 30
0.0
 10
133.8433175384699
 20
182.3358782351229
 30
0.0
 10
132.6220676425469
 20
182.6445356923319
 30
0.0
 10
131.3500947828691
 20
182.9369576466813
 30
0.0
 10
130.0298707054529
 20
183.2127772189922
 30
0.0
 10
128.6640039469385
 20
183.4716088475046
 30
0.0
 10
127.2552320281873
 20
183.7130609427841
 30
0.0
 10
125.8064125388
 20
183.9367458863907
 30
0.0
 10
124.320513753672
 20
184.1422879302168
 30
0.0
 10
122.8006051029687
 20
184.3293294575386
 30
0.0
 10
121.2498476478769
 20
184.497535968011
 30
0.0
 10
119.6714846264053
 20
184.646600063905
 30
0.0
 10
118.0688320888909
 20
184.7762446470422
 30
0.0
 10
116.4452696215245
 20
184.8862254835291
 30
0.0
 10
114.8042311471658
 20
184.9763332536268
 30
0.0
 10
113.1491957899795
 20
185.0463951740507
 30
0.0
 10
111.4836787908179
 20
185.0962762572356
 30
0.0
 10
109.8112224617175
 20
185.1258802547063
 30
0.0
 10
108.1353871705482
 20
185.1351503181777
 30
0.0
 10
106.4597464316277
 20
185.1240694281614
 30
0.0
 10
104.7878772967361
 20
185.0926608116053
 30
0.0
 10
103.1233479369942
 20
185.0409879879425
 30
0.0
 10
101.4697046451838
 20
184.9691542096438
 30
0.0
 10
99.8304636564422
 20
184.8773016867276
 30
0.0
 10
98.20910558870126
 20
184.7656108324793
 30
0.0
 10
96.6090664610015
 20
184.6342991530617
 30
0.0
 10
95.03372868416487
 20
184.483619806793
 30
0.0
 10
93.48641200926889
 20
184.3138597796036
 30
0.0
 10
91.97036441444789
 20
184.125337603022
 30
0.0
 10
90.48875290688552
 20
183.9184005140781
 30
0.0
 10
89.04465421398707
 20
183.6934209199188
 30
0.0
 10
87.64104533763506
 20
183.4507919798188
 30
0.0
 10
86.28079395152383
 20
183.1909220482132
 30
0.0
 10
84.96664864024197
 20
182.9142276269602
 30
0.0
 10
83.70122902195274
 20
182.6211243434176
 30
0.0
 10
82.48701588631116
 20
182.3120152908759
 30
0.0
 10
81.32634165692498
 20
181.9872758265911
 30
0.0
 10
80.22138182963813
 20
181.6472336130903
 30
0.0
 10
79.17414868875646
 20
181.2921423283305
 30
0.0
 10
78.18648982362663
 20
180.9221471525183
 30
0.0
 10
77.26009625877838
 20
180.5372401592437
 30
0.0
 10
76.39652913130942
 20
180.1372048988146
 30
0.0
 10
75.59728129397402
 20
179.7215537630181
 30
0.0
 10
74.86390104296511
 20
179.2894736713707
 30
0.0
 10
74.19822054090615
 20
178.8398238410643
 30
0.0
 10
73.60296537605363
 20
178.3714769896386
 30
0.0
 10
73.08220400623858
 20
177.883950899906
 30
0.0
 10
72.64115074880125
 20
177.378269061357
 30
0.0
 10
72.28531976907843
 20
176.8576420728845
 30
0.0
 10
72.0180160844288
 20
176.3274533131967
 30
0.0
 10
71.84162340432101
 20
175.7943275478683
 30
0.0
 10
71.76040692700558
 20
175.33478604856
 30
0.0
 10
71.7528356659829
 20
175.0556680675036
 30
0.0
 10
71.75008001501396
 20
174.9540797412472
 30
0.0
  0
SPLINE
  5
67
330
1F
100
AcDbEntity
  8
0
  6
Continuous
 62
     7
370
    25
100
AcDbSpline
210
0.0
220
0.0
230
1.0
 70
     8
 71
     3
 72
     9
 73
     5
 74
     0
 42
0.00000001
 43
0.00000001
 40
0.0
 40
0.0
 40
0.0
 40
0.0
 40
0.5268434067140949
 40
0.9999999999999999
 40
0.9999999999999999
 40
0.9999999999999999
 40
0.9999999999999999
 10
71.75008001501396
 20
174.9540797412472
 30
0.0
 10
71.75175228968594
 20
174.8465804949614
 30
0.0
 10
71.75492642957393
 20
174.6425364755889
 30
0.0
 10
71.79524176006169
 20
174.4419856068681
 30
0.0
 10
71.81431722449247
 20
174.3470936410436
 30
0.0
  0
LINE
  5
68
330
1F
100
AcDbEntity
  8
0
  6
Continuous
 62
     7
370
    25
100
AcDbLine
 10
71.8059718074
 20
174.3406901869
 30
0.0
 11
75.2878226686
 21
155.2882808481
 31
0.0
  0
LINE
  5
69
330
1F
100
AcDbEntity
  8
0
  6
Continuous
 62
     7
370
    25
100
AcDbLine
 10
141.1321487988
 20
155.2882808481
 30
0.0
 11
144.61399966
 21
174.3406901869
 31
0.0
  0
LINE
  5
6A
330
1F
100
AcDbEntity
  8
0
  6
Continuous
 62
     7
370
    25
100
AcDbLine
 10
138.8517026323
 20
147.5469080173
 30
0.0
 11
136.1733189486
 21
151.1760849842
 31
0.0
  0
LINE
  5
6B
330
1F
100
AcDbEntity
  8
0
  6
Continuous
 62
     7
370
    25
100
AcDbLine
 10
80.2466525188
 20
151.1760849842
 30
0.0
 11
77.5682688351
 21
147.5469080173
 31
0.0
  0
SPLINE
  5
6C
330
1F
100
AcDbEntity
  8
0
  6
Continuous
 62
     7
370
    25
100
AcDbSpline
210
0.0
220
0.0
230
1.0
 70
     8
 71
     3
 72
    37
 73
    33
 74
     0
 42
0.00000001
 43
0.00000001
 40
0.0
 40
0.0
 40
0.0
 40
0.0
 40
0.059636023805253
 40
0.1058331962655949
 40
0.1470993843380755
 40
0.1853808400192032
 40
0.2222849346609476
 40
0.2591045971302555
 40
0.2965151485310696
 40
0.3356237347045451
 40
0.3775806137178604
 40
0.3937311557654455
 40
0.407706005532065
 40
0.4245821823033262
 40
0.4455581116315215
 40
0.4728314686624443
 40
0.4924034822233092
 40
0.5073257645796292
 40
0.5218386357888695
 40
0.5397281644390935
 40
0.5604572216824689
 40
0.5861729774173574
 40
0.619297119845899
 40
0.6630113727946668
 40
0.7215070373571866
 40
0.800147489919058
 40
0.8906494203219123
 40
0.9357213955448702
 40
0.9592859198429475
 40
0.9761859482641873
 40
0.9887228946352629
 40
1.0
 40
1.0
 40
1.0
 40
1.0
 10
131.1798201254391
 20
130.4379092874627
 30
0.0
 10
131.4161743737666
 20
130.5852815899826
 30
0.0
 10
131.8356209423899
 20
130.8468161595514
 30
0.0
 10
132.4303705473415
 20
131.2766004389321
 30
0.0
 10
132.9485406859931
 20
131.687613476554
 30
0.0
 10
133.4358572839414
 20
132.1117460388974
 30
0.0
 10
133.9078624863342
 20
132.5593673806432
 30
0.0
 10
134.3744972352852
 20
133.0402761376063
 30
0.0
 10
134.8426932710217
 20
133.5636777072233
 30
0.0
 10
135.3188730312644
 20
134.1415284468272
 30
0.0
 10
135.6902409674307
 20
134.6322831999035
 30
0.0
 10
135.9563424759837
 20
135.0076472973842
 30
0.0
 10
136.1107015372805
 20
135.2341128958533
 30
0.0
 10
136.2484132757237
 20
135.4474150455623
 30
0.0
 10
136.3916545766562
 20
135.6865139254539
 30
0.0
 10
136.5201930019929
 20
135.9251798086576
 30
0.0
 10
136.63614254187
 20
136.1658723684573
 30
0.0
 10
136.7451674745396
 20
136.4133784227423
 30
0.0
 10
136.8540272168793
 20
136.6781476199353
 30
0.0
 10
136.9769937050067
 20
136.9970888021398
 30
0.0
 10
137.1213540124523
 20
137.3955367132297
 30
0.0
 10
137.2918337940881
 20
137.8939588800679
 30
0.0
 10
137.5001086024826
 20
138.5374747038033
 30
0.0
 10
137.7601679764843
 20
139.3855190693923
 30
0.0
 10
138.0889869262097
 20
140.5170716070711
 30
0.0
 10
138.4802919330213
 20
141.941441985384
 30
0.0
 10
138.8284255878624
 20
143.2861467529498
 30
0.0
 10
139.074245105404
 20
144.2941923967929
 30
0.0
 10
139.201665828768
 20
144.8431067554467
 30
0.0
 10
139.2772473372954
 20
145.1847016882146
 30
0.0
 10
139.3329515812743
 20
145.4500678007852
 30
0.0
 10
139.3586694596162
 20
145.5861452100757
 30
0.0
 10
139.3708481189655
 20
145.6505844453371
 30
0.0
  0
SPLINE
  5
6D
330
1F
100
AcDbEntity
  8
0
  6
Continuous
 62
     7
370
    25
100
AcDbSpline
210
0.0
220
0.0
230
1.0
 70
     8
 71
     3
 72
    37
 73
    33
 74
     0
 42
0.00000001
 43
0.00000001
 40
0.0
 40
0.0
 40
0.0
 40
0.0
 40
0.0120068863946969
 40
0.023779613916953
 40
0.0399354709375275
 40
0.0636588073984958
 40
0.100242887146666
 40
0.1585825240862533
 40
0.2554024883440593
 40
0.3235827054874808
 40
0.372150840493818
 40
0.4091280291407901
 40
0.4373649691114319
 40
0.459668008213981
 40
0.4783409966311077
 40
0.4954067418300649
 40
0.5105953327144537
 40
0.5317728123724561
 40
0.5575776512370682
 40
0.5800113272732866
 40
0.5958429022611373
 40
0.6109927890795208
 40
0.6267823540466387
 40
0.6765513405204053
 40
0.716698184499586
 40
0.7562063744143921
 40
0.7949675904072789
 40
0.8339071601118653
 40
0.8743804876688763
 40
0.9182846992090512
 40
0.9680919412890132
 40
1.0
 40
1.0
 40
1.0
 40
1.0
 10
77.04912334843416
 20
145.6505844453371
 30
0.0
 10
77.06216874474774
 20
145.5816914804482
 30
0.0
 10
77.08800512543235
 20
145.4452491045649
 30
0.0
 10
77.14265460604085
 20
145.1852903129535
 30
0.0
 10
77.21621939668852
 20
144.8523164332356
 30
0.0
 10
77.330023481221
 20
144.3614770180239
 30
0.0
 10
77.51235927585334
 20
143.6088341244526
 30
0.0
 10
77.81859500519234
 20
142.4018027095941
 30
0.0
 10
78.19393918007661
 20
141.0036674281472
 30
0.0
 10
78.57575596927363
 20
139.6677314696281
 30
0.0
 10
78.86717504052488
 20
138.7049121407749
 30
0.0
 10
79.09574453396067
 20
137.9910252719011
 30
0.0
 10
79.28194279011319
 20
137.4424483893037
 30
0.0
 10
79.43689541078427
 20
137.0129828289503
 30
0.0
 10
79.57112033124452
 20
136.6644538602358
 30
0.0
 10
79.68861613482846
 20
136.380522530091
 30
0.0
 10
79.80465208957679
 20
136.1207844704512
 30
0.0
 10
79.91925413538634
 20
135.8875547435408
 30
0.0
 10
80.05343272516454
 20
135.6426199842618
 30
0.0
 10
80.1987090942576
 20
135.403957157438
 30
0.0
 10
80.34777879413338
 20
135.1764680102005
 30
0.0
 10
80.51052846633823
 20
134.940614949994
 30
0.0
 10
80.80861302405789
 20
134.5245200497407
 30
0.0
 10
81.21860902822044
 20
133.9921397298673
 30
0.0
 10
81.74407074607998
 20
133.3715263083683
 30
0.0
 10
82.23717710674295
 20
132.8371141613794
 30
0.0
 10
82.73089383905422
 20
132.3465637901073
 30
0.0
 10
83.2278302779662
 20
131.8946124866756
 30
0.0
 10
83.74017890315078
 20
131.4691903898799
 30
0.0
 10
84.28749050528145
 20
131.0570043602669
 30
0.0
 10
84.79027625504665
 20
130.7143029962363
 30
0.0
 10
85.11381604657076
 20
130.5155270125992
 30
0.0
 10
85.24015134196058
 20
130.4379092874628
 30
0.0
  0
LWPOLYLINE
  5
6E
330
1F
100
AcDbEntity
  8
0
  6
Continuous
 62
     7
370
    25
100
AcDbPolyline
 90
        3
 70
   128
 43
0.0
 10
144.61399966
 20
174.3406901869
 10
144.6107999519
 20
174.3235134268
 10
144.6076883347
 20
174.3074013807
  0
LWPOLYLINE
  5
6F
330
1F
100
AcDbEntity
  8
0
  6
Continuous
 62
     7
370
    25
100
AcDbPolyline
 90
       62
 70
   128
 43
0.0
 10
141.1321487988
 20
155.2882808481
 10
141.1252550169
 20
155.2521794513
 10
140.9942690083
 20
154.8142091187
 10
140.7763449741
 20
154.3785647114
 10
140.4720608097
 20
153.94640148
 10
140.0822234218
 20
153.5188654436
 10
139.6078665893
 20
153.0970903511
 10
139.0502482212
 20
152.682194674
 10
138.4108470211
 20
152.2752786413
 10
137.691358566
 20
151.877421321
 10
136.8936908101
 20
151.4896777592
 10
136.0199590247
 20
151.1130761822
 10
135.0724801896
 20
150.7486152696
 10
134.0537668482
 20
150.3972615062
 10
132.9665204453
 20
150.0599466192
 10
131.8136241627
 20
149.7375651068
 10
130.5981352743
 20
149.430971867
 10
129.323277038
 20
149.1409799299
 10
127.9924301487
 20
148.868358302
 10
126.6091237731
 20
148.6138299267
 10
125.177026191
 20
148.3780697677
 10
123.6999350678
 20
148.1617030185
 10
122.1817673835
 20
147.9653034447
 10
120.6265490461
 20
147.7893918629
 10
119.0384042148
 20
147.6344347587
 10
117.4215443644
 20
147.5008430507
 10
115.7802571164
 20
147.3889710001
 10
114.1188948696
 20
147.2991152713
 10
112.4418632581
 20
147.2315141457
 10
110.7536094681
 20
147.1863468892
 10
109.0586104452
 20
147.1637332774
 10
107.3613610222
 20
147.1637332774
 10
105.6663619993
 20
147.1863468892
 10
103.9781082093
 20
147.2315141457
 10
102.3010765978
 20
147.2991152713
 10
100.639714351
 20
147.3889710001
 10
98.998427103
 20
147.5008430507
 10
97.3815672526
 20
147.6344347587
 10
95.7934224213
 20
147.7893918629
 10
94.2382040839
 20
147.9653034447
 10
92.7200363996
 20
148.1617030185
 10
91.2429452764
 20
148.3780697677
 10
89.8108476943
 20
148.6138299267
 10
88.4275413187
 20
148.868358302
 10
87.0966944294
 20
149.1409799299
 10
85.8218361931
 20
149.430971867
 10
84.6063473047
 20
149.7375651068
 10
83.4534510221
 20
150.0599466192
 10
82.3662046192
 20
150.3972615062
 10
81.3474912778
 20
150.7486152696
 10
80.4000124427
 20
151.1130761822
 10
79.5262806573
 20
151.4896777592
 10
78.7286129014
 20
151.877421321
 10
78.0091244463
 20
152.2752786413
 10
77.3697232462
 20
152.682194674
 10
76.8121048781
 20
153.0970903511
 10
76.3377480456
 20
153.5188654436
 10
75.9479106577
 20
153.94640148
 10
75.6436264933
 20
154.3785647114
 10
75.4257024591
 20
154.8142091187
 10
75.2947164505
 20
155.2521794513
 10
75.2878226686
 20
155.2882808481
  0
LWPOLYLINE
  5
70
330
1F
100
AcDbEntity
  8
0
  6
Continuous
 62
     7
370
    25
100
AcDbPolyline
 90
       68
 70
   128
 43
0.0
 10
138.8517026323
 20
147.5469080173
 10
139.0774146348
 20
147.2002890009
 10
139.2726104844
 20
146.7770345739
 10
139.3812292275
 20
146.351703758
 10
139.4029681242
 20
145.9254820265
 10
139.3377665843
 20
145.4995573359
 10
139.1858063361
 20
145.0751168147
 10
138.9475109203
 20
144.6533434546
 10
138.6235445087
 20
144.2354128138
 10
138.214810054
 20
143.8224897399
 10
137.7224467723
 20
143.4157251236
 10
137.1478269684
 20
143.0162526907
 10
136.4925522108
 20
142.6251858426
 10
135.7584488678
 20
142.2436145528
 10
134.947563017
 20
141.8726023288
 10
134.0621547428
 20
141.5131832483
 10
133.1046918367
 20
141.1663590768
 10
132.0778429197
 20
140.8330964753
 10
130.9844700039
 20
140.5143243066
 10
129.8276205156
 20
140.2109310459
 10
128.6105188019
 20
139.9237623045
 10
127.3365571436
 20
139.6536184733
 10
126.0092863003
 20
139.4012524916
 10
124.6324056139
 20
139.1673677486
 10
123.2097526978
 20
138.9526161231
 10
121.7452927408
 20
138.7575961663
 10
120.2431074556
 20
138.5828514339
 10
118.7073837019
 20
138.4288689708
 10
117.1424018173
 20
138.2960779537
 10
115.552523687
 20
138.184848495
 10
113.9421805864
 20
138.0954906111
 10
112.3158608307
 20
138.0282533585
 10
110.6780972647
 20
137.9833241395
 10
109.0334546292
 20
137.9608281798
 10
107.3865168382
 20
137.9608281798
 10
105.7418742027
 20
137.9833241395
 10
104.1041106367
 20
138.0282533585
 10
102.477790881
 20
138.0954906111
 10
100.8674477804
 20
138.184848495
 10
99.2775696501
 20
138.2960779537
 10
97.7125877655
 20
138.4288689708
 10
96.1768640118
 20
138.5828514339
 10
94.6746787266
 20
138.7575961663
 10
93.2102187696
 20
138.9526161231
 10
91.7875658535
 20
139.1673677486
 10
90.4106851671
 20
139.4012524916
 10
89.0834143238
 20
139.6536184733
 10
87.8094526655
 20
139.9237623045
 10
86.5923509518
 20
140.2109310459
 10
85.4355014635
 20
140.5143243066
 10
84.3421285477
 20
140.8330964753
 10
83.3152796307
 20
141.1663590768
 10
82.3578167246
 20
141.5131832483
 10
81.4724084504
 20
141.8726023288
 10
80.6615225996
 20
142.2436145528
 10
79.9274192565
 20
142.6251858426
 10
79.272144499
 20
143.0162526907
 10
78.6975246951
 20
143.4157251236
 10
78.2051614134
 20
143.8224897399
 10
77.7964269587
 20
144.2354128138
 10
77.4724605471
 20
144.6533434546
 10
77.2341651313
 20
145.0751168147
 10
77.0822048831
 20
145.4995573359
 10
77.0170033432
 20
145.9254820265
 10
77.0387422399
 20
146.351703758
 10
77.147360983
 20
146.7770345739
 10
77.3425568326
 20
147.2002890009
 10
77.5682688351
 20
147.5469080173
  0
LWPOLYLINE
  5
71
330
1F
100
AcDbEntity
  8
0
  6
Continuous
 62
     7
370
    25
100
AcDbPolyline
 90
       41
 70
   128
 43
0.0
 10
131.2135005273
 20
130.4582954955
 10
130.7799314828
 20
130.2093307481
 10
130.1033592886
 20
129.8681619504
 10
129.3498858212
 20
129.5379659493
 10
128.5221576838
 20
129.2199025703
 10
127.6230823017
 20
128.9150890226
 10
126.6558177097
 20
128.6245959749
 10
125.6237614603
 20
128.3494437947
 10
124.5305386885
 20
128.090598964
 10
123.3799893792
 20
127.8489706847
 10
122.1761548788
 20
127.625407685
 10
120.9232636999
 20
127.420695238
 10
119.6257166685
 20
127.2355524038
 10
118.2880714659
 20
127.0706295031
 10
116.9150266196
 20
126.9265058339
 10
115.5114049996
 20
126.8036876356
 10
114.0821368782
 20
126.7026063118
 10
112.6322426118
 20
126.6236169141
 10
111.1668150067
 20
126.5669968959
 10
109.691001431
 20
126.5329451369
 10
108.2099857337
 20
126.5215812452
 10
106.7289700364
 20
126.5329451369
 10
105.2531564607
 20
126.5669968959
 10
103.7877288556
 20
126.6236169141
 10
102.3378345892
 20
126.7026063118
 10
100.9085664678
 20
126.8036876356
 10
99.5049448478
 20
126.9265058339
 10
98.1319000015
 20
127.0706295031
 10
96.7942547989
 20
127.2355524038
 10
95.4967077675
 20
127.420695238
 10
94.2438165886
 20
127.625407685
 10
93.0399820882
 20
127.8489706847
 10
91.8894327789
 20
128.090598964
 10
90.7962100071
 20
128.3494437947
 10
89.7641537577
 20
128.6245959749
 10
88.7968891657
 20
128.9150890226
 10
87.8978137836
 20
129.2199025703
 10
87.0700856462
 20
129.5379659493
 10
86.3166121788
 20
129.8681619504
 10
85.6400399846
 20
130.2093307481
 10
85.2079936733
 20
130.4573696235
  0
LWPOLYLINE
  5
72
330
1F
100
AcDbEntity
  8
0
  6
Continuous
 62
     7
370
    25
100
AcDbPolyline
 90
       64
 70
   128
 43
0.0
 10
144.6076883347
 20
174.3074013807
 10
144.4792079487
 20
173.861793382
 10
144.2602402123
 20
173.4023006715
 10
143.9544242553
 20
172.9461422533
 10
143.562496815
 20
172.4944170531
 10
143.085402079
 20
172.0482133165
 10
142.5242894103
 20
171.6086059874
 10
141.8805105784
 20
171.1766541182
 10
141.1556165031
 20
170.753398319
 10
140.3513535175
 20
170.3398582499
 10
139.4696591616
 20
169.9370301653
 10
138.5126575145
 20
169.5458845132
 10
137.4826540768
 20
169.1673635979
 10
136.3821302171
 20
168.8023793093
 10
135.2137371938
 20
168.4518109265
 10
133.9802897679
 20
168.1165029996
 10
132.6847594225
 20
167.7972633147
 10
131.3302672034
 20
167.4948609481
 10
129.9200762012
 20
167.2100244136
 10
128.4575836895
 20
166.9434399074
 10
126.9463129408
 20
166.6957496549
 10
125.3899047388
 20
166.4675503637
 10
123.7921086071
 20
166.2593917857
 10
122.1567737766
 20
166.0717753933
 10
120.4878399121
 20
165.9051531708
 10
118.7893276215
 20
165.7599265257
 10
117.0653287696
 20
165.6364453217
 10
115.3199966207
 20
165.5350070359
 10
113.5575358328
 20
165.4558560419
 10
111.7821923283
 20
165.3991830215
 10
109.9982430653
 20
165.3651245048
 10
108.2099857337
 20
165.353762542
 10
106.4217284021
 20
165.3651245048
 10
104.6377791391
 20
165.3991830215
 10
102.8624356346
 20
165.4558560419
 10
101.0999748467
 20
165.5350070359
 10
99.3546426978
 20
165.6364453217
 10
97.6306438459
 20
165.7599265257
 10
95.9321315553
 20
165.9051531708
 10
94.2631976908
 20
166.0717753933
 10
92.6278628603
 20
166.2593917857
 10
91.0300667286
 20
166.4675503637
 10
89.4736585266
 20
166.6957496549
 10
87.9623877779
 20
166.9434399074
 10
86.4998952662
 20
167.2100244136
 10
85.089704264
 20
167.4948609481
 10
83.7352120449
 20
167.7972633147
 10
82.4396816995
 20
168.1165029996
 10
81.2062342736
 20
168.4518109265
 10
80.0378412503
 20
168.8023793093
 10
78.9373173906
 20
169.1673635979
 10
77.9073139529
 20
169.5458845132
 10
76.9503123058
 20
169.9370301653
 10
76.0686179499
 20
170.3398582499
 10
75.2643549643
 20
170.753398319
 10
74.539460889
 20
171.1766541182
 10
73.8956820571
 20
171.6086059874
 10
73.3345693884
 20
172.0482133165
 10
72.8574746524
 20
172.4944170532
 10
72.4655472121
 20
172.9461422533
 10
72.1597312551
 20
173.4023006715
 10
71.9407635187
 20
173.861793382
 10
71.8091715155
 20
174.3235134268
 10
71.8052923954
 20
174.3444235469
  0
ENDSEC
  0
SECTION
  2
OBJECTS
  0
DICTIONARY
  5
C
330
0
100
AcDbDictionary
281
     1
  3
ACAD_GROUP
350
D
  3
ACAD_LAYOUT
350
1A
  3
ACAD_MLINESTYLE
350
17
  3
ACAD_PLOTSETTINGS
350
19
  3
ACAD_PLOTSTYLENAME
350
E
  3
ACAD_SCALELIST
350
47
  3
DWGPROPS
350
73
  0
DICTIONARY
  5
D
102
{ACAD_REACTORS
330
C
102
}
330
C
100
AcDbDictionary
281
     1
  0
DICTIONARY
  5
1A
102
{ACAD_REACTORS
330
C
102
}
330
C
100
AcDbDictionary
281
     1
  3
Layout1
350
1E
  3
Layout2
350
26
  3
Model
350
22
  0
DICTIONARY
  5
17
102
{ACAD_REACTORS
330
C
102
}
330
C
100
AcDbDictionary
281
     1
  3
Standard
350
18
  0
DICTIONARY
  5
19
102
{ACAD_REACTORS
330
C
102
}
330
C
100
AcDbDictionary
281
     1
  0
ACDBDICTIONARYWDFLT
  5
E
102
{ACAD_REACTORS
330
C
102
}
330
C
100
AcDbDictionary
281
     1
  3
Normal
350
F
100
AcDbDictionaryWithDefault
340
F
  0
DICTIONARY
  5
47
102
{ACAD_REACTORS
330
C
102
}
330
C
100
AcDbDictionary
281
     1
  3
A0
350
48
  3
A1
350
49
  3
A2
350
4A
  3
A3
350
4B
  3
A4
350
4C
  3
A5
350
4D
  3
A6
350
4E
  3
A7
350
4F
  3
A8
350
50
  3
A9
350
51
  3
B0
350
52
  3
B1
350
53
  3
B2
350
54
  3
B3
350
55
  3
B4
350
56
  3
B5
350
57
  3
B6
350
58
  0
XRECORD
  5
73
102
{ACAD_REACTORS
330
C
102
}
330
C
100
AcDbXrecord
280
     1
  1
DWGPROPS COOKIE
  2

  3

  4

  6

  7

  8
9128
  9

300
=
301
=
302
=
303
=
304
=
305
=
306
=
307
=
308
=
309
=
 40
0.0
 41
2460334.339542338
 42
2460334.33954257
  1

 90
        0
  0
LAYOUT
  5
1E
102
{ACAD_REACTORS
330
1A
102
}
330
1A
100
AcDbPlotSettings
  1

  2
none_device
  4

  6

 40
0.0
 41
0.0
 42
0.0
 43
0.0
 44
0.0
 45
0.0
 46
0.0
 47
0.0
 48
0.0
 49
0.0
140
0.0
141
0.0
142
1.0
143
1.0
 70
   688
 72
     1
 73
     0
 74
     5
  7

 75
    16
147
1.0
148
0.0
149
0.0
100
AcDbLayout
  1
Layout1
 70
     1
 71
     1
 10
0.0
 20
0.0
 11
420.0
 21
297.0
 12
0.0
 22
0.0
 32
0.0
 14
1.0000000000E+20
 24
1.0000000000E+20
 34
1.0000000000E+20
 15
-1.0000000000E+20
 25
-1.0000000000E+20
 35
-1.0000000000E+20
146
0.0
 13
0.0
 23
0.0
 33
0.0
 16
1.0
 26
0.0
 36
0.0
 17
0.0
 27
1.0
 37
0.0
 76
     0
330
1B
  0
LAYOUT
  5
26
102
{ACAD_REACTORS
330
1A
102
}
330
1A
100
AcDbPlotSettings
  1

  2
none_device
  4

  6

 40
0.0
 41
0.0
 42
0.0
 43
0.0
 44
0.0
 45
0.0
 46
0.0
 47
0.0
 48
0.0
 49
0.0
140
0.0
141
0.0
142
1.0
143
1.0
 70
   688
 72
     1
 73
     0
 74
     5
  7

 75
    16
147
1.0
148
0.0
149
0.0
100
AcDbLayout
  1
Layout2
 70
     1
 71
     2
 10
0.0
 20
0.0
 11
0.0
 21
0.0
 12
0.0
 22
0.0
 32
0.0
 14
0.0
 24
0.0
 34
0.0
 15
0.0
 25
0.0
 35
0.0
146
0.0
 13
0.0
 23
0.0
 33
0.0
 16
1.0
 26
0.0
 36
0.0
 17
0.0
 27
1.0
 37
0.0
 76
     0
330
23
  0
LAYOUT
  5
22
102
{ACAD_REACTORS
330
1A
102
}
330
1A
100
AcDbPlotSettings
  1

  2
none_device
  4
Letter_(8.50_x_11.00_Inches)
  6

 40
6.35
 41
6.35
 42
6.35000508
 43
6.35000508
 44
215.9
 45
279.4
 46
0.0
 47
0.0
 48
0.0
 49
0.0
140
0.0
141
0.0
142
1.0
143
1.0
 70
  1712
 72
     1
 73
     0
 74
     0
  7

 75
     0
147
1.0
148
0.0
149
0.0
100
AcDbLayout
  1
Model
 70
     1
 71
     0
 10
0.0
 20
0.0
 11
210.0
 21
297.0
 12
0.0
 22
0.0
 32
0.0
 14
0.0
 24
0.0
 34
0.0
 15
210.0
 25
297.0
 35
0.0
146
0.0
 13
0.0
 23
0.0
 33
0.0
 16
1.0
 26
0.0
 36
0.0
 17
0.0
 27
1.0
 37
0.0
 76
     0
330
1F
331
29
  0
MLINESTYLE
  5
18
102
{ACAD_REACTORS
330
17
102
}
330
17
100
AcDbMlineStyle
  2
Standard
 70
     0
  3

 62
   256
 51
90.0
 52
90.0
 71
     2
 49
0.5
 62
   256
  6
BYLAYER
 49
-0.5
 62
   256
  6
BYLAYER
  0
ACDBPLACEHOLDER
  5
F
102
{ACAD_REACTORS
330
E
102
}
330
E
  0
SCALE
  5
48
102
{ACAD_REACTORS
330
47
102
}
330
47
100
AcDbScale
 70
     0
300
1:1
140
1.0
141
1.0
290
     1
  0
SCALE
  5
49
102
{ACAD_REACTORS
330
47
102
}
330
47
100
AcDbScale
 70
     0
300
1:2
140
1.0
141
2.0
290
     0
  0
SCALE
  5
4A
102
{ACAD_REACTORS
330
47
102
}
330
47
100
AcDbScale
 70
     0
300
1:4
140
1.0
141
4.0
290
     0
  0
SCALE
  5
4B
102
{ACAD_REACTORS
330
47
102
}
330
47
100
AcDbScale
 70
     0
300
1:5
140
1.0
141
5.0
290
     0
  0
SCALE
  5
4C
102
{ACAD_REACTORS
330
47
102
}
330
47
100
AcDbScale
 70
     0
300
1:8
140
1.0
141
8.0
290
     0
  0
SCALE
  5
4D
102
{ACAD_REACTORS
330
47
102
}
330
47
100
AcDbScale
 70
     0
300
1:10
140
1.0
141
10.0
290
     0
  0
SCALE
  5
4E
102
{ACAD_REACTORS
330
47
102
}
330
47
100
AcDbScale
 70
     0
300
1:16
140
1.0
141
16.0
290
     0
  0
SCALE
  5
4F
102
{ACAD_REACTORS
330
47
102
}
330
47
100
AcDbScale
 70
     0
300
1:20
140
1.0
141
20.0
290
     0
  0
SCALE
  5
50
102
{ACAD_REACTORS
330
47
102
}
330
47
100
AcDbScale
 70
     0
300
1:30
140
1.0
141
30.0
290
     0
  0
SCALE
  5
51
102
{ACAD_REACTORS
330
47
102
}
330
47
100
AcDbScale
 70
     0
300
1:40
140
1.0
141
40.0
290
     0
  0
SCALE
  5
52
102
{ACAD_REACTORS
330
47
102
}
330
47
100
AcDbScale
 70
     0
300
1:50
140
1.0
141
50.0
290
     0
  0
SCALE
  5
53
102
{ACAD_REACTORS
330
47
102
}
330
47
100
AcDbScale
 70
     0
300
1:100
140
1.0
141
100.0
290
     0
  0
SCALE
  5
54
102
{ACAD_REACTORS
330
47
102
}
330
47
100
AcDbScale
 70
     0
300
2:1
140
2.0
141
1.0
290
     0
  0
SCALE
  5
55
102
{ACAD_REACTORS
330
47
102
}
330
47
100
AcDbScale
 70
     0
300
4:1
140
4.0
141
1.0
290
     0
  0
SCALE
  5
56
102
{ACAD_REACTORS
330
47
102
}
330
47
100
AcDbScale
 70
     0
300
8:1
140
8.0
141
1.0
290
     0
  0
SCALE
  5
57
102
{ACAD_REACTORS
330
47
102
}
330
47
100
AcDbScale
 70
     0
300
10:1
140
10.0
141
1.0
290
     0
  0
SCALE
  5
58
102
{ACAD_REACTORS
330
47
102
}
330
47
100
AcDbScale
 70
     0
300
100:1
140
100.0
141
1.0
290
     0
  0
ENDSEC
  0
EOF
