  0
SECTION
  2
HEADER
  9
$ACADVER
  1
AC1015
  9
$ACADMAINTVER
 70
     6
  9
$DWGCODEPAGE
  3
DOS932
  9
$INSBASE
 10
0.0
 20
0.0
 30
0.0
  9
$EXTMIN
 10
0.0
 20
0.0
 30
0.0
  9
$EXTMAX
 10
2100.0
 20
2970.0
 30
0.0
  9
$LIMMIN
 10
0.0
 20
0.0
  9
$LIMMAX
 10
2100.0
 20
2970.0
  9
$ORTHOMODE
 70
     0
  9
$REGENMODE
 70
     1
  9
$FILLMODE
 70
     1
  9
$QTEXTMODE
 70
     0
  9
$MIRRTEXT
 70
     1
  9
$LTSCALE
 40
10.0
  9
$ATTMODE
 70
     1
  9
$TEXTSIZE
 40
35.2777777778
  9
$TRACEWID
 40
1.0
  9
$TEXTSTYLE
  7
Standard
  9
$CLAYER
  8
0
  9
$CELTYPE
  6
ByLayer
  9
$CECOLOR
 62
   256
  9
$CELTSCALE
 40
1.0
  9
$DISPSILH
 70
     0
  9
$DIMSCALE
 40
1.0
  9
$DIMASZ
 40
15.0
  9
$DIMEXO
 40
10.0
  9
$DIMDLI
 40
3.75
  9
$DIMRND
 40
0.0
  9
$DIMDLE
 40
0.0
  9
$DIMEXE
 40
10.0
  9
$DIMTP
 40
0.0
  9
$DIMTM
 40
0.0
  9
$DIMTXT
 40
35.2777777778
  9
$DIMCEN
 40
2.5
  9
$DIMTSZ
 40
0.0
  9
$DIMTOL
 70
     0
  9
$DIMLIM
 70
     0
  9
$DIMTIH
 70
     1
  9
$DIMTOH
 70
     1
  9
$DIMSE1
 70
     0
  9
$DIMSE2
 70
     0
  9
$DIMTAD
 70
     1
  9
$DIMZIN
 70
     0
  9
$DIMBLK
  1

  9
$DIMASO
 70
     1
  9
$DIMSHO
 70
     1
  9
$DIMPOST
  1

  9
$DIMAPOST
  1

  9
$DIMALT
 70
     0
  9
$DIMALTD
 70
     3
  9
$DIMALTF
 40
0.0393700787
  9
$DIMLFAC
 40
1.0
  9
$DIMTOFL
 70
     1
  9
$DIMTVP
 40
0.0
  9
$DIMTIX
 70
     0
  9
$DIMSOXD
 70
     0
  9
$DIMSAH
 70
     0
  9
$DIMBLK1
  1

  9
$DIMBLK2
  1

  9
$DIMSTYLE
  2
ISO-25
  9
$DIMCLRD
 70
     0
  9
$DIMCLRE
 70
     0
  9
$DIMCLRT
 70
     0
  9
$DIMTFAC
 40
1.0
  9
$DIMGAP
 40
15.0
  9
$DIMJUST
 70
     0
  9
$DIMSD1
 70
     0
  9
$DIMSD2
 70
     0
  9
$DIMTOLJ
 70
     0
  9
$DIMTZIN
 70
     0
  9
$DIMALTZ
 70
     0
  9
$DIMALTTZ
 70
     0
  9
$DIMUPT
 70
     0
  9
$DIMDEC
 70
     1
  9
$DIMTDEC
 70
     1
  9
$DIMALTU
 70
     2
  9
$DIMALTTD
 70
     3
  9
$DIMTXSTY
  7
Standard
  9
$DIMAUNIT
 70
     0
  9
$DIMADEC
 70
     2
  9
$DIMALTRND
 40
0.0
  9
$DIMAZIN
 70
     0
  9
$DIMDSEP
 70
    44
  9
$DIMATFIT
 70
     3
  9
$DIMFRAC
 70
     0
  9
$DIMLDRBLK
  1

  9
$DIMLUNIT
 70
     2
  9
$DIMLWD
 70
    -2
  9
$DIMLWE
 70
    -2
  9
$DIMTMOVE
 70
     0
  9
$LUNITS
 70
     2
  9
$LUPREC
 70
     2
  9
$SKETCHINC
 40
1.0
  9
$FILLETRAD
 40
0.0
  9
$AUNITS
 70
     0
  9
$AUPREC
 70
     2
  9
$MENU
  1
.
  9
$ELEVATION
 40
0.0
  9
$PELEVATION
 40
0.0
  9
$THICKNESS
 40
0.0
  9
$LIMCHECK
 70
     0
  9
$CHAMFERA
 40
0.0
  9
$CHAMFERB
 40
0.0
  9
$CHAMFERC
 40
0.0
  9
$CHAMFERD
 40
0.0
  9
$SKPOLY
 70
     0
  9
$TDCREATE
 40
2460377.370400128
  9
$TDUCREATE
 40
2460376.995400128
  9
$TDUPDATE
 40
2460377.370400475
  9
$TDUUPDATE
 40
2460376.995400475
  9
$TDINDWG
 40
0.0000000116
  9
$TDUSRTIMER
 40
0.0000000116
  9
$USRTIMER
 70
     1
  9
$ANGBASE
 50
0.0
  9
$ANGDIR
 70
     0
  9
$PDMODE
 70
     0
  9
$PDSIZE
 40
-1.0
  9
$PLINEWID
 40
0.0
  9
$SPLFRAME
 70
     0
  9
$SPLINETYPE
 70
     6
  9
$SPLINESEGS
 70
     8
  9
$HANDSEED
  5
A1
  9
$SURFTAB1
 70
     6
  9
$SURFTAB2
 70
     6
  9
$SURFTYPE
 70
     6
  9
$SURFU
 70
     6
  9
$SURFV
 70
     6
  9
$UCSBASE
  2

  9
$UCSNAME
  2

  9
$UCSORG
 10
0.0
 20
0.0
 30
0.0
  9
$UCSXDIR
 10
1.0
 20
0.0
 30
0.0
  9
$UCSYDIR
 10
0.0
 20
1.0
 30
0.0
  9
$UCSORTHOREF
  2

  9
$UCSORTHOVIEW
 70
     0
  9
$UCSORGTOP
 10
0.0
 20
0.0
 30
0.0
  9
$UCSORGBOTTOM
 10
0.0
 20
0.0
 30
0.0
  9
$UCSORGLEFT
 10
0.0
 20
0.0
 30
0.0
  9
$UCSORGRIGHT
 10
0.0
 20
0.0
 30
0.0
  9
$UCSORGFRONT
 10
0.0
 20
0.0
 30
0.0
  9
$UCSORGBACK
 10
0.0
 20
0.0
 30
0.0
  9
$PUCSBASE
  2

  9
$PUCSNAME
  2

  9
$PUCSORG
 10
0.0
 20
0.0
 30
0.0
  9
$PUCSXDIR
 10
1.0
 20
0.0
 30
0.0
  9
$PUCSYDIR
 10
0.0
 20
1.0
 30
0.0
  9
$PUCSORTHOREF
  2

  9
$PUCSORTHOVIEW
 70
     0
  9
$PUCSORGTOP
 10
0.0
 20
0.0
 30
0.0
  9
$PUCSORGBOTTOM
 10
0.0
 20
0.0
 30
0.0
  9
$PUCSORGLEFT
 10
0.0
 20
0.0
 30
0.0
  9
$PUCSORGRIGHT
 10
0.0
 20
0.0
 30
0.0
  9
$PUCSORGFRONT
 10
0.0
 20
0.0
 30
0.0
  9
$PUCSORGBACK
 10
0.0
 20
0.0
 30
0.0
  9
$USERI1
 70
     0
  9
$USERI2
 70
     0
  9
$USERI3
 70
     0
  9
$USERI4
 70
     0
  9
$USERI5
 70
     0
  9
$USERR1
 40
0.0
  9
$USERR2
 40
0.0
  9
$USERR3
 40
0.0
  9
$USERR4
 40
0.0
  9
$USERR5
 40
0.0
  9
$WORLDVIEW
 70
     1
  9
$SHADEDGE
 70
     3
  9
$SHADEDIF
 70
    70
  9
$TILEMODE
 70
     1
  9
$MAXACTVP
 70
    64
  9
$PINSBASE
 10
0.0
 20
0.0
 30
0.0
  9
$PLIMCHECK
 70
     0
  9
$PEXTMIN
 10
1.0000000000E+20
 20
1.0000000000E+20
 30
1.0000000000E+20
  9
$PEXTMAX
 10
-1.0000000000E+20
 20
-1.0000000000E+20
 30
-1.0000000000E+20
  9
$PLIMMIN
 10
0.0
 20
0.0
  9
$PLIMMAX
 10
420.0
 20
297.0
  9
$UNITMODE
 70
     0
  9
$VISRETAIN
 70
     1
  9
$PLINEGEN
 70
     0
  9
$PSLTSCALE
 70
     1
  9
$TREEDEPTH
 70
  3020
  9
$CMLSTYLE
  2
Standard
  9
$CMLJUST
 70
     0
  9
$CMLSCALE
 40
20.0
  9
$PROXYGRAPHICS
 70
     1
  9
$MEASUREMENT
 70
     1
  9
$CELWEIGHT
370
    -1
  9
$ENDCAPS
280
     0
  9
$JOINSTYLE
280
     0
  9
$LWDISPLAY
290
     1
  9
$INSUNITS
 70
     4
  9
$HYPERLINKBASE
  1

  9
$STYLESHEET
  1

  9
$XEDIT
290
     1
  9
$CEPSNTYPE
380
     0
  9
$PSTYLEMODE
290
     1
  9
$FINGERPRINTGUID
  2
{a039f353-947a-461f-a1f9-a4f1242f16de}
  9
$VERSIONGUID
  2
{FAEB1C32-E019-11D5-929B-00C0DF256EC4}
  9
$EXTNAMES
290
     1
  9
$PSVPSCALE
 40
0.0
  9
$OLESTARTUP
290
     0
  0
ENDSEC
  0
SECTION
  2
CLASSES
  0
CLASS
  1
ACDBDICTIONARYWDFLT
  2
AcDbDictionaryWithDefault
  3
ObjectDBX Classes
 90
        0
280
     0
281
     0
  0
CLASS
  1
VISUALSTYLE
  2
AcDbVisualStyle
  3
ObjectDBX Classes
 90
     4095
280
     0
281
     0
  0
CLASS
  1
MATERIAL
  2
AcDbMaterial
  3
ObjectDBX Classes
 90
     1153
280
     0
281
     0
  0
CLASS
  1
SCALE
  2
AcDbScale
  3
ObjectDBX Classes
 90
     1153
280
     0
281
     0
  0
CLASS
  1
TABLESTYLE
  2
AcDbTableStyle
  3
ObjectDBX Classes
 90
     4095
280
     0
281
     0
  0
CLASS
  1
MLEADERSTYLE
  2
AcDbMLeaderStyle
  3
ACDB_MLEADERSTYLE_CLASS
 90
     4095
280
     0
281
     0
  0
CLASS
  1
SUN
  2
AcDbSun
  3
SCENEOE
 90
     1153
280
     0
281
     0
  0
CLASS
  1
ACDBPLACEHOLDER
  2
AcDbPlaceHolder
  3
ObjectDBX Classes
 90
        0
280
     0
281
     0
  0
CLASS
  1
LAYOUT
  2
AcDbLayout
  3
ObjectDBX Classes
 90
        0
280
     0
281
     0
  0
ENDSEC
  0
SECTION
  2
TABLES
  0
TABLE
  2
VPORT
  5
8
330
0
100
AcDbSymbolTable
 70
     1
  0
VPORT
  5
29
330
8
100
AcDbSymbolTableRecord
100
AcDbViewportTableRecord
  2
*Active
 70
     0
 10
0.0
 20
0.0
 11
1.0
 21
1.0
 12
1050.0
 22
1485.0
 13
0.0
 23
0.0
 14
10.0
 24
10.0
 15
10.0
 25
10.0
 16
0.0
 26
0.0
 36
1.0
 17
0.0
 27
0.0
 37
0.0
 40
2970.0
 41
0.7070707071
 42
50.0
 43
0.0
 44
0.0
 50
0.0
 51
0.0
 71
     0
 72
  2000
 73
     1
 74
     3
 75
     0
 76
     0
 77
     0
 78
     0
281
     0
 65
     1
110
0.0
120
0.0
130
0.0
111
1.0
121
0.0
131
0.0
112
0.0
122
1.0
132
0.0
 79
     0
146
0.0
  0
ENDTAB
  0
TABLE
  2
LTYPE
  5
5
330
0
100
AcDbSymbolTable
 70
     6
  0
LTYPE
  5
14
330
5
100
AcDbSymbolTableRecord
100
AcDbLinetypeTableRecord
  2
ByBlock
 70
     0
  3

 72
    65
 73
     0
 40
0.0
  0
LTYPE
  5
15
330
5
100
AcDbSymbolTableRecord
100
AcDbLinetypeTableRecord
  2
ByLayer
 70
     0
  3

 72
    65
 73
     0
 40
0.0
  0
LTYPE
  5
16
330
5
100
AcDbSymbolTableRecord
100
AcDbLinetypeTableRecord
  2
Continuous
 70
     0
  3
Solid line
 72
    65
 73
     0
 40
0.0
  0
LTYPE
  5
5E
330
5
100
AcDbSymbolTableRecord
100
AcDbLinetypeTableRecord
  2
HIDDEN
 70
     0
  3
Hidden __ __ __ __ __ __ __ __ __ __ __ __ __ __
 72
    65
 73
     2
 40
1.905
 49
1.27
 74
     0
 49
-0.635
 74
     0
  0
LTYPE
  5
5F
330
5
100
AcDbSymbolTableRecord
100
AcDbLinetypeTableRecord
  2
PHANTOM
 70
     0
  3
Phantom ______  __  __  ______  __  __  ______
 72
    65
 73
     6
 40
12.7
 49
6.35
 74
     0
 49
-1.27
 74
     0
 49
1.27
 74
     0
 49
-1.27
 74
     0
 49
1.27
 74
     0
 49
-1.27
 74
     0
  0
LTYPE
  5
60
330
5
100
AcDbSymbolTableRecord
100
AcDbLinetypeTableRecord
  2
CENTER
 70
     0
  3
Center ____ _ ____ _ ____ _ ____ _ ____ _ ____
 72
    65
 73
     4
 40
10.16
 49
6.35
 74
     0
 49
-1.27
 74
     0
 49
1.27
 74
     0
 49
-1.27
 74
     0
  0
LTYPE
  5
61
330
5
100
AcDbSymbolTableRecord
100
AcDbLinetypeTableRecord
  2
CENTERX2
 70
     0
  3
Center (2x) ________  __  ________  __  _____
 72
    65
 73
     4
 40
20.32
 49
12.7
 74
     0
 49
-2.54
 74
     0
 49
2.54
 74
     0
 49
-2.54
 74
     0
  0
LTYPE
  5
62
330
5
100
AcDbSymbolTableRecord
100
AcDbLinetypeTableRecord
  2
DOT2
 70
     0
  3
Dot (.5x) ........................................
 72
    65
 73
     2
 40
0.635
 49
0.0
 74
     0
 49
-0.635
 74
     0
  0
ENDTAB
  0
TABLE
  2
LAYER
  5
2
330
0
100
AcDbSymbolTable
 70
     2
  0
LAYER
  5
10
330
2
100
AcDbSymbolTableRecord
100
AcDbLayerTableRecord
  2
0
 70
     0
 62
     7
  6
Continuous
370
    -3
390
F
  0
LAYER
  5
63
330
2
100
AcDbSymbolTableRecord
100
AcDbLayerTableRecord
  2
FORMAT
 70
     0
 62
     7
  6
Continuous
370
    -3
390
F
  0
ENDTAB
  0
TABLE
  2
STYLE
  5
3
330
0
100
AcDbSymbolTable
 70
     2
  0
STYLE
  5
11
330
3
100
AcDbSymbolTableRecord
100
AcDbTextStyleTableRecord
  2
Standard
 70
     0
 40
0.0
 41
1.0
 50
0.0
 71
     0
 42
35.2777777778
  3
txt
  4
bigfont
  0
STYLE
  5
9E
330
3
100
AcDbSymbolTableRecord
100
AcDbTextStyleTableRecord
  2
SLDTEXTSTYLE0
 70
     0
 40
0.0
 41
0.7
 50
0.0
 71
     0
 42
35.2777777778
  3
TXT
  4
bigfont
  0
ENDTAB
  0
TABLE
  2
VIEW
  5
6
330
0
100
AcDbSymbolTable
 70
     0
  0
ENDTAB
  0
TABLE
  2
UCS
  5
7
330
0
100
AcDbSymbolTable
 70
     0
  0
ENDTAB
  0
TABLE
  2
APPID
  5
9
330
0
100
AcDbSymbolTable
 70
     1
  0
APPID
  5
12
330
9
100
AcDbSymbolTableRecord
100
AcDbRegAppTableRecord
  2
ACAD
 70
     0
  0
ENDTAB
  0
TABLE
  2
DIMSTYLE
  5
A
330
0
100
AcDbSymbolTable
 70
     1
100
AcDbDimStyleTable
  0
DIMSTYLE
105
27
330
A
100
AcDbSymbolTableRecord
100
AcDbDimStyleTableRecord
  2
ISO-25
 70
     0
 41
2.5
 42
0.625
 43
3.75
 44
1.25
 73
     0
 74
     0
 77
     1
 78
     8
140
2.5
141
2.5
143
0.0393700787
147
0.625
171
     3
172
     1
178
     0
271
     2
272
     2
274
     3
278
    44
283
     0
284
     8
340
11
  0
ENDTAB
  0
TABLE
  2
BLOCK_RECORD
  5
1
330
0
100
AcDbSymbolTable
 70
     1
  0
BLOCK_RECORD
  5
1F
330
1
100
AcDbSymbolTableRecord
100
AcDbBlockTableRecord
  2
*Model_Space
340
22
  0
BLOCK_RECORD
  5
1B
330
1
100
AcDbSymbolTableRecord
100
AcDbBlockTableRecord
  2
*Paper_Space
340
1E
  0
BLOCK_RECORD
  5
23
330
1
100
AcDbSymbolTableRecord
100
AcDbBlockTableRecord
  2
*Paper_Space0
340
26
  0
ENDTAB
  0
ENDSEC
  0
SECTION
  2
BLOCKS
  0
BLOCK
  5
20
330
1F
100
AcDbEntity
  8
0
100
AcDbBlockBegin
  2
*Model_Space
 70
     0
 10
0.0
 20
0.0
 30
0.0
  3
*Model_Space
  1

  0
ENDBLK
  5
21
330
1F
100
AcDbEntity
  8
0
100
AcDbBlockEnd
  0
BLOCK
  5
1C
330
1B
100
AcDbEntity
 67
     1
  8
0
100
AcDbBlockBegin
  2
*Paper_Space
 70
     0
 10
0.0
 20
0.0
 30
0.0
  3
*Paper_Space
  1

  0
ENDBLK
  5
1D
330
1B
100
AcDbEntity
 67
     1
  8
0
100
AcDbBlockEnd
  0
BLOCK
  5
24
330
23
100
AcDbEntity
  8
0
100
AcDbBlockBegin
  2
*Paper_Space0
 70
     0
 10
0.0
 20
0.0
 30
0.0
  3
*Paper_Space0
  1

  0
ENDBLK
  5
25
330
23
100
AcDbEntity
  8
0
100
AcDbBlockEnd
  0
ENDSEC
  0
SECTION
  2
ENTITIES
  0
LINE
  5
64
330
1F
100
AcDbEntity
  8
0
  6
Continuous
 62
     7
370
    25
100
AcDbLine
 10
879.4113381331
 20
2483.3776573175
 30
0.0
 11
879.4113381331
 21
2471.7865474021
 31
0.0
  0
LINE
  5
65
330
1F
100
AcDbEntity
  8
0
  6
Continuous
 62
     7
370
    25
100
AcDbLine
 10
1053.9424270463
 20
1772.9091824977
 30
0.0
 11
1053.9424270463
 21
2460.8960342871
 31
0.0
  0
LINE
  5
66
330
1F
100
AcDbEntity
  8
0
  6
Continuous
 62
     7
370
    25
100
AcDbLine
 10
893.9424270463
 20
2458.9807922134
 30
0.0
 11
893.9424270463
 21
1772.9091824977
 31
0.0
  0
LINE
  5
67
330
1F
100
AcDbEntity
  8
0
  6
Continuous
 62
     7
370
    25
100
AcDbLine
 10
1112.7972334486
 20
2480.7595025048
 30
0.0
 11
1058.02737476
 21
2505.312158462
 31
0.0
  0
LINE
  5
68
330
1F
100
AcDbEntity
  8
0
  6
Continuous
 62
     7
370
    25
100
AcDbLine
 10
879.4113381331
 20
1772.4562491688
 30
0.0
 11
879.4113381331
 21
1760.8651392533
 31
0.0
  0
LINE
  5
69
330
1F
100
AcDbEntity
  8
0
  6
Continuous
 62
     7
370
    25
100
AcDbLine
 10
1091.6771874489
 20
1767.7769813171
 30
0.0
 11
1080.7634682806
 21
1772.6694677754
 31
0.0
  0
LINE
  5
6A
330
1F
100
AcDbEntity
  8
0
  6
Continuous
 62
     7
370
    25
100
AcDbLine
 10
1088.2343793767
 20
1797.473416615
 30
0.0
 11
1053.9424270463
 21
1792.3491960563
 31
0.0
  0
LWPOLYLINE
  5
6B
330
1F
100
AcDbEntity
  8
0
  6
Continuous
 62
     7
370
    25
100
AcDbPolyline
 90
       45
 70
   128
 43
0.0
 10
959.0684836176
 20
2506.8604004166
 10
951.0242128329
 20
2506.4934761592
 10
943.1384265097
 20
2505.9423373385
 10
935.4739680495
 20
2505.2113760895
 10
928.091917048
 20
2504.306417588
 10
921.0511025396
 20
2503.2346736285
 10
914.4076341769
 20
2502.0046851519
 10
908.2144550825
 20
2500.6262541815
 10
902.5209199335
 20
2499.1103657079
 10
897.3724016455
 20
2497.4691001485
 10
892.8099297857
 20
2495.7155370752
 10
888.869863601
 20
2493.8636509813
 10
885.5836022634
 20
2491.9281999159
 10
882.9773346438
 20
2489.9246078738
 10
881.0718306078
 20
2487.8688418792
 10
879.8822754966
 20
2485.7772847404
 10
879.4181491118
 20
2483.6666044929
 10
879.6831501688
 20
2481.5536215679
 10
880.6751668215
 20
2479.4551747469
 10
882.3862934917
 20
2477.3879869706
 10
884.8028938701
 20
2475.36853207
 10
887.9057095873
 20
2473.4129034833
 10
891.6700136868
 20
2471.5366860041
 10
896.0658076798
 20
2469.7548315831
 10
901.0580606085
 20
2468.0815401731
 10
906.6069882154
 20
2466.5301465665
 10
912.6683699914
 20
2465.1130141278
 10
919.1939015782
 20
2463.8414362676
 10
926.131579715
 20
2462.7255464431
 10
933.4261166635
 20
2461.7742374025
 10
941.0193808061
 20
2460.995090317
 10
948.8508599089
 20
2460.3943143648
 10
956.8581433555
 20
2459.9766972493
 10
964.9774195095
 20
2459.7455670442
 10
973.1439842427
 20
2459.7027656722
 10
981.2927565745
 20
2459.848634226
 10
989.3587973155
 20
2460.18201025
 10
997.2778265809
 20
2460.7002370044
 10
1004.9867360496
 20
2461.3991846369
 10
1012.4240918871
 20
2462.2732830946
 10
1019.5306243237
 20
2463.3155665129
 10
1026.2496999874
 20
2464.5177287278
 10
1032.5277732261
 20
2465.870189469
 10
1038.3148128243
 20
2467.3621707077
 10
1043.5647007109
 20
2468.9817825482
  0
SPLINE
  5
6C
330
1F
100
AcDbEntity
  8
0
  6
Continuous
 62
     7
370
    25
100
AcDbSpline
210
0.0
220
0.0
230
1.0
 70
     8
 71
     3
 72
     8
 73
     4
 74
     0
 42
0.00000001
 43
0.00000001
 40
0.3920896604074619
 40
0.3920896604074619
 40
0.3920896604074619
 40
0.3920896604074619
 40
1.0
 40
1.0
 40
1.0
 40
1.0
 10
1028.781201018652
 20
2509.97557365082
 30
0.0
 10
1006.963333484902
 20
2508.393519022242
 30
0.0
 10
984.579304549747
 20
2507.722236082285
 30
0.0
 10
959.0684836176467
 20
2506.860400416615
 30
0.0
  0
SPLINE
  5
6D
330
1F
100
AcDbEntity
  8
0
  6
Continuous
 62
     7
370
    25
100
AcDbSpline
210
0.0
220
0.0
230
1.0
 70
     8
 71
     3
 72
     8
 73
     4
 74
     0
 42
0.00000001
 43
0.00000001
 40
0.0
 40
0.0
 40
0.0
 40
0.0
 40
0.607910339592538
 40
0.607910339592538
 40
0.607910339592538
 40
0.607910339592538
 10
1043.564700710879
 20
2468.981782548225
 30
0.0
 10
1059.203869518831
 20
2474.268958796039
 30
0.0
 10
1072.642040481188
 20
2478.950560153951
 30
0.0
 10
1088.844632208903
 20
2483.049874061104
 30
0.0
  0
LWPOLYLINE
  5
6E
330
1F
100
AcDbEntity
  8
0
  6
Continuous
 62
     7
370
    25
100
AcDbPolyline
 90
       29
 70
   128
 43
0.0
 10
879.4113381331
 20
2471.7865474021
 10
879.6831501688
 20
2469.9625116524
 10
880.6751668215
 20
2467.8640648314
 10
882.3862934917
 20
2465.7968770551
 10
884.8028938701
 20
2463.7774221545
 10
887.9057095873
 20
2461.8217935678
 10
891.6700136868
 20
2459.9455760886
 10
896.0658076798
 20
2458.1637216677
 10
901.0580606085
 20
2456.4904302577
 10
906.6069882154
 20
2454.939036651
 10
912.6683699914
 20
2453.5219042123
 10
919.1939015782
 20
2452.2503263521
 10
926.131579715
 20
2451.1344365276
 10
933.4261166635
 20
2450.183127487
 10
941.0193808061
 20
2449.4039804015
 10
948.8508599089
 20
2448.8032044494
 10
956.8581433555
 20
2448.3855873338
 10
964.9774195095
 20
2448.1544571287
 10
973.1439842427
 20
2448.1116557567
 10
981.2927565745
 20
2448.2575243105
 10
989.3587973155
 20
2448.5909003346
 10
997.2778265809
 20
2449.1091270889
 10
1004.9867360496
 20
2449.8080747214
 10
1012.4240918871
 20
2450.6821731792
 10
1019.5306243237
 20
2451.7244565975
 10
1026.2496999874
 20
2452.9266188123
 10
1032.5277732261
 20
2454.2790795535
 10
1038.3148128243
 20
2455.7710607922
 10
1043.5647007109
 20
2457.3906726328
  0
LWPOLYLINE
  5
6F
330
1F
100
AcDbEntity
  8
0
  6
Continuous
 62
     7
370
    25
100
AcDbPolyline
 90
       36
 70
   128
 43
0.0
 10
893.9424270463
 20
1772.9091824977
 10
893.9448699448
 20
1772.7473724013
 10
894.3549240163
 20
1770.8092465321
 10
895.4643959261
 20
1768.8895749757
 10
897.2635355952
 20
1767.0052278747
 10
899.7365321194
 20
1765.1727649392
 10
902.8616527164
 20
1763.4082899194
 10
906.611433714
 20
1761.7273090851
 10
910.9529219019
 20
1760.1445949565
 10
915.847964126
 20
1758.6740564822
 10
921.253542579
 20
1757.3286168071
 10
927.1221528432
 20
1756.1200997035
 10
933.4022213607
 20
1755.0591256632
 10
940.0385586633
 20
1754.1550185642
 10
946.9728443804
 20
1753.4157237322
 10
954.1441397596
 20
1752.8477381167
 10
961.4894231994
 20
1752.4560531957
 10
968.9441440847
 20
1752.2441111105
 10
976.4427900605
 20
1752.2137744157
 10
983.9194627562
 20
1752.3653097112
 10
991.3084569033
 20
1752.6973852994
 10
998.5448377556
 20
1753.2070828882
 10
1005.565011738
 20
1753.8899232368
 10
1012.3072853091
 20
1754.7399055195
 10
1018.7124071263
 20
1755.7495600617
 10
1024.7240887489
 20
1756.9100139829
 10
1030.2894993024
 20
1758.2110691722
 10
1035.359729759
 20
1759.6412919099
 10
1039.890222751
 20
1761.1881133471
 10
1043.8411641431
 20
1762.8379399615
 10
1047.1778329203
 20
1764.5762730174
 10
1049.8709063174
 20
1766.3878359815
 10
1051.8967175086
 20
1768.2567087732
 10
1053.2374635922
 20
1770.1664676713
 10
1053.8813620436
 20
1772.1003296459
 10
1053.9424270463
 20
1772.9091824977
  0
SPLINE
  5
70
330
1F
100
AcDbEntity
  8
0
  6
Continuous
 62
     7
370
    25
100
AcDbSpline
210
0.0
220
0.0
230
1.0
 70
     8
 71
     3
 72
    22
 73
    18
 74
     0
 42
0.00000001
 43
0.00000001
 40
0.0
 40
0.0
 40
0.0
 40
0.0
 40
0.2499999999999861
 40
0.2499999999999861
 40
0.3124999999999833
 40
0.3124999999999833
 40
0.3749999999999806
 40
0.3749999999999806
 40
0.4999999999999796
 40
0.4999999999999796
 40
0.6249999999999785
 40
0.6249999999999785
 40
0.6874999999999779
 40
0.6874999999999779
 40
0.7499999999999774
 40
0.7499999999999774
 40
1.0
 40
1.0
 40
1.0
 40
1.0
 10
1088.844632211831
 20
2471.458764146376
 30
0.0
 10
1092.134822202877
 20
2472.29119403251
 30
0.0
 10
1095.459435579989
 20
2472.544420612515
 30
0.0
 10
1099.656790535512
 20
2472.12433307808
 30
0.0
 10
1100.498234786939
 20
2472.002988679581
 30
0.0
 10
1102.18459004366
 20
2471.683249306774
 30
0.0
 10
1103.025866450203
 20
2471.485281676766
 30
0.0
 10
1105.517643459414
 20
2470.784516582545
 30
0.0
 10
1107.146439165882
 20
2470.173420612014
 30
0.0
 10
1110.332353872075
 20
2468.668575396742
 30
0.0
 10
1111.889493201678
 20
2467.774852268979
 30
0.0
 10
1114.162380752786
 20
2466.216713705997
 30
0.0
 10
1114.909944327349
 20
2465.660177209624
 30
0.0
 10
1116.359385230359
 20
2464.49204121433
 30
0.0
 10
1117.064307980953
 20
2463.878493150052
 30
0.0
 10
1120.489150568013
 20
2460.667498416595
 30
0.0
 10
1122.914628375756
 20
2457.647353081813
 30
0.0
 10
1124.977905020811
 20
2454.171482955246
 30
0.0
  0
SPLINE
  5
71
330
1F
100
AcDbEntity
  8
0
  6
Continuous
 62
     7
370
    25
100
AcDbSpline
210
0.0
220
0.0
230
1.0
 70
     8
 71
     3
 72
    22
 73
    18
 74
     0
 42
0.00000001
 43
0.00000001
 40
0.0
 40
0.0
 40
0.0
 40
0.0
 40
0.2499999999999891
 40
0.2499999999999891
 40
0.3749999999999836
 40
0.3749999999999836
 40
0.4374999999999837
 40
0.4374999999999837
 40
0.4999999999999839
 40
0.4999999999999839
 40
0.7499999999999889
 40
0.7499999999999889
 40
0.8124999999999915
 40
0.8124999999999915
 40
0.8749999999999939
 40
0.8749999999999939
 40
1.0
 40
1.0
 40
1.0
 40
1.0
 10
1124.977905020811
 20
2472.573683834752
 30
0.0
 10
1122.357200428516
 20
2475.022626966014
 30
0.0
 10
1119.569477126071
 20
2477.091134236631
 30
0.0
 10
1115.182301840116
 20
2479.632438515492
 30
0.0
 10
1113.685339948228
 20
2480.385331369089
 30
0.0
 10
1111.391096808613
 20
2481.368842241066
 30
0.0
 10
1110.615973521563
 20
2481.673090224799
 30
0.0
 10
1109.061869466904
 20
2482.227458978082
 30
0.0
 10
1108.283680305866
 20
2482.477493201074
 30
0.0
 10
1104.388743732968
 20
2483.594657813024
 30
0.0
 10
1101.261110394283
 20
2484.065832107228
 30
0.0
 10
1097.352912028064
 20
2484.138214132683
 30
0.0
 10
1096.571271835489
 20
2484.126672482046
 30
0.0
 10
1095.008114849482
 20
2484.051082686613
 30
0.0
 10
1094.225789186161
 20
2483.986845471737
 30
0.0
 10
1091.896573178571
 20
2483.716793638649
 30
0.0
 10
1090.362011978683
 20
2483.433776593303
 30
0.0
 10
1088.844632211831
 20
2483.049874061845
 30
0.0
  0
SPLINE
  5
72
330
1F
100
AcDbEntity
  8
0
  6
Continuous
 62
     7
370
    25
100
AcDbSpline
210
0.0
220
0.0
230
1.0
 70
     8
 71
     3
 72
     8
 73
     4
 74
     0
 42
0.00000001
 43
0.00000001
 40
0.0
 40
0.0
 40
0.0
 40
0.0
 40
0.6079103396291572
 40
0.6079103396291572
 40
0.6079103396291572
 40
0.6079103396291572
 10
1043.564700710879
 20
2457.390672632757
 30
0.0
 10
1059.203869519773
 20
2462.677848880889
 30
0.0
 10
1072.642040482807
 20
2467.359450239046
 30
0.0
 10
1088.844632211831
 20
2471.458764146377
 30
0.0
  0
SPLINE
  5
73
330
1F
100
AcDbEntity
  8
0
  6
Continuous
 62
     7
370
    25
100
AcDbSpline
210
0.0
220
0.0
230
1.0
 70
     8
 71
     3
 72
    11
 73
     7
 74
     0
 42
0.00000001
 43
0.00000001
 40
0.0
 40
0.0
 40
0.0
 40
0.0
 40
0.3233933937187783
 40
0.6559278962436912
 40
0.9794228637528953
 40
1.0
 40
1.0
 40
1.0
 40
1.0
 10
1028.781201018652
 20
2509.975573650821
 30
0.0
 10
1032.14260907714
 20
2510.092196952276
 30
0.0
 10
1038.96043949373
 20
2510.328740055083
 30
0.0
 10
1048.574782874085
 20
2508.647317381576
 30
0.0
 10
1055.022058600355
 20
2506.935273944008
 30
0.0
 10
1057.835051939035
 20
2505.360331336888
 30
0.0
 10
1058.003282221468
 20
2505.266142333321
 30
0.0
  0
ARC
  5
74
330
1F
100
AcDbEntity
  8
0
  6
Continuous
 62
     7
370
    25
100
AcDbCircle
 10
1084.5807511844
 20
2431.5921874116
 30
0.0
 40
57.54487889603749
100
AcDbArc
 50
358.4497577043
 51
45.4114075191
  0
ARC
  5
75
330
1F
100
AcDbEntity
  8
0
  6
Continuous
 62
     7
370
    25
100
AcDbCircle
 10
1024.7014806155
 20
2452.9079633178
 30
0.0
 40
53.01123042099317
100
AcDbArc
 50
359.7644397071
 51
16.3679415074
  0
ARC
  5
76
330
1F
100
AcDbEntity
  8
0
  6
Continuous
 62
     7
370
    25
100
AcDbCircle
 10
1081.6414358134
 20
2429.0836458079
 30
0.0
 40
50.07443595385811
100
AcDbArc
 50
359.3121233442
 51
30.0669017488
  0
LINE
  5
77
330
1F
100
AcDbEntity
  8
0
  6
Continuous
 62
     7
370
    25
100
AcDbLine
 10
1142.1045678632
 20
976.3170266742
 30
0.0
 11
1142.1045678632
 21
2430.0353952392
 31
0.0
  0
LINE
  5
78
330
1F
100
AcDbEntity
  8
0
  6
Continuous
 62
     7
370
    25
100
AcDbLine
 10
1131.7122630178
 20
974.7641124036
 30
0.0
 11
1142.1045678632
 21
976.3170266742
 31
0.0
  0
LINE
  5
79
330
1F
100
AcDbEntity
  8
0
  6
Continuous
 62
     7
370
    25
100
AcDbLine
 10
1131.7122630178
 20
2428.4824809686
 30
0.0
 11
1131.7122630178
 21
974.7641124036
 31
0.0
  0
LINE
  5
7A
330
1F
100
AcDbEntity
  8
0
  6
Continuous
 62
     7
370
    25
100
AcDbLine
 10
1131.7122630178
 20
974.7641124036
 30
0.0
 11
1124.7122630178
 21
977.9021265562
 31
0.0
  0
LINE
  5
7B
330
1F
100
AcDbEntity
  8
0
  6
Continuous
 62
     7
370
    25
100
AcDbLine
 10
1124.7122630178
 20
977.9021265562
 30
0.0
 11
1124.7122630178
 21
1771.8931557658
 31
0.0
  0
ARC
  5
7C
330
1F
100
AcDbEntity
  8
0
  6
Continuous
 62
     7
370
    25
100
AcDbCircle
 10
1111.0341767612
 20
1773.1471043922
 30
0.0
 40
13.7354443248497
100
AcDbArc
 50
354.7620086218
 51
50.8167764515
  0
LINE
  5
7D
330
1F
100
AcDbEntity
  8
0
  6
Continuous
 62
     7
370
    25
100
AcDbLine
 10
1119.7122630178
 20
1783.7938527091
 30
0.0
 11
1089.7122630178
 21
1797.2424847916
 31
0.0
  0
LWPOLYLINE
  5
7E
330
1F
100
AcDbEntity
  8
0
  6
Continuous
 62
     7
370
    25
100
AcDbPolyline
 90
        3
 70
   128
 43
0.0
 10
1088.2343793767
 20
1797.473416615
 10
1088.7368114077
 20
1797.4941678465
 10
1089.7122630178
 20
1797.2424847916
  0
LINE
  5
7F
330
1F
100
AcDbEntity
  8
0
  6
Continuous
 62
     7
370
    25
100
AcDbLine
 10
1077.7122630178
 20
1795.9011047079
 30
0.0
 11
1077.7122630178
 21
2452.6900187172
 31
0.0
  0
LWPOLYLINE
  5
80
330
1F
100
AcDbEntity
  8
0
  6
Continuous
 62
     7
370
    25
100
AcDbPolyline
 90
       36
 70
   128
 43
0.0
 10
1043.5647007109
 20
1758.0603743995
 10
1038.3148128243
 20
1756.4407625589
 10
1032.5277732261
 20
1754.9487813202
 10
1026.2496999874
 20
1753.596320579
 10
1019.5306243237
 20
1752.3941583642
 10
1012.4240918871
 20
1751.3518749459
 10
1004.9867360496
 20
1750.4777764881
 10
997.2778265809
 20
1749.7788288557
 10
989.3587973155
 20
1749.2606021013
 10
981.2927565745
 20
1748.9272260772
 10
973.1439842427
 20
1748.7813575234
 10
964.9774195095
 20
1748.8241588954
 10
956.8581433555
 20
1749.0552891005
 10
948.8508599089
 20
1749.4729062161
 10
941.0193808061
 20
1750.0736821682
 10
933.4261166635
 20
1750.8528292537
 10
926.131579715
 20
1751.8041382943
 10
919.1939015782
 20
1752.9200281188
 10
912.6683699914
 20
1754.191605979
 10
906.6069882154
 20
1755.6087384177
 10
901.0580606085
 20
1757.1601320244
 10
896.0658076798
 20
1758.8334234344
 10
891.6700136868
 20
1760.6152778553
 10
887.9057095873
 20
1762.4914953345
 10
884.8028938701
 20
1764.4471239212
 10
882.3862934917
 20
1766.4665788218
 10
880.6751668215
 20
1768.5337665981
 10
879.6831501688
 20
1770.6322134191
 10
879.4181491118
 20
1772.7451963442
 10
879.8822754966
 20
1774.8558765917
 10
881.0718306078
 20
1776.9474337304
 10
882.9773346438
 20
1779.0031997251
 10
885.5836022634
 20
1781.0067917671
 10
888.869863601
 20
1782.9422428325
 10
892.8099297857
 20
1784.7941289264
 10
893.9424270463
 20
1785.2620043574
  0
SPLINE
  5
81
330
1F
100
AcDbEntity
  8
0
  6
Continuous
 62
     7
370
    25
100
AcDbSpline
210
0.0
220
0.0
230
1.0
 70
     8
 71
     3
 72
     8
 73
     4
 74
     0
 42
0.00000001
 43
0.00000001
 40
0.0
 40
0.0
 40
0.0
 40
0.0
 40
0.4492984413119823
 40
0.4492984413119823
 40
0.4492984413119823
 40
0.4492984413119823
 10
1043.564700710879
 20
1758.060374399471
 30
0.0
 10
1055.123402235083
 20
1761.968055997182
 30
0.0
 10
1065.479810586015
 20
1765.544942834012
 30
0.0
 10
1076.638591711148
 20
1768.800436642204
 30
0.0
  0
LWPOLYLINE
  5
82
330
1F
100
AcDbEntity
  8
0
  6
Continuous
 62
     7
370
    25
100
AcDbPolyline
 90
       29
 70
   128
 43
0.0
 10
879.4113381331
 20
1760.8651392533
 10
879.6831501688
 20
1759.0411035036
 10
880.6751668215
 20
1756.9426566827
 10
882.3862934917
 20
1754.8754689064
 10
884.8028938701
 20
1752.8560140057
 10
887.9057095873
 20
1750.900385419
 10
891.6700136868
 20
1749.0241679399
 10
896.0658076798
 20
1747.2423135189
 10
901.0580606085
 20
1745.5690221089
 10
906.6069882154
 20
1744.0176285023
 10
912.6683699914
 20
1742.6004960635
 10
919.1939015782
 20
1741.3289182033
 10
926.131579715
 20
1740.2130283789
 10
933.4261166635
 20
1739.2617193383
 10
941.0193808061
 20
1738.4825722528
 10
948.8508599089
 20
1737.8817963006
 10
956.8581433555
 20
1737.464179185
 10
964.9774195095
 20
1737.2330489799
 10
973.1439842427
 20
1737.190247608
 10
981.2927565745
 20
1737.3361161618
 10
989.3587973155
 20
1737.6694921858
 10
997.2778265809
 20
1738.1877189402
 10
1004.9867360496
 20
1738.8866665727
 10
1012.4240918871
 20
1739.7607650304
 10
1019.5306243237
 20
1740.8030484487
 10
1026.2496999874
 20
1742.0052106635
 10
1032.5277732261
 20
1743.3576714048
 10
1038.3148128243
 20
1744.8496526434
 10
1043.5647007109
 20
1746.469264484
  0
SPLINE
  5
83
330
1F
100
AcDbEntity
  8
0
  6
Continuous
 62
     7
370
    25
100
AcDbSpline
210
0.0
220
0.0
230
1.0
 70
     8
 71
     3
 72
     8
 73
     4
 74
     0
 42
0.00000001
 43
0.00000001
 40
0.7441621376508005
 40
0.7441621376508005
 40
0.7441621376508005
 40
0.7441621376508005
 40
0.8491156449647502
 40
0.8491156449647502
 40
0.8491156449647502
 40
0.8491156449647502
 10
1100.211678924957
 20
969.2151905009679
 30
0.0
 10
1103.266002967796
 20
969.8780603198809
 30
0.0
 10
1106.435897588045
 20
970.5237296080489
 30
0.0
 10
1109.746914976774
 20
971.1523182033233
 30
0.0
  0
LINE
  5
84
330
1F
100
AcDbEntity
  8
0
  6
Continuous
 62
     7
370
    25
100
AcDbLine
 10
1100.2116789297
 20
1732.2965932704
 30
0.0
 11
1100.2116789249
 21
969.215190501
 31
0.0
  0
SPLINE
  5
85
330
1F
100
AcDbEntity
  8
0
  6
Continuous
 62
     7
370
    25
100
AcDbSpline
210
0.0
220
0.0
230
1.0
 70
     8
 71
     3
 72
    28
 73
    24
 74
     0
 42
0.00000001
 43
0.00000001
 40
0.0
 40
0.0
 40
0.0
 40
0.0
 40
0.1250000000000049
 40
0.1250000000000049
 40
0.1875000000000075
 40
0.1875000000000075
 40
0.2500000000000102
 40
0.2500000000000102
 40
0.3750000000000131
 40
0.3750000000000131
 40
0.4375000000000147
 40
0.4375000000000147
 40
0.5000000000000161
 40
0.5000000000000161
 40
0.6250000000000191
 40
0.6250000000000191
 40
0.6875000000000179
 40
0.6875000000000179
 40
0.7500000000000167
 40
0.7500000000000167
 40
0.8750000000000084
 40
0.8750000000000084
 40
1.0
 40
1.0
 40
1.0
 40
1.0
 10
1076.63859171115
 20
1757.209326726736
 30
0.0
 10
1078.065910028355
 20
1757.625736538155
 30
0.0
 10
1079.489149472354
 20
1757.845051364454
 30
0.0
 10
1081.619504191631
 20
1757.88205343336
 30
0.0
 10
1082.328828837928
 20
1757.845405545563
 30
0.0
 10
1083.745606660278
 20
1757.670802814837
 30
0.0
 10
1084.456728937635
 20
1757.53157207349
 30
0.0
 10
1086.546423393223
 20
1756.964991105642
 30
0.0
 10
1087.888606505088
 20
1756.391524493264
 30
0.0
 10
1089.818823974027
 20
1755.237367323952
 30
0.0
 10
1090.44826905079
 20
1754.803353047633
 30
0.0
 10
1091.676535174639
 20
1753.832705532697
 30
0.0
 10
1092.271270641362
 20
1753.298600279387
 30
0.0
 10
1093.967280274192
 20
1751.578142683898
 30
0.0
 10
1094.993054810607
 20
1750.265667585796
 30
0.0
 10
1096.361895617347
 20
1748.047350461178
 30
0.0
 10
1096.791871299657
 20
1747.261029027605
 30
0.0
 10
1097.576186533337
 20
1745.631559710294
 30
0.0
 10
1097.931335965237
 20
1744.788415094302
 30
0.0
 10
1098.886325805205
 20
1742.17634248703
 30
0.0
 10
1099.376754042079
 20
1740.325658938375
 30
0.0
 10
1100.044080301344
 20
1736.398549350403
 30
0.0
 10
1100.211678929657
 20
1734.376404054121
 30
0.0
 10
1100.211678929657
 20
1732.296593270351
 30
0.0
  0
SPLINE
  5
86
330
1F
100
AcDbEntity
  8
0
  6
Continuous
 62
     7
370
    25
100
AcDbSpline
210
0.0
220
0.0
230
1.0
 70
     8
 71
     3
 72
    32
 73
    28
 74
     0
 42
0.00000001
 43
0.00000001
 40
0.0
 40
0.0
 40
0.0
 40
0.0
 40
0.1249999999999939
 40
0.1249999999999939
 40
0.1874999999999909
 40
0.1874999999999909
 40
0.2499999999999879
 40
0.2499999999999879
 40
0.3749999999999818
 40
0.3749999999999818
 40
0.4062499999999823
 40
0.4062499999999823
 40
0.4374999999999827
 40
0.4374999999999827
 40
0.4999999999999836
 40
0.4999999999999836
 40
0.6249999999999853
 40
0.6249999999999853
 40
0.6874999999999876
 40
0.6874999999999876
 40
0.7499999999999899
 40
0.7499999999999899
 40
0.8124999999999922
 40
0.8124999999999922
 40
0.8749999999999944
 40
0.8749999999999944
 40
1.0
 40
1.0
 40
1.0
 40
1.0
 10
1109.746914977614
 20
1734.233720971846
 30
0.0
 10
1109.746914977614
 20
1737.083672215885
 30
0.0
 10
1109.508273923145
 20
1739.839995278721
 30
0.0
 10
1108.810147584044
 20
1743.838334149727
 30
0.0
 10
1108.520368845878
 20
1745.148221782551
 30
0.0
 10
1107.825222861777
 20
1747.720503322936
 30
0.0
 10
1107.418669925156
 20
1748.983536965834
 30
0.0
 10
1106.055233172456
 20
1752.614361468466
 30
0.0
 10
1104.948730344731
 20
1754.855478733872
 30
0.0
 10
1103.332482856787
 20
1757.428703487754
 30
0.0
 10
1102.997481189629
 20
1757.931833061907
 30
0.0
 10
1102.303933022813
 20
1758.914525915355
 30
0.0
 10
1101.944744516763
 20
1759.39475523393
 30
0.0
 10
1100.844377881899
 20
1760.783687005806
 30
0.0
 10
1100.076999602805
 20
1761.646042636263
 30
0.0
 10
1097.681280442933
 20
1764.04672224676
 30
0.0
 10
1095.960246599173
 20
1765.400272022268
 30
0.0
 10
1093.20663877659
 20
1767.047588279823
 30
0.0
 10
1092.271171133841
 20
1767.525332391284
 30
0.0
 10
1090.381084584657
 20
1768.337192364076
 30
0.0
 10
1089.424471194322
 20
1768.672490427531
 30
0.0
 10
1087.490327880946
 20
1769.204602607476
 30
0.0
 10
1086.512795629058
 20
1769.40141410589
 30
0.0
 10
1084.537758028472
 20
1769.65585121762
 30
0.0
 10
1083.538216594937
 20
1769.712801732942
 30
0.0
 10
1080.563505454785
 20
1769.673112039897
 30
0.0
 10
1078.595308424602
 20
1769.371294612586
 30
0.0
 10
1076.638591711151
 20
1768.800436642205
 30
0.0
  0
LINE
  5
87
330
1F
100
AcDbEntity
  8
0
  6
Continuous
 62
     7
370
    25
100
AcDbLine
 10
1109.7469149768
 20
971.1523182033
 30
0.0
 11
1109.7469149776
 21
1734.2337209718
 31
0.0
  0
SPLINE
  5
88
330
1F
100
AcDbEntity
  8
0
  6
Continuous
 62
     7
370
    25
100
AcDbSpline
210
0.0
220
0.0
230
1.0
 70
     8
 71
     3
 72
     8
 73
     4
 74
     0
 42
0.00000001
 43
0.00000001
 40
0.0
 40
0.0
 40
0.0
 40
0.0
 40
0.4492984413120194
 40
0.4492984413120194
 40
0.4492984413120194
 40
0.4492984413120194
 10
1043.564700710879
 20
1746.469264484003
 30
0.0
 10
1055.123402235084
 20
1750.376946081714
 30
0.0
 10
1065.479810586017
 20
1753.953832918544
 30
0.0
 10
1076.63859171115
 20
1757.209326726736
 30
0.0
  0
LINE
  5
89
330
1F
100
AcDbEntity
  8
0
  6
Continuous
 62
     7
370
    25
100
AcDbLine
 10
1070.4483014445
 20
1776.4323761077
 30
0.0
 11
1053.9424270463
 21
1783.8317571737
 31
0.0
  0
SPLINE
  5
8A
330
1F
100
AcDbEntity
  8
0
  6
Continuous
 62
     7
370
    25
100
AcDbSpline
210
0.0
220
0.0
230
1.0
 70
     8
 71
     3
 72
    13
 73
     9
 74
     0
 42
0.00000001
 43
0.00000001
 40
0.0
 40
0.0
 40
0.0
 40
0.0
 40
0.0004534143765108
 40
0.414352513028883
 40
0.626396014466992
 40
0.8399472829805331
 40
0.9428441284642203
 40
1.0
 40
1.0
 40
1.0
 40
1.0
 10
1080.763358566108
 20
1772.669247987391
 30
0.0
 10
1080.761842318331
 20
1772.670017350676
 30
0.0
 10
1079.376220006599
 20
1773.373099623634
 30
0.0
 10
1077.058741703663
 20
1774.1865409313
 30
0.0
 10
1074.004369836291
 20
1775.232393407702
 30
0.0
 10
1072.083698391422
 20
1775.832634464453
 30
0.0
 10
1070.914958165026
 20
1776.234985528228
 30
0.0
 10
1070.571096642165
 20
1776.380435110894
 30
0.0
 10
1070.448301444478
 20
1776.43237610769
 30
0.0
  0
LINE
  5
8B
330
1F
100
AcDbEntity
  8
0
  6
Continuous
 62
     7
370
    25
100
AcDbLine
 10
960.4834802073
 20
908.4848765859
 30
0.0
 11
960.4834802073
 21
913.3145057174
 31
0.0
  0
LINE
  5
8C
330
1F
100
AcDbEntity
  8
0
  6
Continuous
 62
     7
370
    25
100
AcDbLine
 10
786.4834802073
 20
986.4869426645
 30
0.0
 11
960.4834802073
 21
908.4848765859
 31
0.0
  0
LINE
  5
8D
330
1F
100
AcDbEntity
  8
0
  6
Continuous
 62
     7
370
    25
100
AcDbLine
 10
786.4834802073
 20
986.4869426645
 30
0.0
 11
786.4834802073
 21
991.316571796
 31
0.0
  0
LINE
  5
8E
330
1F
100
AcDbEntity
  8
0
  6
Continuous
 62
     7
370
    25
100
AcDbLine
 10
786.4834802073
 20
991.316571796
 30
0.0
 11
960.4834802073
 21
913.3145057174
 31
0.0
  0
LINE
  5
8F
330
1F
100
AcDbEntity
  8
0
  6
Continuous
 62
     7
370
    25
100
AcDbLine
 10
1166.6686324687
 20
1048.127352196
 30
0.0
 11
1142.1045678632
 21
1044.456762559
 31
0.0
  0
LINE
  5
90
330
1F
100
AcDbEntity
  8
0
  6
Continuous
 62
     7
370
    25
100
AcDbLine
 10
1043.3949164128
 20
1029.7066538329
 30
0.0
 11
786.4834802073
 21
991.316571796
 31
0.0
  0
LINE
  5
91
330
1F
100
AcDbEntity
  8
0
  6
Continuous
 62
     7
370
    25
100
AcDbLine
 10
1340.6686324687
 20
970.1252861174
 30
0.0
 11
1166.6686324687
 21
1048.127352196
 31
0.0
  0
LINE
  5
92
330
1F
100
AcDbEntity
  8
0
  6
Continuous
 62
     7
370
    25
100
AcDbLine
 10
960.4834802073
 20
913.3145057174
 30
0.0
 11
1340.6686324687
 21
970.1252861174
 31
0.0
  0
LINE
  5
93
330
1F
100
AcDbEntity
  8
0
  6
Continuous
 62
     7
370
    25
100
AcDbLine
 10
1100.2116789249
 20
969.215190501
 30
0.0
 11
1043.3949164125
 21
994.6854483393
 31
0.0
  0
LINE
  5
94
330
1F
100
AcDbEntity
  8
0
  6
Continuous
 62
     7
370
    25
100
AcDbLine
 10
1109.7469149768
 20
975.6658658918
 30
0.0
 11
1124.7122630178
 21
977.9021265562
 31
0.0
  0
LINE
  5
95
330
1F
100
AcDbEntity
  8
0
  6
Continuous
 62
     7
370
    25
100
AcDbLine
 10
1340.6686324687
 20
965.2956569859
 30
0.0
 11
1340.6686324687
 21
970.1252861174
 31
0.0
  0
LINE
  5
96
330
1F
100
AcDbEntity
  8
0
  6
Continuous
 62
     7
370
    25
100
AcDbLine
 10
1332.4413911328
 20
964.0662665217
 30
0.0
 11
1340.6686324687
 21
965.2956569859
 31
0.0
  0
LINE
  5
97
330
1F
100
AcDbEntity
  8
0
  6
Continuous
 62
     7
370
    25
100
AcDbLine
 10
1332.4413911328
 20
674.288518635
 30
0.0
 11
1332.4413911328
 21
964.0662665217
 31
0.0
  0
LINE
  5
98
330
1F
100
AcDbEntity
  8
0
  6
Continuous
 62
     7
370
    25
100
AcDbLine
 10
1332.4413911328
 20
674.288518635
 30
0.0
 11
968.7107215433
 21
619.9365191634
 31
0.0
  0
LINE
  5
99
330
1F
100
AcDbEntity
  8
0
  6
Continuous
 62
     7
370
    25
100
AcDbLine
 10
968.7107215433
 20
619.9365191634
 30
0.0
 11
968.7107215433
 21
909.7142670502
 31
0.0
  0
LINE
  5
9A
330
1F
100
AcDbEntity
  8
0
  6
Continuous
 62
     7
370
    25
100
AcDbLine
 10
960.4834802073
 20
908.4848765859
 30
0.0
 11
968.7107215433
 21
909.7142670502
 31
0.0
  0
LINE
  5
9B
330
1F
100
AcDbEntity
  8
0
  6
Continuous
 62
     7
370
    25
100
AcDbLine
 10
1043.3949164125
 20
994.6854483393
 30
0.0
 11
1043.3949164183
 21
1746.4120458282
 31
0.0
  0
LINE
  5
9C
330
1F
100
AcDbEntity
  8
0
  6
Continuous
 62
     7
370
    25
100
AcDbLine
 10
968.7107215433
 20
619.9365191634
 30
0.0
 11
794.7107215433
 21
697.9385852421
 31
0.0
  0
LINE
  5
9D
330
1F
100
AcDbEntity
  8
0
  6
Continuous
 62
     7
370
    25
100
AcDbLine
 10
794.7107215433
 20
697.9385852421
 30
0.0
 11
794.7107215433
 21
982.7987712718
 31
0.0
  0
MTEXT
  5
9F
330
1F
100
AcDbEntity
  8
0
  6
Continuous
 62
     7
370
     0
100
AcDbMText
 10
1378.015034054
 20
619.7708927794
 30
0.0
 40
26.4583333333
 41
0.0
 71
     1
 72
     1
  1
HOA-D62BK
  7
SLDTEXTSTYLE0
 73
     1
 44
1.0
  0
ENDSEC
  0
SECTION
  2
OBJECTS
  0
DICTIONARY
  5
C
330
0
100
AcDbDictionary
281
     1
  3
ACAD_GROUP
350
D
  3
ACAD_LAYOUT
350
1A
  3
ACAD_MLINESTYLE
350
17
  3
ACAD_PLOTSETTINGS
350
19
  3
ACAD_PLOTSTYLENAME
350
E
  3
ACAD_SCALELIST
350
47
  3
DWGPROPS
350
A0
  0
DICTIONARY
  5
D
102
{ACAD_REACTORS
330
C
102
}
330
C
100
AcDbDictionary
281
     1
  0
DICTIONARY
  5
1A
102
{ACAD_REACTORS
330
C
102
}
330
C
100
AcDbDictionary
281
     1
  3
Layout1
350
1E
  3
Layout2
350
26
  3
Model
350
22
  0
DICTIONARY
  5
17
102
{ACAD_REACTORS
330
C
102
}
330
C
100
AcDbDictionary
281
     1
  3
Standard
350
18
  0
DICTIONARY
  5
19
102
{ACAD_REACTORS
330
C
102
}
330
C
100
AcDbDictionary
281
     1
  0
ACDBDICTIONARYWDFLT
  5
E
102
{ACAD_REACTORS
330
C
102
}
330
C
100
AcDbDictionary
281
     1
  3
Normal
350
F
100
AcDbDictionaryWithDefault
340
F
  0
DICTIONARY
  5
47
102
{ACAD_REACTORS
330
C
102
}
330
C
100
AcDbDictionary
281
     1
  3
A0
350
48
  3
A1
350
49
  3
A2
350
4A
  3
A3
350
4B
  3
A4
350
4C
  3
A5
350
4D
  3
A6
350
4E
  3
A7
350
4F
  3
A8
350
50
  3
A9
350
51
  3
B0
350
52
  3
B1
350
53
  3
B2
350
54
  3
B3
350
55
  3
B4
350
56
  3
B5
350
57
  3
B6
350
58
  0
XRECORD
  5
A0
102
{ACAD_REACTORS
330
C
102
}
330
C
100
AcDbXrecord
280
     1
  1
DWGPROPS COOKIE
  2

  3

  4

  6

  7

  8
9128
  9

300
=
301
=
302
=
303
=
304
=
305
=
306
=
307
=
308
=
309
=
 40
0.0
 41
2460376.995400128
 42
2460376.995400475
  1

 90
        0
  0
LAYOUT
  5
1E
102
{ACAD_REACTORS
330
1A
102
}
330
1A
100
AcDbPlotSettings
  1

  2
none_device
  4

  6

 40
0.0
 41
0.0
 42
0.0
 43
0.0
 44
0.0
 45
0.0
 46
0.0
 47
0.0
 48
0.0
 49
0.0
140
0.0
141
0.0
142
1.0
143
1.0
 70
   688
 72
     1
 73
     0
 74
     5
  7

 75
    16
147
1.0
148
0.0
149
0.0
100
AcDbLayout
  1
Layout1
 70
     1
 71
     1
 10
0.0
 20
0.0
 11
420.0
 21
297.0
 12
0.0
 22
0.0
 32
0.0
 14
1.0000000000E+20
 24
1.0000000000E+20
 34
1.0000000000E+20
 15
-1.0000000000E+20
 25
-1.0000000000E+20
 35
-1.0000000000E+20
146
0.0
 13
0.0
 23
0.0
 33
0.0
 16
1.0
 26
0.0
 36
0.0
 17
0.0
 27
1.0
 37
0.0
 76
     0
330
1B
  0
LAYOUT
  5
26
102
{ACAD_REACTORS
330
1A
102
}
330
1A
100
AcDbPlotSettings
  1

  2
none_device
  4

  6

 40
0.0
 41
0.0
 42
0.0
 43
0.0
 44
0.0
 45
0.0
 46
0.0
 47
0.0
 48
0.0
 49
0.0
140
0.0
141
0.0
142
1.0
143
1.0
 70
   688
 72
     1
 73
     0
 74
     5
  7

 75
    16
147
1.0
148
0.0
149
0.0
100
AcDbLayout
  1
Layout2
 70
     1
 71
     2
 10
0.0
 20
0.0
 11
0.0
 21
0.0
 12
0.0
 22
0.0
 32
0.0
 14
0.0
 24
0.0
 34
0.0
 15
0.0
 25
0.0
 35
0.0
146
0.0
 13
0.0
 23
0.0
 33
0.0
 16
1.0
 26
0.0
 36
0.0
 17
0.0
 27
1.0
 37
0.0
 76
     0
330
23
  0
LAYOUT
  5
22
102
{ACAD_REACTORS
330
1A
102
}
330
1A
100
AcDbPlotSettings
  1

  2
none_device
  4
Letter_(8.50_x_11.00_Inches)
  6

 40
6.35
 41
6.35
 42
6.35000508
 43
6.35000508
 44
215.9
 45
279.4
 46
0.0
 47
0.0
 48
0.0
 49
0.0
140
0.0
141
0.0
142
1.0
143
1.0
 70
  1712
 72
     1
 73
     0
 74
     0
  7

 75
     0
147
1.0
148
0.0
149
0.0
100
AcDbLayout
  1
Model
 70
     1
 71
     0
 10
0.0
 20
0.0
 11
2100.0
 21
2970.0
 12
0.0
 22
0.0
 32
0.0
 14
0.0
 24
0.0
 34
0.0
 15
2100.0
 25
2970.0
 35
0.0
146
0.0
 13
0.0
 23
0.0
 33
0.0
 16
1.0
 26
0.0
 36
0.0
 17
0.0
 27
1.0
 37
0.0
 76
     0
330
1F
331
29
  0
MLINESTYLE
  5
18
102
{ACAD_REACTORS
330
17
102
}
330
17
100
AcDbMlineStyle
  2
Standard
 70
     0
  3

 62
   256
 51
90.0
 52
90.0
 71
     2
 49
0.5
 62
   256
  6
BYLAYER
 49
-0.5
 62
   256
  6
BYLAYER
  0
ACDBPLACEHOLDER
  5
F
102
{ACAD_REACTORS
330
E
102
}
330
E
  0
SCALE
  5
48
102
{ACAD_REACTORS
330
47
102
}
330
47
100
AcDbScale
 70
     0
300
1:1
140
1.0
141
1.0
290
     1
  0
SCALE
  5
49
102
{ACAD_REACTORS
330
47
102
}
330
47
100
AcDbScale
 70
     0
300
1:2
140
1.0
141
2.0
290
     0
  0
SCALE
  5
4A
102
{ACAD_REACTORS
330
47
102
}
330
47
100
AcDbScale
 70
     0
300
1:4
140
1.0
141
4.0
290
     0
  0
SCALE
  5
4B
102
{ACAD_REACTORS
330
47
102
}
330
47
100
AcDbScale
 70
     0
300
1:5
140
1.0
141
5.0
290
     0
  0
SCALE
  5
4C
102
{ACAD_REACTORS
330
47
102
}
330
47
100
AcDbScale
 70
     0
300
1:8
140
1.0
141
8.0
290
     0
  0
SCALE
  5
4D
102
{ACAD_REACTORS
330
47
102
}
330
47
100
AcDbScale
 70
     0
300
1:10
140
1.0
141
10.0
290
     0
  0
SCALE
  5
4E
102
{ACAD_REACTORS
330
47
102
}
330
47
100
AcDbScale
 70
     0
300
1:16
140
1.0
141
16.0
290
     0
  0
SCALE
  5
4F
102
{ACAD_REACTORS
330
47
102
}
330
47
100
AcDbScale
 70
     0
300
1:20
140
1.0
141
20.0
290
     0
  0
SCALE
  5
50
102
{ACAD_REACTORS
330
47
102
}
330
47
100
AcDbScale
 70
     0
300
1:30
140
1.0
141
30.0
290
     0
  0
SCALE
  5
51
102
{ACAD_REACTORS
330
47
102
}
330
47
100
AcDbScale
 70
     0
300
1:40
140
1.0
141
40.0
290
     0
  0
SCALE
  5
52
102
{ACAD_REACTORS
330
47
102
}
330
47
100
AcDbScale
 70
     0
300
1:50
140
1.0
141
50.0
290
     0
  0
SCALE
  5
53
102
{ACAD_REACTORS
330
47
102
}
330
47
100
AcDbScale
 70
     0
300
1:100
140
1.0
141
100.0
290
     0
  0
SCALE
  5
54
102
{ACAD_REACTORS
330
47
102
}
330
47
100
AcDbScale
 70
     0
300
2:1
140
2.0
141
1.0
290
     0
  0
SCALE
  5
55
102
{ACAD_REACTORS
330
47
102
}
330
47
100
AcDbScale
 70
     0
300
4:1
140
4.0
141
1.0
290
     0
  0
SCALE
  5
56
102
{ACAD_REACTORS
330
47
102
}
330
47
100
AcDbScale
 70
     0
300
8:1
140
8.0
141
1.0
290
     0
  0
SCALE
  5
57
102
{ACAD_REACTORS
330
47
102
}
330
47
100
AcDbScale
 70
     0
300
10:1
140
10.0
141
1.0
290
     0
  0
SCALE
  5
58
102
{ACAD_REACTORS
330
47
102
}
330
47
100
AcDbScale
 70
     0
300
100:1
140
100.0
141
1.0
290
     0
  0
ENDSEC
  0
EOF
