  0
SECTION
  2
HEADER
  9
$ACADVER
  1
AC1015
  9
$ACADMAINTVER
 70
     6
  9
$DWGCODEPAGE
  3
DOS932
  9
$INSBASE
 10
0.0
 20
0.0
 30
0.0
  9
$EXTMIN
 10
0.0
 20
0.0
 30
0.0
  9
$EXTMAX
 10
2100.0
 20
2970.0
 30
0.0
  9
$LIMMIN
 10
0.0
 20
0.0
  9
$LIMMAX
 10
2100.0
 20
2970.0
  9
$ORTHOMODE
 70
     0
  9
$REGENMODE
 70
     1
  9
$FILLMODE
 70
     1
  9
$QTEXTMODE
 70
     0
  9
$MIRRTEXT
 70
     1
  9
$LTSCALE
 40
10.0
  9
$ATTMODE
 70
     1
  9
$TEXTSIZE
 40
35.2777777778
  9
$TRACEWID
 40
1.0
  9
$TEXTSTYLE
  7
Standard
  9
$CLAYER
  8
0
  9
$CELTYPE
  6
ByLayer
  9
$CECOLOR
 62
   256
  9
$CELTSCALE
 40
1.0
  9
$DISPSILH
 70
     0
  9
$DIMSCALE
 40
1.0
  9
$DIMASZ
 40
15.0
  9
$DIMEXO
 40
10.0
  9
$DIMDLI
 40
3.75
  9
$DIMRND
 40
0.0
  9
$DIMDLE
 40
0.0
  9
$DIMEXE
 40
10.0
  9
$DIMTP
 40
0.0
  9
$DIMTM
 40
0.0
  9
$DIMTXT
 40
35.2777777778
  9
$DIMCEN
 40
2.5
  9
$DIMTSZ
 40
0.0
  9
$DIMTOL
 70
     0
  9
$DIMLIM
 70
     0
  9
$DIMTIH
 70
     1
  9
$DIMTOH
 70
     1
  9
$DIMSE1
 70
     0
  9
$DIMSE2
 70
     0
  9
$DIMTAD
 70
     1
  9
$DIMZIN
 70
     0
  9
$DIMBLK
  1

  9
$DIMASO
 70
     1
  9
$DIMSHO
 70
     1
  9
$DIMPOST
  1

  9
$DIMAPOST
  1

  9
$DIMALT
 70
     0
  9
$DIMALTD
 70
     3
  9
$DIMALTF
 40
0.0393700787
  9
$DIMLFAC
 40
1.0
  9
$DIMTOFL
 70
     1
  9
$DIMTVP
 40
0.0
  9
$DIMTIX
 70
     0
  9
$DIMSOXD
 70
     0
  9
$DIMSAH
 70
     0
  9
$DIMBLK1
  1

  9
$DIMBLK2
  1

  9
$DIMSTYLE
  2
ISO-25
  9
$DIMCLRD
 70
     0
  9
$DIMCLRE
 70
     0
  9
$DIMCLRT
 70
     0
  9
$DIMTFAC
 40
1.0
  9
$DIMGAP
 40
15.0
  9
$DIMJUST
 70
     0
  9
$DIMSD1
 70
     0
  9
$DIMSD2
 70
     0
  9
$DIMTOLJ
 70
     0
  9
$DIMTZIN
 70
     0
  9
$DIMALTZ
 70
     0
  9
$DIMALTTZ
 70
     0
  9
$DIMUPT
 70
     0
  9
$DIMDEC
 70
     1
  9
$DIMTDEC
 70
     1
  9
$DIMALTU
 70
     2
  9
$DIMALTTD
 70
     3
  9
$DIMTXSTY
  7
Standard
  9
$DIMAUNIT
 70
     0
  9
$DIMADEC
 70
     2
  9
$DIMALTRND
 40
0.0
  9
$DIMAZIN
 70
     0
  9
$DIMDSEP
 70
    44
  9
$DIMATFIT
 70
     3
  9
$DIMFRAC
 70
     0
  9
$DIMLDRBLK
  1

  9
$DIMLUNIT
 70
     2
  9
$DIMLWD
 70
    -2
  9
$DIMLWE
 70
    -2
  9
$DIMTMOVE
 70
     0
  9
$LUNITS
 70
     2
  9
$LUPREC
 70
     2
  9
$SKETCHINC
 40
1.0
  9
$FILLETRAD
 40
0.0
  9
$AUNITS
 70
     0
  9
$AUPREC
 70
     2
  9
$MENU
  1
.
  9
$ELEVATION
 40
0.0
  9
$PELEVATION
 40
0.0
  9
$THICKNESS
 40
0.0
  9
$LIMCHECK
 70
     0
  9
$CHAMFERA
 40
0.0
  9
$CHAMFERB
 40
0.0
  9
$CHAMFERC
 40
0.0
  9
$CHAMFERD
 40
0.0
  9
$SKPOLY
 70
     0
  9
$TDCREATE
 40
2460377.370655579
  9
$TDUCREATE
 40
2460376.995655579
  9
$TDUPDATE
 40
2460377.370655857
  9
$TDUUPDATE
 40
2460376.995655857
  9
$TDINDWG
 40
0.0000000116
  9
$TDUSRTIMER
 40
0.0000000116
  9
$USRTIMER
 70
     1
  9
$ANGBASE
 50
0.0
  9
$ANGDIR
 70
     0
  9
$PDMODE
 70
     0
  9
$PDSIZE
 40
-1.0
  9
$PLINEWID
 40
0.0
  9
$SPLFRAME
 70
     0
  9
$SPLINETYPE
 70
     6
  9
$SPLINESEGS
 70
     8
  9
$HANDSEED
  5
C6
  9
$SURFTAB1
 70
     6
  9
$SURFTAB2
 70
     6
  9
$SURFTYPE
 70
     6
  9
$SURFU
 70
     6
  9
$SURFV
 70
     6
  9
$UCSBASE
  2

  9
$UCSNAME
  2

  9
$UCSORG
 10
0.0
 20
0.0
 30
0.0
  9
$UCSXDIR
 10
1.0
 20
0.0
 30
0.0
  9
$UCSYDIR
 10
0.0
 20
1.0
 30
0.0
  9
$UCSORTHOREF
  2

  9
$UCSORTHOVIEW
 70
     0
  9
$UCSORGTOP
 10
0.0
 20
0.0
 30
0.0
  9
$UCSORGBOTTOM
 10
0.0
 20
0.0
 30
0.0
  9
$UCSORGLEFT
 10
0.0
 20
0.0
 30
0.0
  9
$UCSORGRIGHT
 10
0.0
 20
0.0
 30
0.0
  9
$UCSORGFRONT
 10
0.0
 20
0.0
 30
0.0
  9
$UCSORGBACK
 10
0.0
 20
0.0
 30
0.0
  9
$PUCSBASE
  2

  9
$PUCSNAME
  2

  9
$PUCSORG
 10
0.0
 20
0.0
 30
0.0
  9
$PUCSXDIR
 10
1.0
 20
0.0
 30
0.0
  9
$PUCSYDIR
 10
0.0
 20
1.0
 30
0.0
  9
$PUCSORTHOREF
  2

  9
$PUCSORTHOVIEW
 70
     0
  9
$PUCSORGTOP
 10
0.0
 20
0.0
 30
0.0
  9
$PUCSORGBOTTOM
 10
0.0
 20
0.0
 30
0.0
  9
$PUCSORGLEFT
 10
0.0
 20
0.0
 30
0.0
  9
$PUCSORGRIGHT
 10
0.0
 20
0.0
 30
0.0
  9
$PUCSORGFRONT
 10
0.0
 20
0.0
 30
0.0
  9
$PUCSORGBACK
 10
0.0
 20
0.0
 30
0.0
  9
$USERI1
 70
     0
  9
$USERI2
 70
     0
  9
$USERI3
 70
     0
  9
$USERI4
 70
     0
  9
$USERI5
 70
     0
  9
$USERR1
 40
0.0
  9
$USERR2
 40
0.0
  9
$USERR3
 40
0.0
  9
$USERR4
 40
0.0
  9
$USERR5
 40
0.0
  9
$WORLDVIEW
 70
     1
  9
$SHADEDGE
 70
     3
  9
$SHADEDIF
 70
    70
  9
$TILEMODE
 70
     1
  9
$MAXACTVP
 70
    64
  9
$PINSBASE
 10
0.0
 20
0.0
 30
0.0
  9
$PLIMCHECK
 70
     0
  9
$PEXTMIN
 10
1.0000000000E+20
 20
1.0000000000E+20
 30
1.0000000000E+20
  9
$PEXTMAX
 10
-1.0000000000E+20
 20
-1.0000000000E+20
 30
-1.0000000000E+20
  9
$PLIMMIN
 10
0.0
 20
0.0
  9
$PLIMMAX
 10
420.0
 20
297.0
  9
$UNITMODE
 70
     0
  9
$VISRETAIN
 70
     1
  9
$PLINEGEN
 70
     0
  9
$PSLTSCALE
 70
     1
  9
$TREEDEPTH
 70
  3020
  9
$CMLSTYLE
  2
Standard
  9
$CMLJUST
 70
     0
  9
$CMLSCALE
 40
20.0
  9
$PROXYGRAPHICS
 70
     1
  9
$MEASUREMENT
 70
     1
  9
$CELWEIGHT
370
    -1
  9
$ENDCAPS
280
     0
  9
$JOINSTYLE
280
     0
  9
$LWDISPLAY
290
     1
  9
$INSUNITS
 70
     4
  9
$HYPERLINKBASE
  1

  9
$STYLESHEET
  1

  9
$XEDIT
290
     1
  9
$CEPSNTYPE
380
     0
  9
$PSTYLEMODE
290
     1
  9
$FINGERPRINTGUID
  2
{7fd0f05a-e404-4290-b929-0099ab1d563b}
  9
$VERSIONGUID
  2
{FAEB1C32-E019-11D5-929B-00C0DF256EC4}
  9
$EXTNAMES
290
     1
  9
$PSVPSCALE
 40
0.0
  9
$OLESTARTUP
290
     0
  0
ENDSEC
  0
SECTION
  2
CLASSES
  0
CLASS
  1
ACDBDICTIONARYWDFLT
  2
AcDbDictionaryWithDefault
  3
ObjectDBX Classes
 90
        0
280
     0
281
     0
  0
CLASS
  1
VISUALSTYLE
  2
AcDbVisualStyle
  3
ObjectDBX Classes
 90
     4095
280
     0
281
     0
  0
CLASS
  1
MATERIAL
  2
AcDbMaterial
  3
ObjectDBX Classes
 90
     1153
280
     0
281
     0
  0
CLASS
  1
SCALE
  2
AcDbScale
  3
ObjectDBX Classes
 90
     1153
280
     0
281
     0
  0
CLASS
  1
TABLESTYLE
  2
AcDbTableStyle
  3
ObjectDBX Classes
 90
     4095
280
     0
281
     0
  0
CLASS
  1
MLEADERSTYLE
  2
AcDbMLeaderStyle
  3
ACDB_MLEADERSTYLE_CLASS
 90
     4095
280
     0
281
     0
  0
CLASS
  1
SUN
  2
AcDbSun
  3
SCENEOE
 90
     1153
280
     0
281
     0
  0
CLASS
  1
ACDBPLACEHOLDER
  2
AcDbPlaceHolder
  3
ObjectDBX Classes
 90
        0
280
     0
281
     0
  0
CLASS
  1
LAYOUT
  2
AcDbLayout
  3
ObjectDBX Classes
 90
        0
280
     0
281
     0
  0
ENDSEC
  0
SECTION
  2
TABLES
  0
TABLE
  2
VPORT
  5
8
330
0
100
AcDbSymbolTable
 70
     1
  0
VPORT
  5
29
330
8
100
AcDbSymbolTableRecord
100
AcDbViewportTableRecord
  2
*Active
 70
     0
 10
0.0
 20
0.0
 11
1.0
 21
1.0
 12
1050.0
 22
1485.0
 13
0.0
 23
0.0
 14
10.0
 24
10.0
 15
10.0
 25
10.0
 16
0.0
 26
0.0
 36
1.0
 17
0.0
 27
0.0
 37
0.0
 40
2970.0
 41
0.7070707071
 42
50.0
 43
0.0
 44
0.0
 50
0.0
 51
0.0
 71
     0
 72
  2000
 73
     1
 74
     3
 75
     0
 76
     0
 77
     0
 78
     0
281
     0
 65
     1
110
0.0
120
0.0
130
0.0
111
1.0
121
0.0
131
0.0
112
0.0
122
1.0
132
0.0
 79
     0
146
0.0
  0
ENDTAB
  0
TABLE
  2
LTYPE
  5
5
330
0
100
AcDbSymbolTable
 70
     6
  0
LTYPE
  5
14
330
5
100
AcDbSymbolTableRecord
100
AcDbLinetypeTableRecord
  2
ByBlock
 70
     0
  3

 72
    65
 73
     0
 40
0.0
  0
LTYPE
  5
15
330
5
100
AcDbSymbolTableRecord
100
AcDbLinetypeTableRecord
  2
ByLayer
 70
     0
  3

 72
    65
 73
     0
 40
0.0
  0
LTYPE
  5
16
330
5
100
AcDbSymbolTableRecord
100
AcDbLinetypeTableRecord
  2
Continuous
 70
     0
  3
Solid line
 72
    65
 73
     0
 40
0.0
  0
LTYPE
  5
5E
330
5
100
AcDbSymbolTableRecord
100
AcDbLinetypeTableRecord
  2
HIDDEN
 70
     0
  3
Hidden __ __ __ __ __ __ __ __ __ __ __ __ __ __
 72
    65
 73
     2
 40
1.905
 49
1.27
 74
     0
 49
-0.635
 74
     0
  0
LTYPE
  5
5F
330
5
100
AcDbSymbolTableRecord
100
AcDbLinetypeTableRecord
  2
PHANTOM
 70
     0
  3
Phantom ______  __  __  ______  __  __  ______
 72
    65
 73
     6
 40
12.7
 49
6.35
 74
     0
 49
-1.27
 74
     0
 49
1.27
 74
     0
 49
-1.27
 74
     0
 49
1.27
 74
     0
 49
-1.27
 74
     0
  0
LTYPE
  5
60
330
5
100
AcDbSymbolTableRecord
100
AcDbLinetypeTableRecord
  2
CENTER
 70
     0
  3
Center ____ _ ____ _ ____ _ ____ _ ____ _ ____
 72
    65
 73
     4
 40
10.16
 49
6.35
 74
     0
 49
-1.27
 74
     0
 49
1.27
 74
     0
 49
-1.27
 74
     0
  0
LTYPE
  5
61
330
5
100
AcDbSymbolTableRecord
100
AcDbLinetypeTableRecord
  2
CENTERX2
 70
     0
  3
Center (2x) ________  __  ________  __  _____
 72
    65
 73
     4
 40
20.32
 49
12.7
 74
     0
 49
-2.54
 74
     0
 49
2.54
 74
     0
 49
-2.54
 74
     0
  0
LTYPE
  5
62
330
5
100
AcDbSymbolTableRecord
100
AcDbLinetypeTableRecord
  2
DOT2
 70
     0
  3
Dot (.5x) ........................................
 72
    65
 73
     2
 40
0.635
 49
0.0
 74
     0
 49
-0.635
 74
     0
  0
ENDTAB
  0
TABLE
  2
LAYER
  5
2
330
0
100
AcDbSymbolTable
 70
     2
  0
LAYER
  5
10
330
2
100
AcDbSymbolTableRecord
100
AcDbLayerTableRecord
  2
0
 70
     0
 62
     7
  6
Continuous
370
    -3
390
F
  0
LAYER
  5
63
330
2
100
AcDbSymbolTableRecord
100
AcDbLayerTableRecord
  2
FORMAT
 70
     0
 62
     7
  6
Continuous
370
    -3
390
F
  0
ENDTAB
  0
TABLE
  2
STYLE
  5
3
330
0
100
AcDbSymbolTable
 70
     2
  0
STYLE
  5
11
330
3
100
AcDbSymbolTableRecord
100
AcDbTextStyleTableRecord
  2
Standard
 70
     0
 40
0.0
 41
1.0
 50
0.0
 71
     0
 42
35.2777777778
  3
txt
  4
bigfont
  0
STYLE
  5
C3
330
3
100
AcDbSymbolTableRecord
100
AcDbTextStyleTableRecord
  2
SLDTEXTSTYLE0
 70
     0
 40
0.0
 41
0.7
 50
0.0
 71
     0
 42
35.2777777778
  3
TXT
  4
bigfont
  0
ENDTAB
  0
TABLE
  2
VIEW
  5
6
330
0
100
AcDbSymbolTable
 70
     0
  0
ENDTAB
  0
TABLE
  2
UCS
  5
7
330
0
100
AcDbSymbolTable
 70
     0
  0
ENDTAB
  0
TABLE
  2
APPID
  5
9
330
0
100
AcDbSymbolTable
 70
     1
  0
APPID
  5
12
330
9
100
AcDbSymbolTableRecord
100
AcDbRegAppTableRecord
  2
ACAD
 70
     0
  0
ENDTAB
  0
TABLE
  2
DIMSTYLE
  5
A
330
0
100
AcDbSymbolTable
 70
     1
100
AcDbDimStyleTable
  0
DIMSTYLE
105
27
330
A
100
AcDbSymbolTableRecord
100
AcDbDimStyleTableRecord
  2
ISO-25
 70
     0
 41
2.5
 42
0.625
 43
3.75
 44
1.25
 73
     0
 74
     0
 77
     1
 78
     8
140
2.5
141
2.5
143
0.0393700787
147
0.625
171
     3
172
     1
178
     0
271
     2
272
     2
274
     3
278
    44
283
     0
284
     8
340
11
  0
ENDTAB
  0
TABLE
  2
BLOCK_RECORD
  5
1
330
0
100
AcDbSymbolTable
 70
     1
  0
BLOCK_RECORD
  5
1F
330
1
100
AcDbSymbolTableRecord
100
AcDbBlockTableRecord
  2
*Model_Space
340
22
  0
BLOCK_RECORD
  5
1B
330
1
100
AcDbSymbolTableRecord
100
AcDbBlockTableRecord
  2
*Paper_Space
340
1E
  0
BLOCK_RECORD
  5
23
330
1
100
AcDbSymbolTableRecord
100
AcDbBlockTableRecord
  2
*Paper_Space0
340
26
  0
ENDTAB
  0
ENDSEC
  0
SECTION
  2
BLOCKS
  0
BLOCK
  5
20
330
1F
100
AcDbEntity
  8
0
100
AcDbBlockBegin
  2
*Model_Space
 70
     0
 10
0.0
 20
0.0
 30
0.0
  3
*Model_Space
  1

  0
ENDBLK
  5
21
330
1F
100
AcDbEntity
  8
0
100
AcDbBlockEnd
  0
BLOCK
  5
1C
330
1B
100
AcDbEntity
 67
     1
  8
0
100
AcDbBlockBegin
  2
*Paper_Space
 70
     0
 10
0.0
 20
0.0
 30
0.0
  3
*Paper_Space
  1

  0
ENDBLK
  5
1D
330
1B
100
AcDbEntity
 67
     1
  8
0
100
AcDbBlockEnd
  0
BLOCK
  5
24
330
23
100
AcDbEntity
  8
0
100
AcDbBlockBegin
  2
*Paper_Space0
 70
     0
 10
0.0
 20
0.0
 30
0.0
  3
*Paper_Space0
  1

  0
ENDBLK
  5
25
330
23
100
AcDbEntity
  8
0
100
AcDbBlockEnd
  0
ENDSEC
  0
SECTION
  2
ENTITIES
  0
LINE
  5
64
330
1F
100
AcDbEntity
  8
0
  6
Continuous
 62
     7
370
    25
100
AcDbLine
 10
877.9982507143
 20
2434.606069899
 30
0.0
 11
877.9982507143
 21
2423.0149599835
 31
0.0
  0
LINE
  5
65
330
1F
100
AcDbEntity
  8
0
  6
Continuous
 62
     7
370
    25
100
AcDbLine
 10
1052.5293396275
 20
1724.1375950792
 30
0.0
 11
1052.5293396275
 21
2412.0301451632
 31
0.0
  0
LINE
  5
66
330
1F
100
AcDbEntity
  8
0
  6
Continuous
 62
     7
370
    25
100
AcDbLine
 10
892.5293396275
 20
2410.2092047949
 30
0.0
 11
892.5293396275
 21
1724.1375950792
 31
0.0
  0
LINE
  5
67
330
1F
100
AcDbEntity
  8
0
  6
Continuous
 62
     7
370
    25
100
AcDbLine
 10
1111.3587935397
 20
2431.9992802966
 30
0.0
 11
1056.6193052594
 21
2456.5383215722
 31
0.0
  0
LINE
  5
68
330
1F
100
AcDbEntity
  8
0
  6
Continuous
 62
     7
370
    25
100
AcDbLine
 10
877.9982507143
 20
1723.6846617503
 30
0.0
 11
877.9982507143
 21
1712.0935518348
 31
0.0
  0
LINE
  5
69
330
1F
100
AcDbEntity
  8
0
  6
Continuous
 62
     7
370
    25
100
AcDbLine
 10
1335.2000314228
 20
1505.5768901419
 30
0.0
 11
1335.2000314228
 21
2186.7588115577
 31
0.0
  0
LINE
  5
6A
330
1F
100
AcDbEntity
  8
0
  6
Continuous
 62
     7
370
    25
100
AcDbLine
 10
1175.2000314228
 20
2163.8920816827
 30
0.0
 11
1175.2000314228
 21
1505.5768901419
 31
0.0
  0
LINE
  5
6B
330
1F
100
AcDbEntity
  8
0
  6
Continuous
 62
     7
370
    25
100
AcDbLine
 10
1349.731120336
 20
2199.5645667463
 30
0.0
 11
1349.731120336
 21
2211.1556766618
 31
0.0
  0
LINE
  5
6C
330
1F
100
AcDbEntity
  8
0
  6
Continuous
 62
     7
370
    25
100
AcDbLine
 10
1089.9042586486
 20
1719.1667063769
 30
0.0
 11
1079.3503808618
 21
1723.8978803569
 31
0.0
  0
LINE
  5
6D
330
1F
100
AcDbEntity
  8
0
  6
Continuous
 62
     7
370
    25
100
AcDbLine
 10
1086.8212919579
 20
1748.7018291965
 30
0.0
 11
1052.5293396275
 21
1743.5776086378
 31
0.0
  0
LINE
  5
6E
330
1F
100
AcDbEntity
  8
0
  6
Continuous
 62
     7
370
    25
100
AcDbLine
 10
1349.731120336
 20
1494.4387135553
 30
0.0
 11
1349.731120336
 21
1506.0298234708
 31
0.0
  0
LINE
  5
6F
330
1F
100
AcDbEntity
  8
0
  6
Continuous
 62
     7
370
    25
100
AcDbLine
 10
1155.9571318233
 20
1498.232772477
 30
0.0
 11
1151.4301954513
 21
1497.5563157911
 31
0.0
  0
LWPOLYLINE
  5
70
330
1F
100
AcDbEntity
  8
0
  6
Continuous
 62
     7
370
    25
100
AcDbPolyline
 90
       44
 70
   128
 43
0.0
 10
953.2047285923
 20
2457.9095180309
 10
945.2587737982
 20
2457.4419160504
 10
937.5050679659
 20
2456.793197632
 10
930.0051075503
 20
2455.9685079133
 10
922.8183764918
 20
2454.9743877013
 10
916.0018744357
 20
2453.8187215959
 10
909.6096646544
 20
2452.5106754556
 10
903.6924452591
 20
2451.0606237
 10
898.297147101
 20
2449.480067029
 10
893.4665615519
 20
2447.7815412073
 10
889.2390011158
 20
2445.9785176404
 10
885.6479955636
 20
2444.0852965301
 10
882.7220260003
 20
2442.1168934559
 10
880.4842989751
 20
2440.0889202831
 10
878.9525624243
 20
2438.0174613412
 10
878.138964909
 20
2435.9189458558
 10
878.0499592613
 20
2433.810017644
 10
878.6862514059
 20
2431.7074031089
 10
880.0427947609
 20
2429.6277785782
 10
882.1088302637
 20
2427.5876380405
 10
884.8679717032
 20
2425.6031623278
 10
888.2983356834
 20
2423.690090781
 10
892.3727151851
 20
2421.8635964183
 10
897.0587953512
 20
2420.1381655936
 10
902.3194097838
 20
2418.5274831025
 10
908.1128353191
 20
2417.0443236446
 10
914.3931229439
 20
2415.7004505045
 10
921.1104622281
 20
2414.5065222544
 10
928.2115763821
 20
2413.4720082187
 10
935.6401448087
 20
2412.6051133701
 10
943.3372497936
 20
2411.9127132544
 10
951.2418437968
 20
2411.4002994591
 10
959.2912336341
 20
2411.0719360577
 10
967.4215777115
 20
2410.9302273771
 10
975.5683923683
 20
2410.9762973422
 10
983.6670633117
 20
2411.2097805612
 10
991.6533580878
 20
2411.6288252242
 10
999.4639355245
 20
2412.2301077897
 10
1007.0368481051
 20
2413.0088593452
 10
1014.3120332882
 20
2413.9589034299
 10
1021.2317898783
 20
2415.072705022
 10
1027.7412356672
 20
2416.3414303003
 10
1033.7887427174
 20
2417.755016708
 10
1039.3263468359
 20
2419.3022527606
  0
LWPOLYLINE
  5
71
330
1F
100
AcDbEntity
  8
0
  6
Continuous
 62
     7
370
    25
100
AcDbPolyline
 90
       29
 70
   128
 43
0.0
 10
877.9982507143
 20
2423.0149599835
 10
878.0499592613
 20
2422.2189077285
 10
878.6862514059
 20
2420.1162931934
 10
880.0427947609
 20
2418.0366686627
 10
882.1088302637
 20
2415.996528125
 10
884.8679717032
 20
2414.0120524123
 10
888.2983356834
 20
2412.0989808656
 10
892.3727151851
 20
2410.2724865028
 10
897.0587953512
 20
2408.5470556781
 10
902.3194097838
 20
2406.936373187
 10
908.1128353191
 20
2405.4532137291
 10
914.3931229439
 20
2404.109340589
 10
921.1104622281
 20
2402.9154123389
 10
928.2115763821
 20
2401.8808983032
 10
935.6401448087
 20
2401.0140034546
 10
943.3372497936
 20
2400.321603339
 10
951.2418437968
 20
2399.8091895436
 10
959.2912336341
 20
2399.4808261422
 10
967.4215777115
 20
2399.3391174617
 10
975.5683923683
 20
2399.3851874268
 10
983.6670633117
 20
2399.6186706458
 10
991.6533580878
 20
2400.0377153087
 10
999.4639355245
 20
2400.6389978742
 10
1007.0368481051
 20
2401.4177494297
 10
1014.3120332882
 20
2402.3677935145
 10
1021.2317898783
 20
2403.4815951065
 10
1027.7412356672
 20
2404.7503203848
 10
1033.7887427174
 20
2406.1639067926
 10
1039.3263468359
 20
2407.7111428451
  0
SPLINE
  5
72
330
1F
100
AcDbEntity
  8
0
  6
Continuous
 62
     7
370
    25
100
AcDbSpline
210
0.0
220
0.0
230
1.0
 70
     8
 71
     3
 72
     9
 73
     5
 74
     0
 42
0.00000001
 43
0.00000001
 40
0.0
 40
0.0
 40
0.0
 40
0.0
 40
0.5472942479368158
 40
0.5881582372490471
 40
0.5881582372490471
 40
0.5881582372490471
 40
0.5881582372490471
 10
953.2047285923456
 20
2457.909518030913
 30
0.0
 10
976.9608045776578
 20
2459.022176696399
 30
0.0
 10
1002.620549215782
 20
2459.227863223596
 30
0.0
 10
1026.136845727308
 20
2460.903905371907
 30
0.0
 10
1027.762277065775
 20
2461.027287586559
 30
0.0
  0
SPLINE
  5
73
330
1F
100
AcDbEntity
  8
0
  6
Continuous
 62
     7
370
    25
100
AcDbSpline
210
0.0
220
0.0
230
1.0
 70
     8
 71
     3
 72
     9
 73
     5
 74
     0
 42
0.00000001
 43
0.00000001
 40
0.0
 40
0.0
 40
0.0
 40
0.0
 40
0.5472942479368158
 40
0.5881582374103566
 40
0.5881582374103566
 40
0.5881582374103566
 40
0.5881582374103566
 10
1039.326346835907
 20
2419.302252760614
 30
0.0
 10
1054.927413285258
 20
2424.070702188719
 30
0.0
 10
1068.445526141868
 20
2429.71933334283
 30
0.0
 10
1085.811820734703
 20
2434.152345931672
 30
0.0
 10
1087.037381345516
 20
2434.45498529294
 30
0.0
  0
LWPOLYLINE
  5
74
330
1F
100
AcDbEntity
  8
0
  6
Continuous
 62
     7
370
    25
100
AcDbPolyline
 90
       29
 70
   128
 43
0.0
 10
903.2473073248
 20
1713.7848332751
 10
907.2973934016
 20
1712.1511902427
 10
911.9207401674
 20
1710.622884167
 10
917.0767174845
 20
1709.2133458567
 10
922.7200144389
 20
1707.9349623853
 10
928.801037534
 20
1706.7989682325
 10
935.2663465202
 20
1705.8153465559
 10
942.0591240296
 20
1704.9927414581
 10
949.1196748893
 20
1704.3383820223
 10
956.3859507245
 20
1703.8580187827
 10
963.7940952418
 20
1703.5558731888
 10
971.2790054008
 20
1703.434600507
 10
978.774903542
 20
1703.4952664858
 10
986.2159154429
 20
1703.7373379905
 10
993.5366492235
 20
1704.1586876881
 10
1000.6727700119
 20
1704.7556127422
 10
1007.5615653223
 20
1705.5228673539
 10
1014.1424961735
 20
1706.4537088622
 10
1020.3577291089
 20
1707.5399569984
 10
1026.1526444377
 20
1708.7720657749
 10
1031.4763162358
 20
1710.1392073754
 10
1036.2819598839
 20
1711.6293673103
 10
1040.5273432129
 20
1713.2294500007
 10
1044.1751576414
 20
1714.9253938622
 10
1047.1933460452
 20
1716.7022948792
 10
1049.5553844759
 20
1718.5445375817
 10
1051.2405152549
 20
1720.4359322747
 10
1052.2339293923
 20
1722.3598573134
 10
1052.5293396275
 20
1724.1375950792
  0
LWPOLYLINE
  5
75
330
1F
100
AcDbEntity
  8
0
  6
Continuous
 62
     7
370
    25
100
AcDbPolyline
 90
        7
 70
   128
 43
0.0
 10
892.5293396275
 20
1724.1375950792
 10
892.649012414
 20
1723.0054777284
 10
893.4096113854
 20
1721.0744566138
 10
894.8655173735
 20
1719.1703544702
 10
897.0039358241
 20
1717.3099046157
 10
899.8060742389
 20
1715.5094567504
 10
903.2473073248
 20
1713.7848332751
  0
SPLINE
  5
76
330
1F
100
AcDbEntity
  8
0
  6
Continuous
 62
     7
370
    25
100
AcDbSpline
210
0.0
220
0.0
230
1.0
 70
     8
 71
     3
 72
    22
 73
    18
 74
     0
 42
0.00000001
 43
0.00000001
 40
0.0
 40
0.0
 40
0.0
 40
0.0
 40
0.2499999999999947
 40
0.2499999999999947
 40
0.3124999999999951
 40
0.3124999999999951
 40
0.3749999999999956
 40
0.3749999999999956
 40
0.4999999999999964
 40
0.4999999999999964
 40
0.6249999999999973
 40
0.6249999999999973
 40
0.6874999999999978
 40
0.6874999999999978
 40
0.7499999999999982
 40
0.7499999999999982
 40
1.0
 40
1.0
 40
1.0
 40
1.0
 10
1130.299175598965
 20
2416.058465489371
 30
0.0
 10
1127.670926720464
 20
2419.794528537902
 30
0.0
 10
1124.668585427645
 20
2423.033297917679
 30
0.0
 10
1120.497268479561
 20
2426.466365172874
 30
0.0
 10
1119.64185308989
 20
2427.121767127986
 30
0.0
 10
1117.889080138082
 20
2428.368492479657
 30
0.0
 10
1116.988705103993
 20
2428.961480016175
 30
0.0
 10
1114.258472280666
 20
2430.621139358136
 30
0.0
 10
1112.394171667175
 20
2431.574076792906
 30
0.0
 10
1108.59205193045
 20
2433.178165811608
 30
0.0
 10
1106.654200084625
 20
2433.829295703564
 30
0.0
 10
1103.701689441231
 20
2434.57398373572
 30
0.0
 10
1102.709883447642
 20
2434.783448685422
 30
0.0
 10
1100.712426100541
 20
2435.12269118217
 30
0.0
 10
1099.711451415181
 20
2435.251451178305
 30
0.0
 10
1094.740021341529
 20
2435.688823828423
 30
0.0
 10
1090.831605346938
 20
2435.391929184956
 30
0.0
 10
1087.037381331002
 20
2434.454985289356
 30
0.0
  0
SPLINE
  5
77
330
1F
100
AcDbEntity
  8
0
  6
Continuous
 62
     7
370
    25
100
AcDbSpline
210
0.0
220
0.0
230
1.0
 70
     8
 71
     3
 72
    34
 73
    30
 74
     0
 42
0.00000001
 43
0.00000001
 40
0.0
 40
0.0
 40
0.0
 40
0.0
 40
0.1249999999999879
 40
0.1249999999999879
 40
0.1874999999999818
 40
0.1874999999999818
 40
0.2187499999999799
 40
0.2187499999999799
 40
0.249999999999978
 40
0.249999999999978
 40
0.3749999999999705
 40
0.3749999999999705
 40
0.4062499999999685
 40
0.4062499999999685
 40
0.4374999999999666
 40
0.4374999999999666
 40
0.4999999999999678
 40
0.4999999999999678
 40
0.6249999999999758
 40
0.6249999999999758
 40
0.6874999999999798
 40
0.6874999999999798
 40
0.7499999999999839
 40
0.7499999999999839
 40
0.8124999999999879
 40
0.8124999999999879
 40
0.874999999999992
 40
0.874999999999992
 40
1.0
 40
1.0
 40
1.0
 40
1.0
 10
1087.037381331002
 20
2422.863875373887
 30
0.0
 10
1089.58065815997
 20
2423.491910958954
 30
0.0
 10
1092.164608416119
 20
2423.770441383048
 30
0.0
 10
1096.079644437307
 20
2423.670655032576
 30
0.0
 10
1097.391109149143
 20
2423.550632090914
 30
0.0
 10
1099.364631417194
 20
2423.236534771282
 30
0.0
 10
1100.025406625627
 20
2423.108993826126
 30
0.0
 10
1101.337875409106
 20
2422.810580588156
 30
0.0
 10
1101.989139761588
 20
2422.639969709828
 30
0.0
 10
1105.219485334475
 20
2421.68209052514
 30
0.0
 10
1107.721307902163
 20
2420.583188456108
 30
0.0
 10
1110.721126008359
 20
2418.799861556478
 30
0.0
 10
1111.314672443675
 20
2418.422533201879
 30
0.0
 10
1112.488122176225
 20
2417.625965865031
 30
0.0
 10
1113.068604259955
 20
2417.206123577241
 30
0.0
 10
1114.769448742976
 20
2415.897752673882
 30
0.0
 10
1115.855728420723
 20
2414.956423304778
 30
0.0
 10
1118.970033133852
 20
2411.932564669444
 30
0.0
 10
1120.854806170542
 20
2409.652164595074
 30
0.0
 10
1123.367053944584
 20
2405.827408705154
 30
0.0
 10
1124.140544323965
 20
2404.50098687916
 30
0.0
 10
1125.553237439739
 20
2401.763548596737
 30
0.0
 10
1126.193944188895
 20
2400.350235967955
 30
0.0
 10
1127.343545984601
 20
2397.435774665418
 30
0.0
 10
1127.852450374718
 20
2395.934626849858
 30
0.0
 10
1128.734445862542
 20
2392.843107087117
 30
0.0
 10
1129.107859984974
 20
2391.24746683816
 30
0.0
 10
1129.999114831719
 20
2386.414295941967
 30
0.0
 10
1130.299175598965
 20
2383.106065281788
 30
0.0
 10
1130.299175598965
 20
2379.710893550116
 30
0.0
  0
SPLINE
  5
78
330
1F
100
AcDbEntity
  8
0
  6
Continuous
 62
     7
370
    25
100
AcDbSpline
210
0.0
220
0.0
230
1.0
 70
     8
 71
     3
 72
     9
 73
     5
 74
     0
 42
0.00000001
 43
0.00000001
 40
0.0
 40
0.0
 40
0.0
 40
0.0
 40
0.5472942479368158
 40
0.5881582372490498
 40
0.5881582372490498
 40
0.5881582372490498
 40
0.5881582372490498
 10
1039.326346835907
 20
2407.711142845145
 30
0.0
 10
1054.927413285258
 20
2412.47959227325
 30
0.0
 10
1068.44552613816
 20
2418.128223425811
 30
0.0
 10
1085.811820725177
 20
2422.561236013772
 30
0.0
 10
1087.037381331002
 20
2422.863875373887
 30
0.0
  0
SPLINE
  5
79
330
1F
100
AcDbEntity
  8
0
  6
Continuous
 62
     7
370
    25
100
AcDbSpline
210
0.0
220
0.0
230
1.0
 70
     8
 71
     3
 72
    11
 73
     7
 74
     0
 42
0.00000001
 43
0.00000001
 40
0.0
 40
0.0
 40
0.0
 40
0.0
 40
0.0743381514627017
 40
0.4151774446634514
 40
0.7041845175230984
 40
1.0
 40
1.0
 40
1.0
 40
1.0
 10
1056.551474654697
 20
2456.401168094879
 30
0.0
 10
1055.94132785411
 20
2456.726053090509
 30
0.0
 10
1052.533667257861
 20
2458.540530847103
 30
0.0
 10
1045.879830817662
 20
2460.146927878382
 30
0.0
 10
1036.833202861388
 20
2461.409140688605
 30
0.0
 10
1030.809295449633
 20
2461.155556017817
 30
0.0
 10
1027.762277065775
 20
2461.027287586559
 30
0.0
  0
ARC
  5
7A
330
1F
100
AcDbEntity
  8
0
  6
Continuous
 62
     7
370
    25
100
AcDbCircle
 10
1080.3800124439
 20
2382.1995531962
 30
0.0
 40
60.31872670884775
100
AcDbArc
 50
359.111114999
 51
34.1480572879
  0
SPLINE
  5
7B
330
1F
100
AcDbEntity
  8
0
  6
Continuous
 62
     7
370
    25
100
AcDbSpline
210
0.0
220
0.0
230
1.0
 70
     8
 71
     3
 72
    10
 73
     6
 74
     0
 42
0.00000001
 43
0.00000001
 40
0.0
 40
0.0
 40
0.0
 40
0.0
 40
0.1925979938990276
 40
0.5931068710873063
 40
1.0
 40
1.0
 40
1.0
 40
1.0
 10
1073.94660115327
 20
2419.188204926726
 30
0.0
 10
1074.268386143856
 20
2418.277025087199
 30
0.0
 10
1075.259325276014
 20
2415.471040389856
 30
0.0
 10
1076.055044240837
 20
2410.316608170104
 30
0.0
 10
1076.217370633014
 20
2406.062369894382
 30
0.0
 10
1076.299175598964
 20
2403.918431298654
 30
0.0
  0
LINE
  5
7C
330
1F
100
AcDbEntity
  8
0
  6
Continuous
 62
     7
370
    25
100
AcDbLine
 10
1140.6914804444
 20
926.5795134294
 30
0.0
 11
1140.6914804444
 21
2381.2638078207
 31
0.0
  0
LINE
  5
7D
330
1F
100
AcDbEntity
  8
0
  6
Continuous
 62
     7
370
    25
100
AcDbLine
 10
1130.299175599
 20
925.0265991588
 30
0.0
 11
1140.6914804444
 21
926.5795134294
 31
0.0
  0
LINE
  5
7E
330
1F
100
AcDbEntity
  8
0
  6
Continuous
 62
     7
370
    25
100
AcDbLine
 10
1130.299175599
 20
925.0265991588
 30
0.0
 11
1130.299175599
 21
2379.7108935501
 31
0.0
  0
LINE
  5
7F
330
1F
100
AcDbEntity
  8
0
  6
Continuous
 62
     7
370
    25
100
AcDbLine
 10
1123.299175599
 20
928.1646133114
 30
0.0
 11
1130.299175599
 21
925.0265991588
 31
0.0
  0
LINE
  5
80
330
1F
100
AcDbEntity
  8
0
  6
Continuous
 62
     7
370
    25
100
AcDbLine
 10
1123.299175599
 20
1723.1215683473
 30
0.0
 11
1123.299175599
 21
928.1646133114
 31
0.0
  0
ARC
  5
81
330
1F
100
AcDbEntity
  8
0
  6
Continuous
 62
     7
370
    25
100
AcDbCircle
 10
1109.6210893423
 20
1724.3755169737
 30
0.0
 40
13.7354443248488
100
AcDbArc
 50
354.7620086218
 51
50.8167764515
  0
LINE
  5
82
330
1F
100
AcDbEntity
  8
0
  6
Continuous
 62
     7
370
    25
100
AcDbLine
 10
1088.299175599
 20
1748.4708973731
 30
0.0
 11
1118.299175599
 21
1735.0222652906
 31
0.0
  0
LWPOLYLINE
  5
83
330
1F
100
AcDbEntity
  8
0
  6
Continuous
 62
     7
370
    25
100
AcDbPolyline
 90
        3
 70
   128
 43
0.0
 10
1086.8212919579
 20
1748.7018291965
 10
1087.3237239889
 20
1748.722580428
 10
1088.299175599
 20
1748.4708973731
  0
LINE
  5
84
330
1F
100
AcDbEntity
  8
0
  6
Continuous
 62
     7
370
    25
100
AcDbLine
 10
1076.299175599
 20
1747.1295172894
 30
0.0
 11
1076.299175599
 21
2403.9184312987
 31
0.0
  0
LWPOLYLINE
  5
85
330
1F
100
AcDbEntity
  8
0
  6
Continuous
 62
     7
370
    25
100
AcDbPolyline
 90
       35
 70
   128
 43
0.0
 10
1039.3263468359
 20
1708.3808446119
 10
1033.7887427174
 20
1706.8336085593
 10
1027.7412356672
 20
1705.4200221516
 10
1021.2317898783
 20
1704.1512968732
 10
1014.3120332882
 20
1703.0374952812
 10
1007.0368481051
 20
1702.0874511965
 10
999.4639355245
 20
1701.308699641
 10
991.6533580878
 20
1700.7074170754
 10
983.6670633117
 20
1700.2883724125
 10
975.5683923683
 20
1700.0548891935
 10
967.4215777115
 20
1700.0088192284
 10
959.2912336341
 20
1700.1505279089
 10
951.2418437968
 20
1700.4788913103
 10
943.3372497936
 20
1700.9913051057
 10
935.6401448087
 20
1701.6837052213
 10
928.2115763821
 20
1702.5506000699
 10
921.1104622281
 20
1703.5851141057
 10
914.3931229439
 20
1704.7790423557
 10
908.1128353191
 20
1706.1229154958
 10
902.3194097838
 20
1707.6060749537
 10
897.0587953512
 20
1709.2167574449
 10
892.3727151851
 20
1710.9421882695
 10
888.2983356834
 20
1712.7686826323
 10
884.8679717032
 20
1714.681754179
 10
882.1088302637
 20
1716.6662298918
 10
880.0427947609
 20
1718.7063704294
 10
878.6862514059
 20
1720.7859949601
 10
878.0499592613
 20
1722.8886094953
 10
878.138964909
 20
1724.997537707
 10
878.9525624243
 20
1727.0960531925
 10
880.4842989751
 20
1729.1675121343
 10
882.7220260003
 20
1731.1954853072
 10
885.6479955636
 20
1733.1638883814
 10
889.2390011158
 20
1735.0571094917
 10
892.5293396275
 20
1736.4904169389
  0
LWPOLYLINE
  5
86
330
1F
100
AcDbEntity
  8
0
  6
Continuous
 62
     7
370
    25
100
AcDbPolyline
 90
       29
 70
   128
 43
0.0
 10
877.9982507143
 20
1712.0935518348
 10
878.0499592613
 20
1711.2974995798
 10
878.6862514059
 20
1709.1948850447
 10
880.0427947609
 20
1707.115260514
 10
882.1088302637
 20
1705.0751199763
 10
884.8679717032
 20
1703.0906442635
 10
888.2983356834
 20
1701.1775727168
 10
892.3727151851
 20
1699.3510783541
 10
897.0587953512
 20
1697.6256475294
 10
902.3194097838
 20
1696.0149650383
 10
908.1128353191
 20
1694.5318055803
 10
914.3931229439
 20
1693.1879324402
 10
921.1104622281
 20
1691.9940041902
 10
928.2115763821
 20
1690.9594901544
 10
935.6401448087
 20
1690.0925953058
 10
943.3372497936
 20
1689.4001951902
 10
951.2418437968
 20
1688.8877813948
 10
959.2912336341
 20
1688.5594179934
 10
967.4215777115
 20
1688.4177093129
 10
975.5683923683
 20
1688.463779278
 10
983.6670633117
 20
1688.697262497
 10
991.6533580878
 20
1689.1163071599
 10
999.4639355245
 20
1689.7175897255
 10
1007.0368481051
 20
1690.496341281
 10
1014.3120332882
 20
1691.4463853657
 10
1021.2317898783
 20
1692.5601869577
 10
1027.7412356672
 20
1693.8289122361
 10
1033.7887427174
 20
1695.2424986438
 10
1039.3263468359
 20
1696.7897346964
  0
SPLINE
  5
87
330
1F
100
AcDbEntity
  8
0
  6
Continuous
 62
     7
370
    25
100
AcDbSpline
210
0.0
220
0.0
230
1.0
 70
     8
 71
     3
 72
     8
 73
     4
 74
     0
 42
0.00000001
 43
0.00000001
 40
0.0
 40
0.0
 40
0.0
 40
0.0
 40
0.4460796042876194
 40
0.4460796042876194
 40
0.4460796042876194
 40
0.4460796042876194
 10
1039.326346835907
 20
1708.38084461186
 30
0.0
 10
1052.042207772554
 20
1712.267434032402
 30
0.0
 10
1062.750359010827
 20
1716.47803432019
 30
0.0
 10
1074.891406372176
 20
1720.178621223941
 30
0.0
  0
SPLINE
  5
88
330
1F
100
AcDbEntity
  8
0
  6
Continuous
 62
     7
370
    25
100
AcDbSpline
210
0.0
220
0.0
230
1.0
 70
     8
 71
     3
 72
     8
 73
     4
 74
     0
 42
0.00000001
 43
0.00000001
 40
0.3998975662027136
 40
0.3998975662027136
 40
0.3998975662027136
 40
0.3998975662027136
 40
1.0
 40
1.0
 40
1.0
 40
1.0
 10
1200.361257446502
 20
2184.557760328229
 30
0.0
 10
1226.440666797292
 20
2186.437989732499
 30
0.0
 10
1254.04826672206
 20
2187.255135115974
 30
0.0
 10
1279.231430640248
 20
2188.105901498478
 30
0.0
  0
SPLINE
  5
89
330
1F
100
AcDbEntity
  8
0
  6
Continuous
 62
     7
370
    25
100
AcDbSpline
210
0.0
220
0.0
230
1.0
 70
     8
 71
     3
 72
     8
 73
     4
 74
     0
 42
0.00000001
 43
0.00000001
 40
0.3998975662026799
 40
0.3998975662026799
 40
0.3998975662026799
 40
0.3998975662026799
 40
1.0
 40
1.0
 40
1.0
 40
1.0
 10
1200.361257446498
 20
2172.96665041276
 30
0.0
 10
1226.440666797289
 20
2174.846879817031
 30
0.0
 10
1254.048266722059
 20
2175.664025200506
 30
0.0
 10
1279.231430640248
 20
2176.514791583009
 30
0.0
  0
SPLINE
  5
8A
330
1F
100
AcDbEntity
  8
0
  6
Continuous
 62
     7
370
    25
100
AcDbSpline
210
0.0
220
0.0
230
1.0
 70
     8
 71
     3
 72
    34
 73
    30
 74
     0
 42
0.00000001
 43
0.00000001
 40
0.0
 40
0.0
 40
0.0
 40
0.0
 40
0.1250000000000033
 40
0.1250000000000033
 40
0.1875000000000049
 40
0.1875000000000049
 40
0.2500000000000066
 40
0.2500000000000066
 40
0.3750000000000099
 40
0.3750000000000099
 40
0.4062500000000106
 40
0.4062500000000106
 40
0.4375000000000113
 40
0.4375000000000113
 40
0.5000000000000127
 40
0.5000000000000127
 40
0.6250000000000095
 40
0.6250000000000095
 40
0.6562500000000087
 40
0.6562500000000087
 40
0.6875000000000079
 40
0.6875000000000079
 40
0.7500000000000062
 40
0.7500000000000062
 40
0.8125000000000047
 40
0.8125000000000047
 40
0.8750000000000031
 40
0.8750000000000031
 40
1.0
 40
1.0
 40
1.0
 40
1.0
 10
1151.430195451304
 20
2116.272957844584
 30
0.0
 10
1151.430195451304
 20
2119.674937628498
 30
0.0
 10
1151.720643373466
 20
2123.069313907023
 30
0.0
 10
1152.580018847925
 20
2128.147392215818
 30
0.0
 10
1152.937736637118
 20
2129.837772519726
 30
0.0
 10
1153.801421303698
 20
2133.212762781087
 30
0.0
 10
1154.3096440534
 20
2134.901303464179
 30
0.0
 10
1156.029895485313
 20
2139.845340551629
 30
0.0
 10
1157.443003052777
 20
2143.016757935683
 30
0.0
 10
1159.55898053755
 20
2146.817879339589
 30
0.0
 10
1159.999823268686
 20
2147.569868079395
 30
0.0
 10
1160.917915843747
 20
2149.056866810701
 30
0.0
 10
1161.396630370114
 20
2149.793952021064
 30
0.0
 10
1162.876389744913
 20
2151.959957964882
 30
0.0
 10
1163.920505014587
 20
2153.34417638327
 30
0.0
 10
1167.225599206826
 20
2157.320179857602
 30
0.0
 10
1169.657863825124
 20
2159.736868466338
 30
0.0
 10
1173.00596465782
 20
2162.450498493965
 30
0.0
 10
1173.692570727048
 20
2162.978685082235
 30
0.0
 10
1175.081883395088
 20
2163.992065625258
 30
0.0
 10
1175.786142248166
 20
2164.478632217063
 30
0.0
 10
1177.927420012458
 20
2165.879048300481
 30
0.0
 10
1179.392893024304
 20
2166.733735492838
 30
0.0
 10
1182.399299830571
 20
2168.287967205635
 30
0.0
 10
1183.940232654743
 20
2168.987509847747
 30
0.0
 10
1187.098638617385
 20
2170.230263500609
 30
0.0
 10
1188.723640419253
 20
2170.775131556288
 30
0.0
 10
1193.634491031216
 20
2172.146935042234
 30
0.0
 10
1196.969001101301
 20
2172.722081218678
 30
0.0
 10
1200.361257446498
 20
2172.96665041276
 30
0.0
  0
SPLINE
  5
8B
330
1F
100
AcDbEntity
  8
0
  6
Continuous
 62
     7
370
    25
100
AcDbSpline
210
0.0
220
0.0
230
1.0
 70
     8
 71
     3
 72
    20
 73
    16
 74
     0
 42
0.00000001
 43
0.00000001
 40
0.0
 40
0.0
 40
0.0
 40
0.0
 40
0.250000000000007
 40
0.250000000000007
 40
0.3125000000000077
 40
0.3125000000000077
 40
0.3750000000000084
 40
0.3750000000000084
 40
0.5000000000000067
 40
0.5000000000000067
 40
0.625000000000005
 40
0.625000000000005
 40
0.7500000000000033
 40
0.7500000000000033
 40
1.0
 40
1.0
 40
1.0
 40
1.0
 10
1200.361257446498
 20
2184.557760328228
 30
0.0
 10
1195.29927710012
 20
2184.192810180659
 30
0.0
 10
1190.379195441326
 20
2183.224762154385
 30
0.0
 10
1184.416191084114
 20
2181.242523509831
 30
0.0
 10
1183.233015579138
 20
2180.807001177349
 30
0.0
 10
1180.886046674498
 20
2179.855408809377
 30
0.0
 10
1179.719590833436
 20
2179.337773973739
 30
0.0
 10
1176.297726434061
 20
2177.683716302979
 30
0.0
 10
1174.105189134253
 20
2176.441447652655
 30
0.0
 10
1169.891502949638
 20
2173.683928824175
 30
0.0
 10
1167.87036637857
 20
2172.168673498639
 30
0.0
 10
1163.998312466425
 20
2168.861378831241
 30
0.0
 10
1162.14025075574
 20
2167.058891809818
 30
0.0
 10
1156.959560966897
 20
2161.376103143456
 30
0.0
 10
1153.977417149729
 20
2157.190797102026
 30
0.0
 10
1151.430195451304
 20
2152.62052978384
 30
0.0
  0
ARC
  5
8C
330
1F
100
AcDbEntity
  8
0
  6
Continuous
 62
     7
370
    25
100
AcDbCircle
 10
1216.9749611805
 20
2114.2731427371
 30
0.0
 40
75.93838560183606
100
AcDbArc
 50
149.6699568403
 51
179.6628097975
  0
LWPOLYLINE
  5
8D
330
1F
100
AcDbEntity
  8
0
  6
Continuous
 62
     7
370
    25
100
AcDbPolyline
 90
       43
 70
   128
 43
0.0
 10
1279.2314306402
 20
2188.1059014985
 10
1287.0384113373
 20
2188.6780360743
 10
1294.6188647747
 20
2189.4269244562
 10
1301.9131817602
 20
2190.346677731
 10
1308.8640031469
 20
2191.430063383
 10
1315.416670879
 20
2192.6685621666
 10
1321.5196577973
 20
2194.0524350983
 10
1327.1249728255
 20
2195.5708000391
 10
1332.1885383496
 20
2197.2117172668
 10
1336.670536824
 20
2198.9622833647
 10
1340.5357238784
 20
2200.8087326878
 10
1343.7537054632
 20
2202.7365456096
 10
1346.2991768543
 20
2204.7305626978
 10
1348.1521216378
 20
2206.775103921
 10
1349.29796911
 20
2208.8540919493
 10
1349.7277088544
 20
2210.951178579
 10
1349.4379615958
 20
2213.0498732873
 10
1348.431005773
 20
2215.1336729065
 10
1346.7147596226
 20
2217.1861913965
 10
1344.3027189132
 20
2219.191288698
 10
1341.2138508214
 20
2221.1331976499
 10
1337.4724447823
 20
2222.9966479753
 10
1333.1079214885
 20
2224.7669863594
 10
1328.1546015398
 20
2226.4302916774
 10
1322.6514355613
 20
2227.9734844626
 10
1316.6416979139
 20
2229.3844297583
 10
1310.1726464049
 20
2230.6520325409
 10
1303.2951506737
 20
2231.7663249664
 10
1296.063292177
 20
2232.7185447527
 10
1288.5339389172
 20
2233.5012040822
 10
1280.766298258
 20
2234.1081484828
 10
1272.8214513457
 20
2234.5346052233
 10
1264.7618727948
 20
2234.7772208445
 10
1256.6509394164
 20
2234.8340875289
 10
1248.5524318524
 20
2234.7047581033
 10
1240.530033034
 20
2234.3902495545
 10
1232.6468274081
 20
2233.8930350329
 10
1224.9648048704
 20
2233.2170244042
 10
1217.5443733057
 20
2232.3675335046
 10
1210.4438835679
 20
2231.3512423389
 10
1203.7191706358
 20
2230.1761425524
 10
1197.4231145526
 20
2228.8514745884
 10
1191.6052246016
 20
2227.3876550252
  0
SPLINE
  5
8E
330
1F
100
AcDbEntity
  8
0
  6
Continuous
 62
     7
370
    25
100
AcDbSpline
210
0.0
220
0.0
230
1.0
 70
     8
 71
     3
 72
    11
 73
     7
 74
     0
 42
0.00000001
 43
0.00000001
 40
0.0
 40
0.0
 40
0.0
 40
0.0
 40
0.2742978168083828
 40
0.5571778922903347
 40
0.782119264023652
 40
0.9999999999999999
 40
0.9999999999999999
 40
0.9999999999999999
 40
0.9999999999999999
 10
1191.605224601643
 20
2227.387655025156
 30
0.0
 10
1187.2005422637
 20
2225.889491160533
 30
0.0
 10
1178.253363427867
 20
2222.846288724186
 30
0.0
 10
1165.40474802691
 20
2218.632563038135
 30
0.0
 10
1152.948499585138
 20
2214.831891577426
 30
0.0
 10
1144.733491730975
 20
2212.659105598683
 30
0.0
 10
1140.691480444379
 20
2211.590034746244
 30
0.0
  0
LINE
  5
8F
330
1F
100
AcDbEntity
  8
0
  6
Continuous
 62
     7
370
    25
100
AcDbLine
 10
1151.4301954513
 20
928.184191509
 30
0.0
 11
1151.4301954513
 21
2116.2729578446
 31
0.0
  0
LINE
  5
90
330
1F
100
AcDbEntity
  8
0
  6
Continuous
 62
     7
370
    25
100
AcDbLine
 10
1141.0378906059
 20
926.6312772384
 30
0.0
 11
1151.4301954513
 21
928.184191509
 31
0.0
  0
LINE
  5
91
330
1F
100
AcDbEntity
  8
0
  6
Continuous
 62
     7
370
    25
100
AcDbLine
 10
1141.0378906059
 20
926.6312772384
 30
0.0
 11
1141.0378906059
 21
2114.720043574
 31
0.0
  0
LINE
  5
92
330
1F
100
AcDbEntity
  8
0
  6
Continuous
 62
     7
370
    25
100
AcDbLine
 10
1140.6914804444
 20
926.7865686655
 30
0.0
 11
1141.0378906059
 21
926.6312772384
 31
0.0
  0
LWPOLYLINE
  5
93
330
1F
100
AcDbEntity
  8
0
  6
Continuous
 62
     7
370
    25
100
AcDbPolyline
 90
       29
 70
   128
 43
0.0
 10
1185.91799912
 20
1495.2241283378
 10
1189.9680851969
 20
1493.5904853054
 10
1194.5914319627
 20
1492.0621792297
 10
1199.7474092798
 20
1490.6526409194
 10
1205.3907062341
 20
1489.3742574479
 10
1211.4717293292
 20
1488.2382632952
 10
1217.9370383154
 20
1487.2546416185
 10
1224.7298158248
 20
1486.4320365208
 10
1231.7903666846
 20
1485.777677085
 10
1239.0566425197
 20
1485.2973138454
 10
1246.464787037
 20
1484.9951682515
 10
1253.949697196
 20
1484.8738955697
 10
1261.4455953372
 20
1484.9345615485
 10
1268.8866072381
 20
1485.1766330532
 10
1276.2073410187
 20
1485.5979827508
 10
1283.3434618072
 20
1486.1949078048
 10
1290.2322571175
 20
1486.9621624166
 10
1296.8131879688
 20
1487.8930039249
 10
1303.0284209041
 20
1488.9792520611
 10
1308.8233362329
 20
1490.2113608376
 10
1314.147008031
 20
1491.5785024381
 10
1318.9526516791
 20
1493.068662373
 10
1323.1980350081
 20
1494.6687450634
 10
1326.8458494367
 20
1496.3646889249
 10
1329.8640378404
 20
1498.1415899419
 10
1332.2260762711
 20
1499.9838326444
 10
1333.9112070501
 20
1501.8752273373
 10
1334.9046211876
 20
1503.7991523761
 10
1335.2000314228
 20
1505.5768901419
  0
LWPOLYLINE
  5
94
330
1F
100
AcDbEntity
  8
0
  6
Continuous
 62
     7
370
    25
100
AcDbPolyline
 90
        7
 70
   128
 43
0.0
 10
1175.2000314228
 20
1505.5768901419
 10
1175.3197042092
 20
1504.4447727911
 10
1176.0803031807
 20
1502.5137516765
 10
1177.5362091688
 20
1500.6096495329
 10
1179.6746276193
 20
1498.7491996784
 10
1182.4767660341
 20
1496.9487518131
 10
1185.91799912
 20
1495.2241283378
  0
SPLINE
  5
95
330
1F
100
AcDbEntity
  8
0
  6
Continuous
 62
     7
370
    25
100
AcDbSpline
210
0.0
220
0.0
230
1.0
 70
     8
 71
     3
 72
    32
 73
    28
 74
     0
 42
0.00000001
 43
0.00000001
 40
0.0
 40
0.0
 40
0.0
 40
0.0
 40
0.1249999999999967
 40
0.1249999999999967
 40
0.187499999999995
 40
0.187499999999995
 40
0.2499999999999933
 40
0.2499999999999933
 40
0.3749999999999899
 40
0.3749999999999899
 40
0.40624999999999
 40
0.40624999999999
 40
0.4374999999999901
 40
0.4374999999999901
 40
0.4999999999999902
 40
0.4999999999999902
 40
0.6249999999999906
 40
0.6249999999999906
 40
0.687499999999992
 40
0.687499999999992
 40
0.7499999999999934
 40
0.7499999999999934
 40
0.8124999999999949
 40
0.8124999999999949
 40
0.8749999999999963
 40
0.8749999999999963
 40
1.0
 40
1.0
 40
1.0
 40
1.0
 10
1108.279439911066
 20
1685.486514868798
 30
0.0
 10
1108.279439911066
 20
1688.334957141575
 30
0.0
 10
1108.037649373256
 20
1691.091486820464
 30
0.0
 10
1107.329648196307
 20
1695.092858562564
 30
0.0
 10
1107.035702613418
 20
1696.404220081075
 30
0.0
 10
1106.330225729007
 20
1698.980492673103
 30
0.0
 10
1105.917359805977
 20
1700.246480081253
 30
0.0
 10
1104.531736661929
 20
1703.888040679566
 30
0.0
 10
1103.406110000321
 20
1706.138634348869
 30
0.0
 10
1101.759875556606
 20
1708.726630505114
 30
0.0
 10
1101.41857528947
 20
1709.232858285507
 30
0.0
 10
1100.711828106909
 20
1710.22202318989
 30
0.0
 10
1100.345562954112
 20
1710.705857727728
 30
0.0
 10
1099.222962256921
 20
1712.106201556704
 30
0.0
 10
1098.43979393867
 20
1712.976453407191
 30
0.0
 10
1095.994673961053
 20
1715.401072676594
 30
0.0
 10
1094.23774437094
 20
1716.771020899653
 30
0.0
 10
1091.432906226013
 20
1718.43950947942
 30
0.0
 10
1090.479439639098
 20
1718.924424582624
 30
0.0
 10
1088.559507758393
 20
1719.746778141728
 30
0.0
 10
1087.590154413004
 20
1720.085937497424
 30
0.0
 10
1085.637329573237
 20
1720.622566271043
 30
0.0
 10
1084.653853760253
 20
1720.82002965092
 30
0.0
 10
1082.67659705934
 20
1721.072249030056
 30
0.0
 10
1081.680436367991
 20
1721.126287348003
 30
0.0
 10
1078.730839308162
 20
1721.074358006815
 30
0.0
 10
1076.799129691331
 20
1720.760094610934
 30
0.0
 10
1074.891406372177
 20
1720.178621223941
 30
0.0
  0
LINE
  5
96
330
1F
100
AcDbEntity
  8
0
  6
Continuous
 62
     7
370
    25
100
AcDbLine
 10
1108.2794399108
 20
921.4391862741
 30
0.0
 11
1108.2794399111
 21
1685.4865148688
 31
0.0
  0
SPLINE
  5
97
330
1F
100
AcDbEntity
  8
0
  6
Continuous
 62
     7
370
    25
100
AcDbSpline
210
0.0
220
0.0
230
1.0
 70
     8
 71
     3
 72
     8
 73
     4
 74
     0
 42
0.00000001
 43
0.00000001
 40
0.7106295112310324
 40
0.7106295112310324
 40
0.7106295112310324
 40
0.7106295112310324
 40
0.8056305684043179
 40
0.8056305684043179
 40
0.8056305684043179
 40
0.8056305684043179
 10
1098.579287625348
 20
919.5759885096043
 30
0.0
 10
1101.701664222155
 20
920.215589240201
 30
0.0
 10
1104.933325371556
 20
920.8345147768031
 30
0.0
 10
1108.279439910767
 20
921.4391862740908
 30
0.0
  0
LINE
  5
98
330
1F
100
AcDbEntity
  8
0
  6
Continuous
 62
     7
370
    25
100
AcDbLine
 10
1098.5792876099
 20
1683.6233171011
 30
0.0
 11
1098.5792876253
 21
919.5759885096
 31
0.0
  0
SPLINE
  5
99
330
1F
100
AcDbEntity
  8
0
  6
Continuous
 62
     7
370
    25
100
AcDbSpline
210
0.0
220
0.0
230
1.0
 70
     8
 71
     3
 72
    30
 73
    26
 74
     0
 42
0.00000001
 43
0.00000001
 40
0.0
 40
0.0
 40
0.0
 40
0.0
 40
0.1250000000000028
 40
0.1250000000000028
 40
0.1875000000000044
 40
0.1875000000000044
 40
0.2500000000000059
 40
0.2500000000000059
 40
0.375000000000009
 40
0.375000000000009
 40
0.4375000000000105
 40
0.4375000000000105
 40
0.500000000000012
 40
0.500000000000012
 40
0.6250000000000104
 40
0.6250000000000104
 40
0.6875000000000098
 40
0.6875000000000098
 40
0.7500000000000091
 40
0.7500000000000091
 40
0.8125000000000084
 40
0.8125000000000084
 40
0.8750000000000077
 40
0.8750000000000077
 40
1.0
 40
1.0
 40
1.0
 40
1.0
 10
1074.891406372177
 20
1708.587511308472
 30
0.0
 10
1076.283283463873
 20
1709.011754949393
 30
0.0
 10
1077.678307709979
 20
1709.240562746498
 30
0.0
 10
1079.780646986733
 20
1709.289879991427
 30
0.0
 10
1080.483015890847
 20
1709.257015089442
 30
0.0
 10
1081.891182963426
 20
1709.088519000036
 30
0.0
 10
1082.60055478279
 20
1708.951593656897
 30
0.0
 10
1084.691182271862
 20
1708.389252562707
 30
0.0
 10
1086.044152261786
 20
1707.814584505239
 30
0.0
 10
1087.998185055744
 20
1706.653211445956
 30
0.0
 10
1088.636869157073
 20
1706.215896180325
 30
0.0
 10
1089.885225099361
 20
1705.236976755632
 30
0.0
 10
1090.488871816042
 20
1704.699564118648
 30
0.0
 10
1092.214038288132
 20
1702.966652876105
 30
0.0
 10
1093.260024724323
 20
1701.644331558526
 30
0.0
 10
1094.656929354386
 20
1699.409717337268
 30
0.0
 10
1095.095486016463
 20
1698.618293599501
 30
0.0
 10
1095.893752719795
 20
1696.983211016618
 30
0.0
 10
1096.255503868003
 20
1696.137189995617
 30
0.0
 10
1096.904294807756
 20
1694.38985575349
 30
0.0
 10
1097.191336584838
 20
1693.488540484503
 30
0.0
 10
1097.688833608958
 20
1691.630510046889
 30
0.0
 10
1097.899749017817
 20
1690.671106833069
 30
0.0
 10
1098.408641093664
 20
1687.724772770558
 30
0.0
 10
1098.579287609907
 20
1685.702786960482
 30
0.0
 10
1098.579287609907
 20
1683.623317101094
 30
0.0
  0
SPLINE
  5
9A
330
1F
100
AcDbEntity
  8
0
  6
Continuous
 62
     7
370
    25
100
AcDbSpline
210
0.0
220
0.0
230
1.0
 70
     8
 71
     3
 72
     8
 73
     4
 74
     0
 42
0.00000001
 43
0.00000001
 40
0.0
 40
0.0
 40
0.0
 40
0.0
 40
0.4460796042876204
 40
0.4460796042876204
 40
0.4460796042876204
 40
0.4460796042876204
 10
1039.326346835907
 20
1696.789734696391
 30
0.0
 10
1052.042207772554
 20
1700.676324116933
 30
0.0
 10
1062.750359010827
 20
1704.886924404721
 30
0.0
 10
1074.891406372177
 20
1708.587511308472
 30
0.0
  0
LWPOLYLINE
  5
9B
330
1F
100
AcDbEntity
  8
0
  6
Continuous
 62
     7
370
    25
100
AcDbPolyline
 90
       17
 70
   128
 43
0.0
 10
1279.2314306402
 20
2176.514791583
 10
1287.0384113373
 20
2177.0869261588
 10
1294.6188647747
 20
2177.8358145407
 10
1301.9131817602
 20
2178.7555678156
 10
1308.8640031469
 20
2179.8389534675
 10
1315.416670879
 20
2181.0774522512
 10
1321.5196577973
 20
2182.4613251828
 10
1327.1249728255
 20
2183.9796901236
 10
1332.1885383496
 20
2185.6206073513
 10
1336.670536824
 20
2187.3711734492
 10
1340.5357238784
 20
2189.2176227723
 10
1343.7537054632
 20
2191.1454356941
 10
1346.2991768543
 20
2193.1394527823
 10
1348.1521216378
 20
2195.1839940055
 10
1349.29796911
 20
2197.2629820338
 10
1349.7277088544
 20
2199.3600686635
 10
1349.731120336
 20
2199.5645667463
  0
LINE
  5
9C
330
1F
100
AcDbEntity
  8
0
  6
Continuous
 62
     7
370
    25
100
AcDbLine
 10
1052.5293396275
 20
1735.0601697552
 30
0.0
 11
1069.0352140257
 21
1727.6607886892
 31
0.0
  0
SPLINE
  5
9D
330
1F
100
AcDbEntity
  8
0
  6
Continuous
 62
     7
370
    25
100
AcDbSpline
210
0.0
220
0.0
230
1.0
 70
     8
 71
     3
 72
    13
 73
     9
 74
     0
 42
0.00000001
 43
0.00000001
 40
0.0
 40
0.0
 40
0.0
 40
0.0
 40
0.0004534143764859
 40
0.4143525130288686
 40
0.6263960144669825
 40
0.839947282980528
 40
0.9428441284642183
 40
1.0
 40
1.0
 40
1.0
 40
1.0
 10
1079.350271147283
 20
1723.897660568873
 30
0.0
 10
1079.348754899507
 20
1723.898429932158
 30
0.0
 10
1077.963132587763
 20
1724.601512205175
 30
0.0
 10
1075.645654284841
 20
1725.414953512769
 30
0.0
 10
1072.591282417466
 20
1726.460805989187
 30
0.0
 10
1070.670610972597
 20
1727.061047045935
 30
0.0
 10
1069.501870746202
 20
1727.463398109711
 30
0.0
 10
1069.158009223341
 20
1727.608847692376
 30
0.0
 10
1069.035214025654
 20
1727.660788689172
 30
0.0
  0
LINE
  5
9E
330
1F
100
AcDbEntity
  8
0
  6
Continuous
 62
     7
370
    25
100
AcDbLine
 10
1342.2000314228
 20
915.9981361178
 30
0.0
 11
1342.2000314228
 21
920.8277652492
 31
0.0
  0
LINE
  5
9F
330
1F
100
AcDbEntity
  8
0
  6
Continuous
 62
     7
370
    25
100
AcDbLine
 10
1333.9727900868
 20
914.7687456535
 30
0.0
 11
1342.2000314228
 21
915.9981361178
 31
0.0
  0
LINE
  5
A0
330
1F
100
AcDbEntity
  8
0
  6
Continuous
 62
     7
370
    25
100
AcDbLine
 10
1333.9727900868
 20
624.9909977668
 30
0.0
 11
1333.9727900868
 21
914.7687456535
 31
0.0
  0
LINE
  5
A1
330
1F
100
AcDbEntity
  8
0
  6
Continuous
 62
     7
370
    25
100
AcDbLine
 10
1333.9727900868
 20
624.9909977668
 30
0.0
 11
970.2421204973
 21
570.6389982953
 31
0.0
  0
LINE
  5
A2
330
1F
100
AcDbEntity
  8
0
  6
Continuous
 62
     7
370
    25
100
AcDbLine
 10
970.2421204973
 20
570.6389982953
 30
0.0
 11
970.2421204973
 21
860.416746182
 31
0.0
  0
LINE
  5
A3
330
1F
100
AcDbEntity
  8
0
  6
Continuous
 62
     7
370
    25
100
AcDbLine
 10
962.0148791614
 20
859.1873557178
 30
0.0
 11
970.2421204973
 21
860.416746182
 31
0.0
  0
LINE
  5
A4
330
1F
100
AcDbEntity
  8
0
  6
Continuous
 62
     7
370
    25
100
AcDbLine
 10
962.0148791614
 20
859.1873557178
 30
0.0
 11
962.0148791614
 21
864.0169848492
 31
0.0
  0
LINE
  5
A5
330
1F
100
AcDbEntity
  8
0
  6
Continuous
 62
     7
370
    25
100
AcDbLine
 10
962.0148791614
 20
864.0169848492
 30
0.0
 11
1342.2000314228
 21
920.8277652492
 31
0.0
  0
LINE
  5
A6
330
1F
100
AcDbEntity
  8
0
  6
Continuous
 62
     7
370
    25
100
AcDbLine
 10
788.0148791614
 20
937.1894217964
 30
0.0
 11
962.0148791614
 21
859.1873557178
 31
0.0
  0
LINE
  5
A7
330
1F
100
AcDbEntity
  8
0
  6
Continuous
 62
     7
370
    25
100
AcDbLine
 10
788.0148791614
 20
937.1894217964
 30
0.0
 11
788.0148791614
 21
942.0190509278
 31
0.0
  0
LINE
  5
A8
330
1F
100
AcDbEntity
  8
0
  6
Continuous
 62
     7
370
    25
100
AcDbLine
 10
788.0148791614
 20
942.0190509278
 30
0.0
 11
962.0148791614
 21
864.0169848492
 31
0.0
  0
LINE
  5
A9
330
1F
100
AcDbEntity
  8
0
  6
Continuous
 62
     7
370
    25
100
AcDbLine
 10
1166.9468559497
 20
934.686853248
 30
0.0
 11
1151.4301954513
 21
932.3682103791
 31
0.0
  0
LINE
  5
AA
330
1F
100
AcDbEntity
  8
0
  6
Continuous
 62
     7
370
    25
100
AcDbLine
 10
1166.9468559497
 20
934.686853248
 30
0.0
 11
1174.3938616229
 21
931.3484519341
 31
0.0
  0
SPLINE
  5
AB
330
1F
100
AcDbEntity
  8
0
  6
Continuous
 62
     7
370
    25
100
AcDbSpline
210
0.0
220
0.0
230
1.0
 70
     8
 71
     3
 72
     8
 73
     4
 74
     0
 42
0.00000001
 43
0.00000001
 40
0.1954417874881407
 40
0.1954417874881407
 40
0.1954417874881407
 40
0.1954417874881407
 40
0.2859859691146387
 40
0.2859859691146387
 40
0.2859859691146387
 40
0.2859859691146387
 10
1174.393861622914
 20
931.3484519341014
 30
0.0
 10
1178.102413873502
 20
931.7606474418051
 30
0.0
 10
1181.876412628014
 20
932.1401355214382
 30
0.0
 10
1185.702281278855
 20
932.490683170312
 30
0.0
  0
LINE
  5
AC
330
1F
100
AcDbEntity
  8
0
  6
Continuous
 62
     7
370
    25
100
AcDbLine
 10
1042.2011329004
 20
980.0019110053
 30
0.0
 11
788.0148791614
 21
942.0190509278
 31
0.0
  0
LINE
  5
AD
330
1F
100
AcDbEntity
  8
0
  6
Continuous
 62
     7
370
    25
100
AcDbLine
 10
1342.2000314228
 20
920.8277652492
 30
0.0
 11
1185.7022812789
 21
990.9837873635
 31
0.0
  0
LINE
  5
AE
330
1F
100
AcDbEntity
  8
0
  6
Continuous
 62
     7
370
    25
100
AcDbLine
 10
1042.2011329004
 20
944.8496238458
 30
0.0
 11
1098.5792876253
 21
919.5759885096
 31
0.0
  0
LINE
  5
AF
330
1F
100
AcDbEntity
  8
0
  6
Continuous
 62
     7
370
    25
100
AcDbLine
 10
1123.299175599
 20
928.1646133114
 30
0.0
 11
1108.2794399108
 21
925.920225542
 31
0.0
  0
LINE
  5
B0
330
1F
100
AcDbEntity
  8
0
  6
Continuous
 62
     7
370
    25
100
AcDbLine
 10
1042.2011329004
 20
1697.7184851093
 30
0.0
 11
1042.2011329004
 21
944.8496238458
 31
0.0
  0
LINE
  5
B1
330
1F
100
AcDbEntity
  8
0
  6
Continuous
 62
     7
370
    25
100
AcDbLine
 10
970.2421204973
 20
570.6389982953
 30
0.0
 11
796.2421204973
 21
648.6410643739
 31
0.0
  0
LINE
  5
B2
330
1F
100
AcDbEntity
  8
0
  6
Continuous
 62
     7
370
    25
100
AcDbLine
 10
796.2421204973
 20
648.6410643739
 30
0.0
 11
796.2421204973
 21
933.5012504037
 31
0.0
  0
SPLINE
  5
B3
330
1F
100
AcDbEntity
  8
0
  6
Continuous
 62
     7
370
    25
100
AcDbSpline
210
0.0
220
0.0
230
1.0
 70
     8
 71
     3
 72
    30
 73
    26
 74
     0
 42
0.00000001
 43
0.00000001
 40
0.0
 40
0.0
 40
0.0
 40
0.0
 40
0.1250000000000031
 40
0.1250000000000031
 40
0.1875000000000041
 40
0.1875000000000041
 40
0.2500000000000051
 40
0.2500000000000051
 40
0.375000000000007
 40
0.375000000000007
 40
0.4375000000000067
 40
0.4375000000000067
 40
0.5000000000000063
 40
0.5000000000000063
 40
0.6250000000000057
 40
0.6250000000000057
 40
0.6875000000000056
 40
0.6875000000000056
 40
0.7500000000000053
 40
0.7500000000000053
 40
0.8125000000000052
 40
0.8125000000000052
 40
0.8750000000000051
 40
0.8750000000000051
 40
1.0
 40
1.0
 40
1.0
 40
1.0
 10
1217.5645341612
 20
1480.519736699034
 30
0.0
 10
1214.680810266046
 20
1480.360176138058
 30
0.0
 10
1211.848813623698
 20
1479.936501986438
 30
0.0
 10
1207.678666234025
 20
1478.907679550455
 30
0.0
 10
1206.301661575147
 20
1478.498761627819
 30
0.0
 10
1203.574642773831
 20
1477.544162007325
 30
0.0
 10
1202.218178145877
 20
1476.994994009874
 30
0.0
 10
1198.270722453195
 20
1475.168853089599
 30
0.0
 10
1195.782322641257
 20
1473.711259101922
 30
0.0
 10
1192.262818638531
 20
1471.164513136271
 30
0.0
 10
1191.125368318943
 20
1470.255178629757
 30
0.0
 10
1188.924231275015
 20
1468.31093724021
 30
0.0
 10
1187.872303913292
 20
1467.285732833911
 30
0.0
 10
1184.891042909827
 20
1464.088142853267
 30
0.0
 10
1183.119819533233
 20
1461.781864459304
 30
0.0
 10
1180.784417096167
 20
1458.062280556612
 30
0.0
 10
1180.057044437113
 20
1456.7719961617
 30
0.0
 10
1178.740756174164
 20
1454.157639407174
 30
0.0
 10
1178.148320151194
 20
1452.829247004638
 30
0.0
 10
1177.090559080583
 20
1450.13189466117
 30
0.0
 10
1176.625237661537
 20
1448.762933107586
 30
0.0
 10
1175.821441448589
 20
1445.984936143299
 30
0.0
 10
1175.482225941942
 20
1444.571971606756
 30
0.0
 10
1174.665563346829
 20
1440.297775194732
 30
0.0
 10
1174.393861622914
 20
1437.446938261974
 30
0.0
 10
1174.393861622914
 20
1434.595807430706
 30
0.0
  0
SPLINE
  5
B4
330
1F
100
AcDbEntity
  8
0
  6
Continuous
 62
     7
370
    25
100
AcDbSpline
210
0.0
220
0.0
230
1.0
 70
     8
 71
     3
 72
     8
 73
     4
 74
     0
 42
0.00000001
 43
0.00000001
 40
0.5304970671443745
 40
0.5304970671443745
 40
0.5304970671443745
 40
0.5304970671443745
 40
1.0
 40
1.0
 40
1.0
 40
1.0
 10
1217.564534161258
 20
1480.519736699037
 30
0.0
 10
1238.342251167721
 20
1481.669397450857
 30
0.0
 10
1259.528845460987
 20
1482.314433090348
 30
0.0
 10
1279.231430640248
 20
1482.980048307458
 30
0.0
  0
SPLINE
  5
B5
330
1F
100
AcDbEntity
  8
0
  6
Continuous
 62
     7
370
    25
100
AcDbSpline
210
0.0
220
0.0
230
1.0
 70
     8
 71
     3
 72
     8
 73
     4
 74
     0
 42
0.00000001
 43
0.00000001
 40
0.5304970671439347
 40
0.5304970671439347
 40
0.5304970671439347
 40
0.5304970671439347
 40
1.0
 40
1.0
 40
1.0
 40
1.0
 10
1217.5645341612
 20
1468.928626783565
 30
0.0
 10
1238.342251167681
 20
1470.078287535387
 30
0.0
 10
1259.528845460968
 20
1470.723323174878
 30
0.0
 10
1279.231430640248
 20
1471.388938391989
 30
0.0
  0
SPLINE
  5
B6
330
1F
100
AcDbEntity
  8
0
  6
Continuous
 62
     7
370
    25
100
AcDbSpline
210
0.0
220
0.0
230
1.0
 70
     8
 71
     3
 72
    28
 73
    24
 74
     0
 42
0.00000001
 43
0.00000001
 40
0.0
 40
0.0
 40
0.0
 40
0.0
 40
0.1250000000000049
 40
0.1250000000000049
 40
0.1875000000000073
 40
0.1875000000000073
 40
0.2500000000000098
 40
0.2500000000000098
 40
0.3750000000000083
 40
0.3750000000000083
 40
0.4375000000000076
 40
0.4375000000000076
 40
0.5000000000000069
 40
0.5000000000000069
 40
0.6250000000000049
 40
0.6250000000000049
 40
0.7500000000000029
 40
0.7500000000000029
 40
0.8125000000000027
 40
0.8125000000000027
 40
0.8750000000000023
 40
0.8750000000000023
 40
1.0
 40
1.0
 40
1.0
 40
1.0
 10
1185.702281278855
 20
1435.738038666916
 30
0.0
 10
1185.702281278855
 20
1437.816335650673
 30
0.0
 10
1185.908049364563
 20
1439.877613569653
 30
0.0
 10
1186.513797042116
 20
1442.944299702788
 30
0.0
 10
1186.765638571956
 20
1443.962276239895
 30
0.0
 10
1187.3721356489
 20
1445.989205165807
 30
0.0
 10
1187.727451345868
 20
1446.997663944401
 30
0.0
 10
1188.924393544867
 20
1449.939955044796
 30
0.0
 10
1189.902101020911
 20
1451.815227668982
 30
0.0
 10
1191.640614970329
 20
1454.496513505341
 30
0.0
 10
1192.269758199056
 20
1455.372860116398
 30
0.0
 10
1193.599431794688
 20
1457.049523152728
 30
0.0
 10
1194.299749370885
 20
1457.850840749075
 30
0.0
 10
1196.504699789674
 20
1460.146456285391
 30
0.0
 10
1198.113482025023
 20
1461.534122317721
 30
0.0
 10
1201.611897682922
 20
1464.010123762291
 30
0.0
 10
1203.446547226164
 20
1465.059891036949
 30
0.0
 10
1206.320364280342
 20
1466.368227386439
 30
0.0
 10
1207.298745602542
 20
1466.759641455092
 30
0.0
 10
1209.296893927927
 20
1467.452175127226
 30
0.0
 10
1210.317662411427
 20
1467.752991387281
 30
0.0
 10
1213.387678420126
 20
1468.504454697864
 30
0.0
 10
1215.462318845649
 20
1468.812308208266
 30
0.0
 10
1217.5645341612
 20
1468.928626783565
 30
0.0
  0
LINE
  5
B7
330
1F
100
AcDbEntity
  8
0
  6
Continuous
 62
     7
370
    25
100
AcDbLine
 10
1185.7022812789
 20
932.4906831703
 30
0.0
 11
1185.7022812789
 21
1435.7380386669
 31
0.0
  0
LINE
  5
B8
330
1F
100
AcDbEntity
  8
0
  6
Continuous
 62
     7
370
    25
100
AcDbLine
 10
1174.3938616229
 20
1434.5958074307
 30
0.0
 11
1174.3938616229
 21
931.3484519341
 31
0.0
  0
ARC
  5
B9
330
1F
100
AcDbEntity
  8
0
  6
Continuous
 62
     7
370
    25
100
AcDbCircle
 10
1218.6358132988
 20
1437.5717630914
 30
0.0
 40
51.69022807732333
100
AcDbArc
 50
140.2424142479
 51
179.5982456031
  0
SPLINE
  5
BA
330
1F
100
AcDbEntity
  8
0
  6
Continuous
 62
     7
370
    25
100
AcDbSpline
210
0.0
220
0.0
230
1.0
 70
     8
 71
     3
 72
    26
 73
    22
 74
     0
 42
0.00000001
 43
0.00000001
 40
0.0
 40
0.0
 40
0.0
 40
0.0
 40
0.0312499999999977
 40
0.0312499999999977
 40
0.0624999999999953
 40
0.0624999999999953
 40
0.1249999999999939
 40
0.1249999999999939
 40
0.1874999999999925
 40
0.1874999999999925
 40
0.2499999999999911
 40
0.2499999999999911
 40
0.3749999999999926
 40
0.3749999999999926
 40
0.499999999999994
 40
0.499999999999994
 40
0.6249999999999954
 40
0.6249999999999954
 40
0.7499999999999968
 40
0.7499999999999968
 40
1.0
 40
1.0
 40
1.0
 40
1.0
 10
1188.694157024614
 20
1484.741361144194
 30
0.0
 10
1188.820198177175
 20
1484.684858441259
 30
0.0
 10
1188.916616489351
 20
1484.616682818908
 30
0.0
 10
1189.058921866921
 20
1484.460074720711
 30
0.0
 10
1189.104918471246
 20
1484.370510903814
 30
0.0
 10
1189.177280801161
 20
1484.084936823142
 30
0.0
 10
1189.143406510449
 20
1483.871839852124
 30
0.0
 10
1188.989563843798
 20
1483.419910663894
 30
0.0
 10
1188.870844249018
 20
1483.185770971502
 30
0.0
 10
1188.587824244566
 20
1482.7028435354
 30
0.0
 10
1188.422750258204
 20
1482.453996800825
 30
0.0
 10
1187.881537695326
 20
1481.685578573998
 30
0.0
 10
1187.460375929893
 20
1481.144301676481
 30
0.0
 10
1186.571054472343
 20
1480.02745782926
 30
0.0
 10
1186.0988272046
 20
1479.448224607894
 30
0.0
 10
1185.114624604741
 20
1478.24342111116
 30
0.0
 10
1184.60232860691
 20
1477.617903118475
 30
0.0
 10
1183.539056965799
 20
1476.3151886169
 30
0.0
 10
1182.988619203445
 20
1475.638718282426
 30
0.0
 10
1181.31080594874
 20
1473.573016188324
 30
0.0
 10
1180.149252881716
 20
1472.133109191641
 30
0.0
 10
1178.898580054971
 20
1470.629772299624
 30
0.0
  0
LINE
  5
BB
330
1F
100
AcDbEntity
  8
0
  6
Continuous
 62
     7
370
    25
100
AcDbLine
 10
1158.6941570246
 20
1498.1899932267
 30
0.0
 11
1188.6941570246
 21
1484.7413611442
 31
0.0
  0
SPLINE
  5
BC
330
1F
100
AcDbEntity
  8
0
  6
Continuous
 62
     7
370
    25
100
AcDbSpline
210
0.0
220
0.0
230
1.0
 70
     8
 71
     3
 72
    10
 73
     6
 74
     0
 42
0.00000001
 43
0.00000001
 40
0.0
 40
0.0
 40
0.0
 40
0.0
 40
0.4573420713506778
 40
0.8062133062447261
 40
0.9999999999999999
 40
0.9999999999999999
 40
0.9999999999999999
 40
0.9999999999999999
 10
1155.963103292181
 20
1498.18912578985
 30
0.0
 10
1156.451238864459
 20
1498.269914163969
 30
0.0
 10
1157.311735674779
 20
1498.412329800502
 30
0.0
 10
1158.22673793897
 20
1498.353036754814
 30
0.0
 10
1158.571161219567
 20
1498.232896203106
 30
0.0
 10
1158.694157024614
 20
1498.189993226715
 30
0.0
  0
LINE
  5
BD
330
1F
100
AcDbEntity
  8
0
  6
Continuous
 62
     7
370
    25
100
AcDbLine
 10
1151.4301954513
 20
1509.2634268467
 30
0.0
 11
1152.5394132713
 21
1509.6697009314
 31
0.0
  0
LWPOLYLINE
  5
BE
330
1F
100
AcDbEntity
  8
0
  6
Continuous
 62
     7
370
    25
100
AcDbPolyline
 90
       23
 70
   128
 43
0.0
 10
1335.2000314228
 20
1518.8355786594
 10
1337.4724447823
 20
1517.8707947842
 10
1341.2138508214
 20
1516.0073444589
 10
1344.3027189132
 20
1514.065435507
 10
1346.7147596226
 20
1512.0603382055
 10
1348.431005773
 20
1510.0078197154
 10
1349.4379615958
 20
1507.9240200963
 10
1349.7277088544
 20
1505.8253253879
 10
1349.29796911
 20
1503.7282387582
 10
1348.1521216378
 20
1501.6492507299
 10
1346.2991768543
 20
1499.6047095068
 10
1343.7537054632
 20
1497.6106924186
 10
1340.5357238784
 20
1495.6828794968
 10
1336.670536824
 20
1493.8364301737
 10
1332.1885383496
 20
1492.0858640758
 10
1327.1249728255
 20
1490.444946848
 10
1321.5196577973
 20
1488.9265819073
 10
1315.416670879
 20
1487.5427089756
 10
1308.8640031469
 20
1486.304210192
 10
1301.9131817602
 20
1485.22082454
 10
1294.6188647747
 20
1484.3010712652
 10
1287.0384113373
 20
1483.5521828833
 10
1279.2314306402
 20
1482.9800483075
  0
SPLINE
  5
BF
330
1F
100
AcDbEntity
  8
0
  6
Continuous
 62
     7
370
    25
100
AcDbSpline
210
0.0
220
0.0
230
1.0
 70
     8
 71
     3
 72
     9
 73
     5
 74
     0
 42
0.00000001
 43
0.00000001
 40
0.0
 40
0.0
 40
0.0
 40
0.0
 40
0.5023720848126922
 40
1.0
 40
1.0
 40
1.0
 40
1.0
 10
1152.53941327127
 20
1509.669700931399
 30
0.0
 10
1156.455822609504
 20
1510.825927597491
 30
0.0
 10
1164.251656527494
 20
1513.127462059786
 30
0.0
 10
1171.562133839137
 20
1515.533322840835
 30
0.0
 10
1175.200031422754
 20
1516.730546325539
 30
0.0
  0
LINE
  5
C0
330
1F
100
AcDbEntity
  8
0
  6
Continuous
 62
     7
370
    25
100
AcDbLine
 10
1166.9468559497
 20
1437.9342087446
 30
0.0
 11
1166.9468559497
 21
934.686853248
 31
0.0
  0
LWPOLYLINE
  5
C1
330
1F
100
AcDbEntity
  8
0
  6
Continuous
 62
     7
370
    25
100
AcDbPolyline
 90
       17
 70
   128
 43
0.0
 10
1279.2314306402
 20
1471.388938392
 10
1287.0384113373
 20
1471.9610729678
 10
1294.6188647747
 20
1472.7099613497
 10
1301.9131817602
 20
1473.6297146245
 10
1308.8640031469
 20
1474.7131002765
 10
1315.416670879
 20
1475.9515990602
 10
1321.5196577973
 20
1477.3354719918
 10
1327.1249728255
 20
1478.8538369326
 10
1332.1885383496
 20
1480.4947541603
 10
1336.670536824
 20
1482.2453202582
 10
1340.5357238784
 20
1484.0917695813
 10
1343.7537054632
 20
1486.0195825031
 10
1346.2991768543
 20
1488.0135995913
 10
1348.1521216378
 20
1490.0581408145
 10
1349.29796911
 20
1492.1371288428
 10
1349.7277088544
 20
1494.2342154725
 10
1349.731120336
 20
1494.4387135553
  0
LINE
  5
C2
330
1F
100
AcDbEntity
  8
0
  6
Continuous
 62
     7
370
    25
100
AcDbLine
 10
1140.6914804444
 20
2114.875335001
 30
0.0
 11
1141.0378906059
 21
2114.720043574
 31
0.0
  0
MTEXT
  5
C4
330
1F
100
AcDbEntity
  8
0
  6
Continuous
 62
     7
370
     0
100
AcDbMText
 10
1385.5225352113
 20
605.2640167001
 30
0.0
 40
26.4583333333
 41
0.0
 71
     1
 72
     1
  1
HOA-D63BK
  7
SLDTEXTSTYLE0
 73
     1
 44
1.0
  0
ENDSEC
  0
SECTION
  2
OBJECTS
  0
DICTIONARY
  5
C
330
0
100
AcDbDictionary
281
     1
  3
ACAD_GROUP
350
D
  3
ACAD_LAYOUT
350
1A
  3
ACAD_MLINESTYLE
350
17
  3
ACAD_PLOTSETTINGS
350
19
  3
ACAD_PLOTSTYLENAME
350
E
  3
ACAD_SCALELIST
350
47
  3
DWGPROPS
350
C5
  0
DICTIONARY
  5
D
102
{ACAD_REACTORS
330
C
102
}
330
C
100
AcDbDictionary
281
     1
  0
DICTIONARY
  5
1A
102
{ACAD_REACTORS
330
C
102
}
330
C
100
AcDbDictionary
281
     1
  3
Layout1
350
1E
  3
Layout2
350
26
  3
Model
350
22
  0
DICTIONARY
  5
17
102
{ACAD_REACTORS
330
C
102
}
330
C
100
AcDbDictionary
281
     1
  3
Standard
350
18
  0
DICTIONARY
  5
19
102
{ACAD_REACTORS
330
C
102
}
330
C
100
AcDbDictionary
281
     1
  0
ACDBDICTIONARYWDFLT
  5
E
102
{ACAD_REACTORS
330
C
102
}
330
C
100
AcDbDictionary
281
     1
  3
Normal
350
F
100
AcDbDictionaryWithDefault
340
F
  0
DICTIONARY
  5
47
102
{ACAD_REACTORS
330
C
102
}
330
C
100
AcDbDictionary
281
     1
  3
A0
350
48
  3
A1
350
49
  3
A2
350
4A
  3
A3
350
4B
  3
A4
350
4C
  3
A5
350
4D
  3
A6
350
4E
  3
A7
350
4F
  3
A8
350
50
  3
A9
350
51
  3
B0
350
52
  3
B1
350
53
  3
B2
350
54
  3
B3
350
55
  3
B4
350
56
  3
B5
350
57
  3
B6
350
58
  0
XRECORD
  5
C5
102
{ACAD_REACTORS
330
C
102
}
330
C
100
AcDbXrecord
280
     1
  1
DWGPROPS COOKIE
  2

  3

  4

  6

  7

  8
9128
  9

300
=
301
=
302
=
303
=
304
=
305
=
306
=
307
=
308
=
309
=
 40
0.0
 41
2460376.995655579
 42
2460376.995655857
  1

 90
        0
  0
LAYOUT
  5
1E
102
{ACAD_REACTORS
330
1A
102
}
330
1A
100
AcDbPlotSettings
  1

  2
none_device
  4

  6

 40
0.0
 41
0.0
 42
0.0
 43
0.0
 44
0.0
 45
0.0
 46
0.0
 47
0.0
 48
0.0
 49
0.0
140
0.0
141
0.0
142
1.0
143
1.0
 70
   688
 72
     1
 73
     0
 74
     5
  7

 75
    16
147
1.0
148
0.0
149
0.0
100
AcDbLayout
  1
Layout1
 70
     1
 71
     1
 10
0.0
 20
0.0
 11
420.0
 21
297.0
 12
0.0
 22
0.0
 32
0.0
 14
1.0000000000E+20
 24
1.0000000000E+20
 34
1.0000000000E+20
 15
-1.0000000000E+20
 25
-1.0000000000E+20
 35
-1.0000000000E+20
146
0.0
 13
0.0
 23
0.0
 33
0.0
 16
1.0
 26
0.0
 36
0.0
 17
0.0
 27
1.0
 37
0.0
 76
     0
330
1B
  0
LAYOUT
  5
26
102
{ACAD_REACTORS
330
1A
102
}
330
1A
100
AcDbPlotSettings
  1

  2
none_device
  4

  6

 40
0.0
 41
0.0
 42
0.0
 43
0.0
 44
0.0
 45
0.0
 46
0.0
 47
0.0
 48
0.0
 49
0.0
140
0.0
141
0.0
142
1.0
143
1.0
 70
   688
 72
     1
 73
     0
 74
     5
  7

 75
    16
147
1.0
148
0.0
149
0.0
100
AcDbLayout
  1
Layout2
 70
     1
 71
     2
 10
0.0
 20
0.0
 11
0.0
 21
0.0
 12
0.0
 22
0.0
 32
0.0
 14
0.0
 24
0.0
 34
0.0
 15
0.0
 25
0.0
 35
0.0
146
0.0
 13
0.0
 23
0.0
 33
0.0
 16
1.0
 26
0.0
 36
0.0
 17
0.0
 27
1.0
 37
0.0
 76
     0
330
23
  0
LAYOUT
  5
22
102
{ACAD_REACTORS
330
1A
102
}
330
1A
100
AcDbPlotSettings
  1

  2
none_device
  4
Letter_(8.50_x_11.00_Inches)
  6

 40
6.35
 41
6.35
 42
6.35000508
 43
6.35000508
 44
215.9
 45
279.4
 46
0.0
 47
0.0
 48
0.0
 49
0.0
140
0.0
141
0.0
142
1.0
143
1.0
 70
  1712
 72
     1
 73
     0
 74
     0
  7

 75
     0
147
1.0
148
0.0
149
0.0
100
AcDbLayout
  1
Model
 70
     1
 71
     0
 10
0.0
 20
0.0
 11
2100.0
 21
2970.0
 12
0.0
 22
0.0
 32
0.0
 14
0.0
 24
0.0
 34
0.0
 15
2100.0
 25
2970.0
 35
0.0
146
0.0
 13
0.0
 23
0.0
 33
0.0
 16
1.0
 26
0.0
 36
0.0
 17
0.0
 27
1.0
 37
0.0
 76
     0
330
1F
331
29
  0
MLINESTYLE
  5
18
102
{ACAD_REACTORS
330
17
102
}
330
17
100
AcDbMlineStyle
  2
Standard
 70
     0
  3

 62
   256
 51
90.0
 52
90.0
 71
     2
 49
0.5
 62
   256
  6
BYLAYER
 49
-0.5
 62
   256
  6
BYLAYER
  0
ACDBPLACEHOLDER
  5
F
102
{ACAD_REACTORS
330
E
102
}
330
E
  0
SCALE
  5
48
102
{ACAD_REACTORS
330
47
102
}
330
47
100
AcDbScale
 70
     0
300
1:1
140
1.0
141
1.0
290
     1
  0
SCALE
  5
49
102
{ACAD_REACTORS
330
47
102
}
330
47
100
AcDbScale
 70
     0
300
1:2
140
1.0
141
2.0
290
     0
  0
SCALE
  5
4A
102
{ACAD_REACTORS
330
47
102
}
330
47
100
AcDbScale
 70
     0
300
1:4
140
1.0
141
4.0
290
     0
  0
SCALE
  5
4B
102
{ACAD_REACTORS
330
47
102
}
330
47
100
AcDbScale
 70
     0
300
1:5
140
1.0
141
5.0
290
     0
  0
SCALE
  5
4C
102
{ACAD_REACTORS
330
47
102
}
330
47
100
AcDbScale
 70
     0
300
1:8
140
1.0
141
8.0
290
     0
  0
SCALE
  5
4D
102
{ACAD_REACTORS
330
47
102
}
330
47
100
AcDbScale
 70
     0
300
1:10
140
1.0
141
10.0
290
     0
  0
SCALE
  5
4E
102
{ACAD_REACTORS
330
47
102
}
330
47
100
AcDbScale
 70
     0
300
1:16
140
1.0
141
16.0
290
     0
  0
SCALE
  5
4F
102
{ACAD_REACTORS
330
47
102
}
330
47
100
AcDbScale
 70
     0
300
1:20
140
1.0
141
20.0
290
     0
  0
SCALE
  5
50
102
{ACAD_REACTORS
330
47
102
}
330
47
100
AcDbScale
 70
     0
300
1:30
140
1.0
141
30.0
290
     0
  0
SCALE
  5
51
102
{ACAD_REACTORS
330
47
102
}
330
47
100
AcDbScale
 70
     0
300
1:40
140
1.0
141
40.0
290
     0
  0
SCALE
  5
52
102
{ACAD_REACTORS
330
47
102
}
330
47
100
AcDbScale
 70
     0
300
1:50
140
1.0
141
50.0
290
     0
  0
SCALE
  5
53
102
{ACAD_REACTORS
330
47
102
}
330
47
100
AcDbScale
 70
     0
300
1:100
140
1.0
141
100.0
290
     0
  0
SCALE
  5
54
102
{ACAD_REACTORS
330
47
102
}
330
47
100
AcDbScale
 70
     0
300
2:1
140
2.0
141
1.0
290
     0
  0
SCALE
  5
55
102
{ACAD_REACTORS
330
47
102
}
330
47
100
AcDbScale
 70
     0
300
4:1
140
4.0
141
1.0
290
     0
  0
SCALE
  5
56
102
{ACAD_REACTORS
330
47
102
}
330
47
100
AcDbScale
 70
     0
300
8:1
140
8.0
141
1.0
290
     0
  0
SCALE
  5
57
102
{ACAD_REACTORS
330
47
102
}
330
47
100
AcDbScale
 70
     0
300
10:1
140
10.0
141
1.0
290
     0
  0
SCALE
  5
58
102
{ACAD_REACTORS
330
47
102
}
330
47
100
AcDbScale
 70
     0
300
100:1
140
100.0
141
1.0
290
     0
  0
ENDSEC
  0
EOF
